ISO-10303-21;
HEADER;
FILE_DESCRIPTION (( 'STEP AP203' ),
    '1' );
FILE_NAME ('4cdb.STEP',
    '2022-07-10T09:05:57',
    ( '' ),
    ( '' ),
    'SwSTEP 2.0',
    'SolidWorks 2019',
    '' );
FILE_SCHEMA (( 'CONFIG_CONTROL_DESIGN' ));
ENDSEC;

DATA;
#1 = LINE ( 'NONE', #209, #2 ) ;
#2 = VECTOR ( 'NONE', #82, 1000.000000000000000 ) ;
#3 = EDGE_CURVE ( 'NONE', #13, #357, #24, .T. ) ;
#4 = EDGE_LOOP ( 'NONE', ( #213, #127, #179, #11 ) ) ;
#5 = CARTESIAN_POINT ( 'NONE',  ( 0.000000000000000000, 0.000000000000000000, 5.000000000000000000 ) ) ;
#6 = ORIENTED_EDGE ( 'NONE', *, *, #244, .F. ) ;
#7 = CIRCLE ( 'NONE', #83, 5.000000000000000000 ) ;
#8 = CARTESIAN_POINT ( 'NONE',  ( 0.000000000000000000, 0.000000000000000000, 5.000000000000000000 ) ) ;
#9 = MANIFOLD_SOLID_BREP ( 'Odebrat vysunutím3', #379 ) ;
#10 = EDGE_CURVE ( 'NONE', #240, #232, #178, .T. ) ;
#11 = ORIENTED_EDGE ( 'NONE', *, *, #230, .T. ) ;
#12 = APPROVAL_STATUS ( 'not_yet_approved' ) ;
#13 = VERTEX_POINT ( 'NONE', #249 ) ;
#14 = ORIENTED_EDGE ( 'NONE', *, *, #3, .T. ) ;
#15 = AXIS2_PLACEMENT_3D ( 'NONE', #131, #46, #211 ) ;
#16 = DIRECTION ( 'NONE',  ( -0.000000000000000000, -0.000000000000000000, -1.000000000000000000 ) ) ;
#17 = CIRCLE ( 'NONE', #254, 8.000000000000000000 ) ;
#18 = PERSON_AND_ORGANIZATION ( #270, #364 ) ;
#19 = CARTESIAN_POINT ( 'NONE',  ( 0.000000000000000000, 0.000000000000000000, 0.000000000000000000 ) ) ;
#20 = CARTESIAN_POINT ( 'NONE',  ( 0.000000000000000000, 0.000000000000000000, 255.0000000000000000 ) ) ;
#21 = CARTESIAN_POINT ( 'NONE',  ( -3.000000000000000444, 0.000000000000000000, 255.0000000000000000 ) ) ;
#22 = CC_DESIGN_PERSON_AND_ORGANIZATION_ASSIGNMENT ( #168, #50, ( #195 ) ) ;
#23 = DIRECTION ( 'NONE',  ( 0.000000000000000000, 0.000000000000000000, -1.000000000000000000 ) ) ;
#24 = CIRCLE ( 'NONE', #342, 3.000000000000000444 ) ;
#25 = CARTESIAN_POINT ( 'NONE',  ( 8.000000000000000000, 9.797174393178825657E-16, 5.000000000000000000 ) ) ;
#26 = DIRECTION ( 'NONE',  ( 0.000000000000000000, 0.000000000000000000, -1.000000000000000000 ) ) ;
#27 = PERSON_AND_ORGANIZATION_ROLE ( 'design_supplier' ) ;
#28 = CARTESIAN_POINT ( 'NONE',  ( -8.000000000000000000, 0.000000000000000000, 0.000000000000000000 ) ) ;
#29 = AXIS2_PLACEMENT_3D ( 'NONE', #351, #26, #141 ) ;
#30 = DIRECTION ( 'NONE',  ( 1.000000000000000000, 0.000000000000000000, 0.000000000000000000 ) ) ;
#31 = APPROVAL_PERSON_ORGANIZATION ( #376, #194, #110 ) ;
#32 = CARTESIAN_POINT ( 'NONE',  ( 8.000000000000000000, 9.797174393178825657E-16, 0.000000000000000000 ) ) ;
#33 = ORIENTED_EDGE ( 'NONE', *, *, #121, .T. ) ;
#34 = DESIGN_CONTEXT ( 'detailed design', #203, 'design' ) ;
#35 = FACE_OUTER_BOUND ( 'NONE', #243, .T. ) ;
#36 = EDGE_CURVE ( 'NONE', #232, #357, #132, .T. ) ;
#37 = ORIENTED_EDGE ( 'NONE', *, *, #57, .T. ) ;
#38 = AXIS2_PLACEMENT_3D ( 'NONE', #19, #219, #165 ) ;
#39 = DIRECTION ( 'NONE',  ( 1.000000000000000000, 0.000000000000000000, -0.000000000000000000 ) ) ;
#40 = ORIENTED_EDGE ( 'NONE', *, *, #293, .T. ) ;
#41 = CARTESIAN_POINT ( 'NONE',  ( 0.000000000000000000, 0.000000000000000000, 0.000000000000000000 ) ) ;
#42 = ORIENTED_EDGE ( 'NONE', *, *, #244, .T. ) ;
#43 = APPROVAL ( #196, 'NEURÈENÝ' ) ;
#44 = CC_DESIGN_APPROVAL ( #194, ( #195 ) ) ;
#45 = CARTESIAN_POINT ( 'NONE',  ( 0.000000000000000000, 0.000000000000000000, 0.000000000000000000 ) ) ;
#46 = DIRECTION ( 'NONE',  ( 0.000000000000000000, 0.000000000000000000, 1.000000000000000000 ) ) ;
#47 = EDGE_LOOP ( 'NONE', ( #264, #279, #365, #354 ) ) ;
#48 = FACE_OUTER_BOUND ( 'NONE', #238, .T. ) ;
#49 = EDGE_LOOP ( 'NONE', ( #188, #271, #181, #205 ) ) ;
#50 = PERSON_AND_ORGANIZATION_ROLE ( 'creator' ) ;
#51 = DIRECTION ( 'NONE',  ( -0.000000000000000000, -0.000000000000000000, -1.000000000000000000 ) ) ;
#52 = DIRECTION ( 'NONE',  ( 1.000000000000000000, 0.000000000000000000, 0.000000000000000000 ) ) ;
#53 = EDGE_CURVE ( 'NONE', #215, #185, #56, .T. ) ;
#54 = CARTESIAN_POINT ( 'NONE',  ( -5.000000000000000000, 0.000000000000000000, 255.0000000000000000 ) ) ;
#55 =( GEOMETRIC_REPRESENTATION_CONTEXT ( 3 ) GLOBAL_UNCERTAINTY_ASSIGNED_CONTEXT ( ( #329 ) ) GLOBAL_UNIT_ASSIGNED_CONTEXT ( ( #216, #303, #106 ) ) REPRESENTATION_CONTEXT ( 'NONE', 'WORKASPACE' ) );
#56 = CIRCLE ( 'NONE', #349, 0.5000000000000004441 ) ;
#57 = EDGE_CURVE ( 'NONE', #125, #235, #117, .T. ) ;
#58 = LOCAL_TIME ( 11, 5, 57.00000000000000000, #313 ) ;
#59 = CARTESIAN_POINT ( 'NONE',  ( 0.000000000000000000, 0.000000000000000000, 255.0000000000000000 ) ) ;
#60 = ORIENTED_EDGE ( 'NONE', *, *, #230, .F. ) ;
#61 = CARTESIAN_POINT ( 'NONE',  ( -8.000000000000000000, 0.000000000000000000, 5.000000000000000000 ) ) ;
#62 = EDGE_LOOP ( 'NONE', ( #292, #336, #223, #68 ) ) ;
#63 = APPLICATION_PROTOCOL_DEFINITION ( 'international standard', 'config_control_design', 1994, #203 ) ;
#64 = CIRCLE ( 'NONE', #322, 3.000000000000000444 ) ;
#65 = DIRECTION ( 'NONE',  ( 0.000000000000000000, 0.000000000000000000, -1.000000000000000000 ) ) ;
#66 = DIRECTION ( 'NONE',  ( -0.000000000000000000, -0.000000000000000000, -1.000000000000000000 ) ) ;
#67 = ADVANCED_FACE ( 'NONE', ( #345, #48 ), #347, .F. ) ;
#68 = ORIENTED_EDGE ( 'NONE', *, *, #332, .F. ) ;
#69 = PERSON_AND_ORGANIZATION ( #270, #364 ) ;
#70 = ORIENTED_EDGE ( 'NONE', *, *, #53, .T. ) ;
#71 = APPROVAL_PERSON_ORGANIZATION ( #252, #43, #75 ) ;
#72 = DATE_TIME_ROLE ( 'creation_date' ) ;
#73 = CARTESIAN_POINT ( 'NONE',  ( 0.000000000000000000, 0.000000000000000000, 5.000000000000000000 ) ) ;
#74 = EDGE_CURVE ( 'NONE', #334, #160, #177, .T. ) ;
#75 = APPROVAL_ROLE ( '' ) ;
#76 = EDGE_LOOP ( 'NONE', ( #272, #96 ) ) ;
#77 = FACE_OUTER_BOUND ( 'NONE', #208, .T. ) ;
#78 = FACE_BOUND ( 'NONE', #76, .T. ) ;
#79 = APPROVAL_DATE_TIME ( #140, #194 ) ;
#80 = EDGE_CURVE ( 'NONE', #156, #304, #17, .T. ) ;
#81 = FACE_OUTER_BOUND ( 'NONE', #47, .T. ) ;
#82 = DIRECTION ( 'NONE',  ( -0.000000000000000000, -0.000000000000000000, -1.000000000000000000 ) ) ;
#83 = AXIS2_PLACEMENT_3D ( 'NONE', #89, #263, #52 ) ;
#84 = APPROVAL ( #12, 'NEURÈENÝ' ) ;
#85 = CIRCLE ( 'NONE', #300, 8.000000000000000000 ) ;
#86 = DIRECTION ( 'NONE',  ( -0.000000000000000000, -0.000000000000000000, -1.000000000000000000 ) ) ;
#87 = AXIS2_PLACEMENT_3D ( 'NONE', #260, #147, #318 ) ;
#88 = ORIENTED_EDGE ( 'NONE', *, *, #150, .T. ) ;
#89 = CARTESIAN_POINT ( 'NONE',  ( 0.000000000000000000, 0.000000000000000000, 5.500000000000005329 ) ) ;
#90 = CC_DESIGN_PERSON_AND_ORGANIZATION_ASSIGNMENT ( #170, #285, ( #267 ) ) ;
#91 = ORIENTED_EDGE ( 'NONE', *, *, #53, .F. ) ;
#92 = CARTESIAN_POINT ( 'NONE',  ( 3.000000000000000444, 3.673940397442060361E-16, 255.0000000000000000 ) ) ;
#93 = PRODUCT ( '4cdb', '4cdb', '', ( #214 ) ) ;
#94 = ORIENTED_EDGE ( 'NONE', *, *, #261, .F. ) ;
#95 = CYLINDRICAL_SURFACE ( 'NONE', #184, 3.000000000000000444 ) ;
#96 = ORIENTED_EDGE ( 'NONE', *, *, #316, .T. ) ;
#97 = AXIS2_PLACEMENT_3D ( 'NONE', #308, #66, #157 ) ;
#98 = EDGE_CURVE ( 'NONE', #304, #156, #85, .T. ) ;
#99 = CARTESIAN_POINT ( 'NONE',  ( -5.000000000000000000, 0.000000000000000000, 255.0000000000000000 ) ) ;
#100 = EDGE_LOOP ( 'NONE', ( #139, #362, #295, #33 ) ) ;
#101 = PERSON_AND_ORGANIZATION ( #270, #364 ) ;
#102 = CARTESIAN_POINT ( 'NONE',  ( 3.000000000000000444, 3.673940397442060361E-16, 255.0000000000000000 ) ) ;
#103 = DATE_AND_TIME ( #370, #161 ) ;
#104 = ORIENTED_EDGE ( 'NONE', *, *, #80, .F. ) ;
#105 = AXIS2_PLACEMENT_3D ( 'NONE', #172, #330, #169 ) ;
#106 =( NAMED_UNIT ( * ) SI_UNIT ( $, .STERADIAN. ) SOLID_ANGLE_UNIT ( ) );
#107 = DIRECTION ( 'NONE',  ( 0.000000000000000000, -1.000000000000000000, 0.000000000000000000 ) ) ;
#108 = ADVANCED_FACE ( 'NONE', ( #78, #369 ), #191, .T. ) ;
#109 = VECTOR ( 'NONE', #23, 1000.000000000000000 ) ;
#110 = APPROVAL_ROLE ( '' ) ;
#111 = CARTESIAN_POINT ( 'NONE',  ( 8.000000000000000000, 9.797174393178825657E-16, 5.000000000000000000 ) ) ;
#112 = CARTESIAN_POINT ( 'NONE',  ( 0.000000000000000000, 0.000000000000000000, 5.500000000000005329 ) ) ;
#113 = DIRECTION ( 'NONE',  ( 0.000000000000000000, 0.000000000000000000, 1.000000000000000000 ) ) ;
#114 = DIRECTION ( 'NONE',  ( -0.000000000000000000, -0.000000000000000000, -1.000000000000000000 ) ) ;
#115 = DATE_AND_TIME ( #167, #242 ) ;
#116 = PRODUCT_DEFINITION ( 'NEZNÁMÝ', '', #195, #34 ) ;
#117 = CIRCLE ( 'NONE', #202, 8.000000000000000000 ) ;
#118 = CARTESIAN_POINT ( 'NONE',  ( 5.000000000000000000, 6.123233995736766282E-16, 5.500000000000005329 ) ) ;
#119 = ORIENTED_EDGE ( 'NONE', *, *, #121, .F. ) ;
#120 = CYLINDRICAL_SURFACE ( 'NONE', #87, 8.000000000000000000 ) ;
#121 = EDGE_CURVE ( 'NONE', #326, #215, #198, .T. ) ;
#122 = TOROIDAL_SURFACE ( 'NONE', #321, 5.500000000000000000, 0.5000000000000000000 ) ;
#123 = ORIENTED_EDGE ( 'NONE', *, *, #346, .T. ) ;
#124 = CARTESIAN_POINT ( 'NONE',  ( -8.000000000000000000, 0.000000000000000000, 5.000000000000000000 ) ) ;
#125 = VERTEX_POINT ( 'NONE', #111 ) ;
#126 = DATE_AND_TIME ( #248, #227 ) ;
#127 = ORIENTED_EDGE ( 'NONE', *, *, #10, .T. ) ;
#128 = APPLICATION_PROTOCOL_DEFINITION ( 'international standard', 'config_control_design', 1994, #142 ) ;
#129 = EDGE_LOOP ( 'NONE', ( #6, #94, #70, #302 ) ) ;
#130 = LOCAL_TIME ( 11, 5, 57.00000000000000000, #164 ) ;
#131 = CARTESIAN_POINT ( 'NONE',  ( 0.000000000000000000, 0.000000000000000000, 255.0000000000000000 ) ) ;
#132 = LINE ( 'NONE', #21, #109 ) ;
#133 = APPROVAL_ROLE ( '' ) ;
#134 = DIRECTION ( 'NONE',  ( 1.000000000000000000, 0.000000000000000000, 0.000000000000000000 ) ) ;
#135 = COORDINATED_UNIVERSAL_TIME_OFFSET ( 1, 0, .AHEAD. ) ;
#136 = ADVANCED_FACE ( 'NONE', ( #77 ), #122, .F. ) ;
#137 = CARTESIAN_POINT ( 'NONE',  ( 0.000000000000000000, 0.000000000000000000, 0.000000000000000000 ) ) ;
#138 = DIRECTION ( 'NONE',  ( 0.000000000000000000, 0.000000000000000000, 1.000000000000000000 ) ) ;
#139 = ORIENTED_EDGE ( 'NONE', *, *, #155, .F. ) ;
#140 = DATE_AND_TIME ( #199, #130 ) ;
#141 = DIRECTION ( 'NONE',  ( -1.000000000000000000, 0.000000000000000000, 0.000000000000000000 ) ) ;
#142 = APPLICATION_CONTEXT ( 'configuration controlled 3d designs of mechanical parts and assemblies' ) ;
#143 = PERSON_AND_ORGANIZATION ( #270, #364 ) ;
#144 = CIRCLE ( 'NONE', #190, 3.000000000000000444 ) ;
#145 = CARTESIAN_POINT ( 'NONE',  ( 0.000000000000000000, 0.000000000000000000, 0.000000000000000000 ) ) ;
#146 = EDGE_CURVE ( 'NONE', #125, #156, #314, .T. ) ;
#147 = DIRECTION ( 'NONE',  ( -0.000000000000000000, -0.000000000000000000, -1.000000000000000000 ) ) ;
#148 = TOROIDAL_SURFACE ( 'NONE', #281, 5.500000000000000000, 0.5000000000000000000 ) ;
#149 = AXIS2_PLACEMENT_3D ( 'NONE', #320, #86, #324 ) ;
#150 = EDGE_CURVE ( 'NONE', #240, #13, #276, .T. ) ;
#151 = FACE_OUTER_BOUND ( 'NONE', #187, .T. ) ;
#152 = ORIENTED_EDGE ( 'NONE', *, *, #323, .F. ) ;
#153 = DIRECTION ( 'NONE',  ( -0.000000000000000000, -0.000000000000000000, -1.000000000000000000 ) ) ;
#154 = VERTEX_POINT ( 'NONE', #338 ) ;
#155 = EDGE_CURVE ( 'NONE', #334, #215, #1, .T. ) ;
#156 = VERTEX_POINT ( 'NONE', #32 ) ;
#157 = DIRECTION ( 'NONE',  ( -1.000000000000000000, 0.000000000000000000, 0.000000000000000000 ) ) ;
#158 = ORIENTED_EDGE ( 'NONE', *, *, #36, .F. ) ;
#159 = PERSON_AND_ORGANIZATION_ROLE ( 'design_owner' ) ;
#160 = VERTEX_POINT ( 'NONE', #54 ) ;
#161 = LOCAL_TIME ( 11, 5, 57.00000000000000000, #246 ) ;
#162 = DIRECTION ( 'NONE',  ( 0.000000000000000000, 0.000000000000000000, 1.000000000000000000 ) ) ;
#163 = DIRECTION ( 'NONE',  ( 1.000000000000000000, 0.000000000000000000, -0.000000000000000000 ) ) ;
#164 = COORDINATED_UNIVERSAL_TIME_OFFSET ( 1, 0, .AHEAD. ) ;
#165 = DIRECTION ( 'NONE',  ( 1.000000000000000000, 0.000000000000000000, -0.000000000000000000 ) ) ;
#166 = DIRECTION ( 'NONE',  ( 0.000000000000000000, 0.000000000000000000, 1.000000000000000000 ) ) ;
#167 = CALENDAR_DATE ( 2022, 10, 7 ) ;
#168 = PERSON_AND_ORGANIZATION ( #270, #364 ) ;
#169 = DIRECTION ( 'NONE',  ( -1.000000000000000000, 0.000000000000000000, 0.000000000000000000 ) ) ;
#170 = PERSON_AND_ORGANIZATION ( #270, #364 ) ;
#171 = APPROVAL_PERSON_ORGANIZATION ( #101, #84, #133 ) ;
#172 = CARTESIAN_POINT ( 'NONE',  ( 0.000000000000000000, 0.000000000000000000, 5.000000000000000000 ) ) ;
#173 = CC_DESIGN_DATE_AND_TIME_ASSIGNMENT ( #319, #192, ( #267 ) ) ;
#174 = CIRCLE ( 'NONE', #220, 8.000000000000000000 ) ;
#175 = ADVANCED_FACE ( 'NONE', ( #81 ), #206, .T. ) ;
#176 = DIRECTION ( 'NONE',  ( 1.000000000000000000, 0.000000000000000000, 0.000000000000000000 ) ) ;
#177 = CIRCLE ( 'NONE', #367, 5.000000000000000000 ) ;
#178 = CIRCLE ( 'NONE', #207, 3.000000000000000444 ) ;
#179 = ORIENTED_EDGE ( 'NONE', *, *, #36, .T. ) ;
#180 = CYLINDRICAL_SURFACE ( 'NONE', #149, 5.000000000000000000 ) ;
#181 = ORIENTED_EDGE ( 'NONE', *, *, #284, .T. ) ;
#182 = ADVANCED_FACE ( 'NONE', ( #350 ), #148, .F. ) ;
#183 = DIRECTION ( 'NONE',  ( 0.000000000000000000, 0.000000000000000000, 1.000000000000000000 ) ) ;
#184 = AXIS2_PLACEMENT_3D ( 'NONE', #361, #65, #335 ) ;
#185 = VERTEX_POINT ( 'NONE', #259 ) ;
#186 = FACE_OUTER_BOUND ( 'NONE', #100, .T. ) ;
#187 = EDGE_LOOP ( 'NONE', ( #298, #88, #14, #158 ) ) ;
#188 = ORIENTED_EDGE ( 'NONE', *, *, #146, .F. ) ;
#189 = CARTESIAN_POINT ( 'NONE',  ( 5.500000000000000000, 0.000000000000000000, 5.500000000000005329 ) ) ;
#190 = AXIS2_PLACEMENT_3D ( 'NONE', #145, #236, #380 ) ;
#191 = PLANE ( 'NONE',  #262 ) ;
#192 = DATE_TIME_ROLE ( 'classification_date' ) ;
#193 = DIRECTION ( 'NONE',  ( 1.000000000000000000, 0.000000000000000000, 0.000000000000000000 ) ) ;
#194 = APPROVAL ( #224, 'NEURÈENÝ' ) ;
#195 = PRODUCT_DEFINITION_FORMATION_WITH_SPECIFIED_SOURCE ( 'LIBOVOLNÝ', '', #93, .NOT_KNOWN. ) ;
#196 = APPROVAL_STATUS ( 'not_yet_approved' ) ;
#197 = DIRECTION ( 'NONE',  ( 1.000000000000000000, 0.000000000000000000, 0.000000000000000000 ) ) ;
#198 = CIRCLE ( 'NONE', #368, 5.000000000000000000 ) ;
#199 = CALENDAR_DATE ( 2022, 10, 7 ) ;
#200 = DIRECTION ( 'NONE',  ( 1.000000000000000000, 0.000000000000000000, 0.000000000000000000 ) ) ;
#201 = AXIS2_PLACEMENT_3D ( 'NONE', #20, #183, #39 ) ;
#202 = AXIS2_PLACEMENT_3D ( 'NONE', #221, #245, #193 ) ;
#203 = APPLICATION_CONTEXT ( 'configuration controlled 3d designs of mechanical parts and assemblies' ) ;
#204 = CARTESIAN_POINT ( 'NONE',  ( -3.000000000000000444, 0.000000000000000000, 255.0000000000000000 ) ) ;
#205 = ORIENTED_EDGE ( 'NONE', *, *, #98, .T. ) ;
#206 = CYLINDRICAL_SURFACE ( 'NONE', #105, 8.000000000000000000 ) ;
#207 = AXIS2_PLACEMENT_3D ( 'NONE', #277, #372, #312 ) ;
#208 = EDGE_LOOP ( 'NONE', ( #119, #42, #328, #91 ) ) ;
#209 = CARTESIAN_POINT ( 'NONE',  ( 5.000000000000000000, 6.123233995736766282E-16, 255.0000000000000000 ) ) ;
#210 = ORIENTED_EDGE ( 'NONE', *, *, #98, .F. ) ;
#211 = DIRECTION ( 'NONE',  ( 1.000000000000000000, 0.000000000000000000, 0.000000000000000000 ) ) ;
#212 = AXIS2_PLACEMENT_3D ( 'NONE', #5, #256, #378 ) ;
#213 = ORIENTED_EDGE ( 'NONE', *, *, #150, .F. ) ;
#214 = MECHANICAL_CONTEXT ( 'NONE', #142, 'mechanical' ) ;
#215 = VERTEX_POINT ( 'NONE', #118 ) ;
#216 =( LENGTH_UNIT ( ) NAMED_UNIT ( * ) SI_UNIT ( .MILLI., .METRE. ) );
#217 = DIRECTION ( 'NONE',  ( 0.000000000000000000, 0.000000000000000000, -1.000000000000000000 ) ) ;
#218 = PLANE ( 'NONE',  #201 ) ;
#219 = DIRECTION ( 'NONE',  ( 0.000000000000000000, 0.000000000000000000, 1.000000000000000000 ) ) ;
#220 = AXIS2_PLACEMENT_3D ( 'NONE', #8, #228, #200 ) ;
#221 = CARTESIAN_POINT ( 'NONE',  ( 0.000000000000000000, 0.000000000000000000, 5.000000000000000000 ) ) ;
#222 = ADVANCED_FACE ( 'NONE', ( #287 ), #120, .T. ) ;
#223 = ORIENTED_EDGE ( 'NONE', *, *, #261, .T. ) ;
#224 = APPROVAL_STATUS ( 'not_yet_approved' ) ;
#225 = ORIENTED_EDGE ( 'NONE', *, *, #3, .F. ) ;
#226 = ADVANCED_BREP_SHAPE_REPRESENTATION ( '4cdb', ( #9, #363 ), #55 ) ;
#227 = LOCAL_TIME ( 11, 5, 57.00000000000000000, #135 ) ;
#228 = DIRECTION ( 'NONE',  ( 0.000000000000000000, 0.000000000000000000, 1.000000000000000000 ) ) ;
#229 = VECTOR ( 'NONE', #114, 1000.000000000000000 ) ;
#230 = EDGE_CURVE ( 'NONE', #357, #13, #144, .T. ) ;
#231 = DIRECTION ( 'NONE',  ( 1.000000000000000000, 0.000000000000000000, 0.000000000000000000 ) ) ;
#232 = VERTEX_POINT ( 'NONE', #204 ) ;
#233 = CARTESIAN_POINT ( 'NONE',  ( -5.500000000000000000, 6.735557395310442023E-16, 5.500000000000005329 ) ) ;
#234 = CC_DESIGN_APPROVAL ( #84, ( #116 ) ) ;
#235 = VERTEX_POINT ( 'NONE', #124 ) ;
#236 = DIRECTION ( 'NONE',  ( -0.000000000000000000, -0.000000000000000000, -1.000000000000000000 ) ) ;
#237 = EDGE_CURVE ( 'NONE', #185, #154, #251, .T. ) ;
#238 = EDGE_LOOP ( 'NONE', ( #210, #104 ) ) ;
#239 = FACE_BOUND ( 'NONE', #343, .T. ) ;
#240 = VERTEX_POINT ( 'NONE', #92 ) ;
#241 = DIRECTION ( 'NONE',  ( 1.000000000000000000, 0.000000000000000000, 0.000000000000000000 ) ) ;
#242 = LOCAL_TIME ( 11, 5, 57.00000000000000000, #257 ) ;
#243 = EDGE_LOOP ( 'NONE', ( #123, #268 ) ) ;
#244 = EDGE_CURVE ( 'NONE', #326, #154, #315, .T. ) ;
#245 = DIRECTION ( 'NONE',  ( 0.000000000000000000, 0.000000000000000000, 1.000000000000000000 ) ) ;
#246 = COORDINATED_UNIVERSAL_TIME_OFFSET ( 1, 0, .AHEAD. ) ;
#247 = EDGE_LOOP ( 'NONE', ( #60, #225 ) ) ;
#248 = CALENDAR_DATE ( 2022, 10, 7 ) ;
#249 = CARTESIAN_POINT ( 'NONE',  ( 3.000000000000000444, 3.673940397442060361E-16, 0.000000000000000000 ) ) ;
#250 = VECTOR ( 'NONE', #51, 1000.000000000000000 ) ;
#251 = CIRCLE ( 'NONE', #339, 5.500000000000000000 ) ;
#252 = PERSON_AND_ORGANIZATION ( #270, #364 ) ;
#253 = CARTESIAN_POINT ( 'NONE',  ( 0.000000000000000000, 0.000000000000000000, 255.0000000000000000 ) ) ;
#254 = AXIS2_PLACEMENT_3D ( 'NONE', #45, #138, #377 ) ;
#255 = DIRECTION ( 'NONE',  ( 0.000000000000000000, 0.000000000000000000, 1.000000000000000000 ) ) ;
#256 = DIRECTION ( 'NONE',  ( -0.000000000000000000, -0.000000000000000000, -1.000000000000000000 ) ) ;
#257 = COORDINATED_UNIVERSAL_TIME_OFFSET ( 1, 0, .AHEAD. ) ;
#258 = CC_DESIGN_PERSON_AND_ORGANIZATION_ASSIGNMENT ( #69, #305, ( #116 ) ) ;
#259 = CARTESIAN_POINT ( 'NONE',  ( 5.500000000000000000, 0.000000000000000000, 5.000000000000002665 ) ) ;
#260 = CARTESIAN_POINT ( 'NONE',  ( 0.000000000000000000, 0.000000000000000000, 5.000000000000000000 ) ) ;
#261 = EDGE_CURVE ( 'NONE', #215, #326, #7, .T. ) ;
#262 = AXIS2_PLACEMENT_3D ( 'NONE', #73, #309, #163 ) ;
#263 = DIRECTION ( 'NONE',  ( 0.000000000000000000, 0.000000000000000000, 1.000000000000000000 ) ) ;
#264 = ORIENTED_EDGE ( 'NONE', *, *, #57, .F. ) ;
#265 = LINE ( 'NONE', #61, #229 ) ;
#266 = CC_DESIGN_PERSON_AND_ORGANIZATION_ASSIGNMENT ( #18, #159, ( #93 ) ) ;
#267 = SECURITY_CLASSIFICATION ( '', '', #381 ) ;
#268 = ORIENTED_EDGE ( 'NONE', *, *, #74, .T. ) ;
#269 = CARTESIAN_POINT ( 'NONE',  ( -5.000000000000000000, 0.000000000000000000, 5.500000000000005329 ) ) ;
#270 = PERSON ( 'NEURÈENÝ', 'NEURÈENÝ', 'NEURÈENÝ', ('NEURÈENÝ'), ('NEURÈENÝ'), ('NEURÈENÝ') ) ;
#271 = ORIENTED_EDGE ( 'NONE', *, *, #293, .F. ) ;
#272 = ORIENTED_EDGE ( 'NONE', *, *, #237, .T. ) ;
#273 = CC_DESIGN_DATE_AND_TIME_ASSIGNMENT ( #103, #72, ( #116 ) ) ;
#274 = CYLINDRICAL_SURFACE ( 'NONE', #97, 5.000000000000000000 ) ;
#275 = CC_DESIGN_SECURITY_CLASSIFICATION ( #267, ( #195 ) ) ;
#276 = LINE ( 'NONE', #102, #296 ) ;
#277 = CARTESIAN_POINT ( 'NONE',  ( 0.000000000000000000, 0.000000000000000000, 255.0000000000000000 ) ) ;
#278 = DIRECTION ( 'NONE',  ( 0.000000000000000000, 0.000000000000000000, 1.000000000000000000 ) ) ;
#279 = ORIENTED_EDGE ( 'NONE', *, *, #146, .T. ) ;
#280 = DIRECTION ( 'NONE',  ( 1.000000000000000000, 0.000000000000000000, 0.000000000000000000 ) ) ;
#281 = AXIS2_PLACEMENT_3D ( 'NONE', #358, #356, #30 ) ;
#282 = DIRECTION ( 'NONE',  ( 1.000000000000000000, 0.000000000000000000, 0.000000000000000000 ) ) ;
#283 = DIRECTION ( 'NONE',  ( -1.000000000000000000, 1.224646799147351482E-16, 0.000000000000000000 ) ) ;
#284 = EDGE_CURVE ( 'NONE', #235, #304, #265, .T. ) ;
#285 = PERSON_AND_ORGANIZATION_ROLE ( 'classification_officer' ) ;
#286 = CYLINDRICAL_SURFACE ( 'NONE', #29, 3.000000000000000444 ) ;
#287 = FACE_OUTER_BOUND ( 'NONE', #49, .T. ) ;
#288 = ADVANCED_FACE ( 'NONE', ( #151 ), #286, .F. ) ;
#289 = CC_DESIGN_APPROVAL ( #43, ( #267 ) ) ;
#290 = PRODUCT_DEFINITION_SHAPE ( 'NONE', 'NONE',  #116 ) ;
#291 = FACE_OUTER_BOUND ( 'NONE', #4, .T. ) ;
#292 = ORIENTED_EDGE ( 'NONE', *, *, #74, .F. ) ;
#293 = EDGE_CURVE ( 'NONE', #235, #125, #174, .T. ) ;
#294 = CARTESIAN_POINT ( 'NONE',  ( 0.000000000000000000, 0.000000000000000000, 5.000000000000000000 ) ) ;
#295 = ORIENTED_EDGE ( 'NONE', *, *, #332, .T. ) ;
#296 = VECTOR ( 'NONE', #217, 1000.000000000000000 ) ;
#297 = CARTESIAN_POINT ( 'NONE',  ( -3.000000000000000444, 0.000000000000000000, 0.000000000000000000 ) ) ;
#298 = ORIENTED_EDGE ( 'NONE', *, *, #323, .T. ) ;
#299 = DIRECTION ( 'NONE',  ( -0.000000000000000000, -0.000000000000000000, -1.000000000000000000 ) ) ;
#300 = AXIS2_PLACEMENT_3D ( 'NONE', #340, #162, #134 ) ;
#301 = CC_DESIGN_PERSON_AND_ORGANIZATION_ASSIGNMENT ( #143, #27, ( #195 ) ) ;
#302 = ORIENTED_EDGE ( 'NONE', *, *, #316, .F. ) ;
#303 =( NAMED_UNIT ( * ) PLANE_ANGLE_UNIT ( ) SI_UNIT ( $, .RADIAN. ) );
#304 = VERTEX_POINT ( 'NONE', #28 ) ;
#305 = PERSON_AND_ORGANIZATION_ROLE ( 'creator' ) ;
#306 = VECTOR ( 'NONE', #299, 1000.000000000000000 ) ;
#307 = DIRECTION ( 'NONE',  ( 0.000000000000000000, 0.000000000000000000, -1.000000000000000000 ) ) ;
#308 = CARTESIAN_POINT ( 'NONE',  ( 0.000000000000000000, 0.000000000000000000, 255.0000000000000000 ) ) ;
#309 = DIRECTION ( 'NONE',  ( 0.000000000000000000, 0.000000000000000000, 1.000000000000000000 ) ) ;
#310 = ADVANCED_FACE ( 'NONE', ( #353 ), #180, .T. ) ;
#311 = CALENDAR_DATE ( 2022, 10, 7 ) ;
#312 = DIRECTION ( 'NONE',  ( 1.000000000000000000, 0.000000000000000000, 0.000000000000000000 ) ) ;
#313 = COORDINATED_UNIVERSAL_TIME_OFFSET ( 1, 0, .AHEAD. ) ;
#314 = LINE ( 'NONE', #25, #250 ) ;
#315 = CIRCLE ( 'NONE', #352, 0.5000000000000004441 ) ;
#316 = EDGE_CURVE ( 'NONE', #154, #185, #355, .T. ) ;
#317 = CARTESIAN_POINT ( 'NONE',  ( 0.000000000000000000, 0.000000000000000000, 5.500000000000005329 ) ) ;
#318 = DIRECTION ( 'NONE',  ( -1.000000000000000000, 0.000000000000000000, 0.000000000000000000 ) ) ;
#319 = DATE_AND_TIME ( #311, #58 ) ;
#320 = CARTESIAN_POINT ( 'NONE',  ( 0.000000000000000000, 0.000000000000000000, 255.0000000000000000 ) ) ;
#321 = AXIS2_PLACEMENT_3D ( 'NONE', #317, #166, #282 ) ;
#322 = AXIS2_PLACEMENT_3D ( 'NONE', #59, #113, #176 ) ;
#323 = EDGE_CURVE ( 'NONE', #232, #240, #64, .T. ) ;
#324 = DIRECTION ( 'NONE',  ( -1.000000000000000000, 0.000000000000000000, 0.000000000000000000 ) ) ;
#325 = ADVANCED_FACE ( 'NONE', ( #291 ), #95, .F. ) ;
#326 = VERTEX_POINT ( 'NONE', #269 ) ;
#327 = DIRECTION ( 'NONE',  ( 1.224646799147353207E-16, 1.000000000000000000, -0.000000000000000000 ) ) ;
#328 = ORIENTED_EDGE ( 'NONE', *, *, #237, .F. ) ;
#329 = UNCERTAINTY_MEASURE_WITH_UNIT (LENGTH_MEASURE( 1.000000000000000082E-05 ), #216, 'distance_accuracy_value', 'NONE');
#330 = DIRECTION ( 'NONE',  ( -0.000000000000000000, -0.000000000000000000, -1.000000000000000000 ) ) ;
#331 = EDGE_LOOP ( 'NONE', ( #40, #37 ) ) ;
#332 = EDGE_CURVE ( 'NONE', #160, #326, #366, .T. ) ;
#333 = CARTESIAN_POINT ( 'NONE',  ( 5.000000000000000000, 6.123233995736766282E-16, 255.0000000000000000 ) ) ;
#334 = VERTEX_POINT ( 'NONE', #333 ) ;
#335 = DIRECTION ( 'NONE',  ( -1.000000000000000000, 0.000000000000000000, 0.000000000000000000 ) ) ;
#336 = ORIENTED_EDGE ( 'NONE', *, *, #155, .T. ) ;
#337 = APPROVAL_DATE_TIME ( #126, #84 ) ;
#338 = CARTESIAN_POINT ( 'NONE',  ( -5.500000000000000000, 6.735557395310442023E-16, 5.000000000000002665 ) ) ;
#339 = AXIS2_PLACEMENT_3D ( 'NONE', #294, #153, #231 ) ;
#340 = CARTESIAN_POINT ( 'NONE',  ( 0.000000000000000000, 0.000000000000000000, 0.000000000000000000 ) ) ;
#341 = APPROVAL_DATE_TIME ( #115, #43 ) ;
#342 = AXIS2_PLACEMENT_3D ( 'NONE', #137, #16, #373 ) ;
#343 = EDGE_LOOP ( 'NONE', ( #152, #359 ) ) ;
#344 = SHAPE_DEFINITION_REPRESENTATION ( #290, #226 ) ;
#345 = FACE_BOUND ( 'NONE', #247, .T. ) ;
#346 = EDGE_CURVE ( 'NONE', #160, #334, #348, .T. ) ;
#347 = PLANE ( 'NONE',  #38 ) ;
#348 = CIRCLE ( 'NONE', #15, 5.000000000000000000 ) ;
#349 = AXIS2_PLACEMENT_3D ( 'NONE', #189, #107, #307 ) ;
#350 = FACE_OUTER_BOUND ( 'NONE', #129, .T. ) ;
#351 = CARTESIAN_POINT ( 'NONE',  ( 0.000000000000000000, 0.000000000000000000, 255.0000000000000000 ) ) ;
#352 = AXIS2_PLACEMENT_3D ( 'NONE', #233, #327, #283 ) ;
#353 = FACE_OUTER_BOUND ( 'NONE', #62, .T. ) ;
#354 = ORIENTED_EDGE ( 'NONE', *, *, #284, .F. ) ;
#355 = CIRCLE ( 'NONE', #212, 5.500000000000000000 ) ;
#356 = DIRECTION ( 'NONE',  ( 0.000000000000000000, 0.000000000000000000, 1.000000000000000000 ) ) ;
#357 = VERTEX_POINT ( 'NONE', #297 ) ;
#358 = CARTESIAN_POINT ( 'NONE',  ( 0.000000000000000000, 0.000000000000000000, 5.500000000000005329 ) ) ;
#359 = ORIENTED_EDGE ( 'NONE', *, *, #10, .F. ) ;
#360 = ADVANCED_FACE ( 'NONE', ( #239, #35 ), #218, .T. ) ;
#361 = CARTESIAN_POINT ( 'NONE',  ( 0.000000000000000000, 0.000000000000000000, 255.0000000000000000 ) ) ;
#362 = ORIENTED_EDGE ( 'NONE', *, *, #346, .F. ) ;
#363 = AXIS2_PLACEMENT_3D ( 'NONE', #41, #278, #241 ) ;
#364 = ORGANIZATION ( 'NEURÈENÝ', 'NEURÈENÝ', '' ) ;
#365 = ORIENTED_EDGE ( 'NONE', *, *, #80, .T. ) ;
#366 = LINE ( 'NONE', #99, #306 ) ;
#367 = AXIS2_PLACEMENT_3D ( 'NONE', #253, #255, #280 ) ;
#368 = AXIS2_PLACEMENT_3D ( 'NONE', #112, #374, #197 ) ;
#369 = FACE_OUTER_BOUND ( 'NONE', #331, .T. ) ;
#370 = CALENDAR_DATE ( 2022, 10, 7 ) ;
#371 = PRODUCT_RELATED_PRODUCT_CATEGORY ( 'detail', '', ( #93 ) ) ;
#372 = DIRECTION ( 'NONE',  ( 0.000000000000000000, 0.000000000000000000, 1.000000000000000000 ) ) ;
#373 = DIRECTION ( 'NONE',  ( 1.000000000000000000, 0.000000000000000000, 0.000000000000000000 ) ) ;
#374 = DIRECTION ( 'NONE',  ( 0.000000000000000000, 0.000000000000000000, 1.000000000000000000 ) ) ;
#375 = ADVANCED_FACE ( 'NONE', ( #186 ), #274, .T. ) ;
#376 = PERSON_AND_ORGANIZATION ( #270, #364 ) ;
#377 = DIRECTION ( 'NONE',  ( 1.000000000000000000, 0.000000000000000000, 0.000000000000000000 ) ) ;
#378 = DIRECTION ( 'NONE',  ( 1.000000000000000000, 0.000000000000000000, 0.000000000000000000 ) ) ;
#379 = CLOSED_SHELL ( 'NONE', ( #288, #136, #310, #175, #222, #108, #67, #375, #360, #182, #325 ) ) ;
#380 = DIRECTION ( 'NONE',  ( 1.000000000000000000, 0.000000000000000000, 0.000000000000000000 ) ) ;
#381 = SECURITY_CLASSIFICATION_LEVEL ( 'unclassified' ) ;
ENDSEC;
END-ISO-10303-21;
