ISO-10303-21;
HEADER;
FILE_DESCRIPTION (( 'STEP AP203' ),
    '1' );
FILE_NAME ('9136.STEP',
    '2022-07-10T09:13:19',
    ( '' ),
    ( '' ),
    'SwSTEP 2.0',
    'SolidWorks 2019',
    '' );
FILE_SCHEMA (( 'CONFIG_CONTROL_DESIGN' ));
ENDSEC;

DATA;
#1 = CLOSED_SHELL ( 'NONE', ( #377, #279, #10, #273, #210, #373, #215, #139, #132, #60, #298 ) ) ;
#2 = CARTESIAN_POINT ( 'NONE',  ( 3.500000000000000444, 0.000000000000000000, 5.000000000000002665 ) ) ;
#3 = DIRECTION ( 'NONE',  ( 1.000000000000000000, 0.000000000000000000, -0.000000000000000000 ) ) ;
#4 = DIRECTION ( 'NONE',  ( -0.000000000000000000, -0.000000000000000000, -1.000000000000000000 ) ) ;
#5 = CIRCLE ( 'NONE', #245, 3.000000000000000444 ) ;
#6 = EDGE_CURVE ( 'NONE', #334, #251, #381, .T. ) ;
#7 = FACE_BOUND ( 'NONE', #372, .T. ) ;
#8 = ORIENTED_EDGE ( 'NONE', *, *, #287, .F. ) ;
#9 = VERTEX_POINT ( 'NONE', #25 ) ;
#10 = ADVANCED_FACE ( 'NONE', ( #166 ), #116, .T. ) ;
#11 = CIRCLE ( 'NONE', #176, 2.000000000000000000 ) ;
#12 = FACE_OUTER_BOUND ( 'NONE', #247, .T. ) ;
#13 = EDGE_LOOP ( 'NONE', ( #214, #304 ) ) ;
#14 = UNCERTAINTY_MEASURE_WITH_UNIT (LENGTH_MEASURE( 1.000000000000000082E-05 ), #163, 'distance_accuracy_value', 'NONE');
#15 = PRODUCT ( '9136', '9136', '', ( #216 ) ) ;
#16 = ORIENTED_EDGE ( 'NONE', *, *, #330, .F. ) ;
#17 = DIRECTION ( 'NONE',  ( -1.000000000000000000, 0.000000000000000000, 0.000000000000000000 ) ) ;
#18 = ORIENTED_EDGE ( 'NONE', *, *, #78, .T. ) ;
#19 = AXIS2_PLACEMENT_3D ( 'NONE', #61, #182, #300 ) ;
#20 = CARTESIAN_POINT ( 'NONE',  ( -2.000000000000000000, 0.000000000000000000, 255.0000000000000000 ) ) ;
#21 = CARTESIAN_POINT ( 'NONE',  ( 0.000000000000000000, 0.000000000000000000, 5.000000000000000000 ) ) ;
#22 = FACE_OUTER_BOUND ( 'NONE', #336, .T. ) ;
#23 = DATE_AND_TIME ( #313, #264 ) ;
#24 = AXIS2_PLACEMENT_3D ( 'NONE', #240, #54, #92 ) ;
#25 = CARTESIAN_POINT ( 'NONE',  ( -6.000000000000000888, 0.000000000000000000, 5.000000000000000000 ) ) ;
#26 = PERSON_AND_ORGANIZATION ( #93, #246 ) ;
#27 = DIRECTION ( 'NONE',  ( -0.000000000000000000, -0.000000000000000000, -1.000000000000000000 ) ) ;
#28 = CARTESIAN_POINT ( 'NONE',  ( -3.000000000000000444, 0.000000000000000000, 255.0000000000000000 ) ) ;
#29 = DIRECTION ( 'NONE',  ( -0.000000000000000000, -0.000000000000000000, -1.000000000000000000 ) ) ;
#30 = CARTESIAN_POINT ( 'NONE',  ( 0.000000000000000000, 0.000000000000000000, 0.000000000000000000 ) ) ;
#31 = DIRECTION ( 'NONE',  ( 0.000000000000000000, 0.000000000000000000, 1.000000000000000000 ) ) ;
#32 = APPROVAL ( #130, 'NEURÈENÝ' ) ;
#33 = CARTESIAN_POINT ( 'NONE',  ( 0.000000000000000000, 0.000000000000000000, 255.0000000000000000 ) ) ;
#34 = AXIS2_PLACEMENT_3D ( 'NONE', #48, #49, #286 ) ;
#35 = CARTESIAN_POINT ( 'NONE',  ( -6.000000000000000888, 0.000000000000000000, 0.000000000000000000 ) ) ;
#36 = CARTESIAN_POINT ( 'NONE',  ( 0.000000000000000000, 0.000000000000000000, 255.0000000000000000 ) ) ;
#37 = VERTEX_POINT ( 'NONE', #256 ) ;
#38 = EDGE_LOOP ( 'NONE', ( #332, #368 ) ) ;
#39 = AXIS2_PLACEMENT_3D ( 'NONE', #242, #275, #124 ) ;
#40 = VERTEX_POINT ( 'NONE', #45 ) ;
#41 = COORDINATED_UNIVERSAL_TIME_OFFSET ( 1, 0, .AHEAD. ) ;
#42 = EDGE_LOOP ( 'NONE', ( #190, #221, #134, #340 ) ) ;
#43 = CC_DESIGN_PERSON_AND_ORGANIZATION_ASSIGNMENT ( #44, #316, ( #88 ) ) ;
#44 = PERSON_AND_ORGANIZATION ( #93, #246 ) ;
#45 = CARTESIAN_POINT ( 'NONE',  ( -3.000000000000000444, 0.000000000000000000, 255.0000000000000000 ) ) ;
#46 = AXIS2_PLACEMENT_3D ( 'NONE', #228, #290, #225 ) ;
#47 = SECURITY_CLASSIFICATION_LEVEL ( 'unclassified' ) ;
#48 = CARTESIAN_POINT ( 'NONE',  ( 0.000000000000000000, 0.000000000000000000, 5.500000000000005329 ) ) ;
#49 = DIRECTION ( 'NONE',  ( 0.000000000000000000, 0.000000000000000000, 1.000000000000000000 ) ) ;
#50 = EDGE_CURVE ( 'NONE', #366, #158, #331, .T. ) ;
#51 = DIRECTION ( 'NONE',  ( 1.000000000000000000, 0.000000000000000000, 0.000000000000000000 ) ) ;
#52 = AXIS2_PLACEMENT_3D ( 'NONE', #157, #248, #17 ) ;
#53 = DIRECTION ( 'NONE',  ( -0.000000000000000000, -0.000000000000000000, -1.000000000000000000 ) ) ;
#54 = DIRECTION ( 'NONE',  ( 0.000000000000000000, 0.000000000000000000, -1.000000000000000000 ) ) ;
#55 = EDGE_CURVE ( 'NONE', #243, #186, #347, .T. ) ;
#56 = CARTESIAN_POINT ( 'NONE',  ( 2.000000000000000000, 2.449293598294706414E-16, 0.000000000000000000 ) ) ;
#57 = DIRECTION ( 'NONE',  ( -1.000000000000000000, 0.000000000000000000, 0.000000000000000000 ) ) ;
#58 = VECTOR ( 'NONE', #79, 1000.000000000000000 ) ;
#59 = DIRECTION ( 'NONE',  ( -0.000000000000000000, -0.000000000000000000, -1.000000000000000000 ) ) ;
#60 = ADVANCED_FACE ( 'NONE', ( #353 ), #168, .F. ) ;
#61 = CARTESIAN_POINT ( 'NONE',  ( 0.000000000000000000, 0.000000000000000000, 0.000000000000000000 ) ) ;
#62 = CARTESIAN_POINT ( 'NONE',  ( -3.500000000000000444, 4.286263797015737088E-16, 5.000000000000002665 ) ) ;
#63 = EDGE_LOOP ( 'NONE', ( #8, #66, #312, #305 ) ) ;
#64 = EDGE_CURVE ( 'NONE', #364, #37, #174, .T. ) ;
#65 = PERSON_AND_ORGANIZATION_ROLE ( 'design_owner' ) ;
#66 = ORIENTED_EDGE ( 'NONE', *, *, #55, .T. ) ;
#67 = COORDINATED_UNIVERSAL_TIME_OFFSET ( 1, 0, .AHEAD. ) ;
#68 = ORIENTED_EDGE ( 'NONE', *, *, #78, .F. ) ;
#69 = CC_DESIGN_APPROVAL ( #32, ( #103 ) ) ;
#70 = CIRCLE ( 'NONE', #112, 0.4999999999999995559 ) ;
#71 = PLANE ( 'NONE',  #39 ) ;
#72 = ORIENTED_EDGE ( 'NONE', *, *, #175, .T. ) ;
#73 = EDGE_CURVE ( 'NONE', #186, #164, #91, .T. ) ;
#74 = ORIENTED_EDGE ( 'NONE', *, *, #151, .T. ) ;
#75 = ORIENTED_EDGE ( 'NONE', *, *, #235, .F. ) ;
#76 = LOCAL_TIME ( 11, 13, 19.00000000000000000, #349 ) ;
#77 = AXIS2_PLACEMENT_3D ( 'NONE', #226, #231, #318 ) ;
#78 = EDGE_CURVE ( 'NONE', #9, #271, #142, .T. ) ;
#79 = DIRECTION ( 'NONE',  ( 0.000000000000000000, 0.000000000000000000, -1.000000000000000000 ) ) ;
#80 = PERSON_AND_ORGANIZATION ( #93, #246 ) ;
#81 = VERTEX_POINT ( 'NONE', #108 ) ;
#82 = DATE_TIME_ROLE ( 'classification_date' ) ;
#83 = DIRECTION ( 'NONE',  ( -1.000000000000000000, 1.224646799147354440E-16, 0.000000000000000000 ) ) ;
#84 = CIRCLE ( 'NONE', #129, 3.000000000000000444 ) ;
#85 = DIRECTION ( 'NONE',  ( 1.000000000000000000, 0.000000000000000000, 0.000000000000000000 ) ) ;
#86 = CARTESIAN_POINT ( 'NONE',  ( 0.000000000000000000, 0.000000000000000000, 5.000000000000000000 ) ) ;
#87 = CARTESIAN_POINT ( 'NONE',  ( 0.000000000000000000, 0.000000000000000000, 5.000000000000000000 ) ) ;
#88 = PRODUCT_DEFINITION_FORMATION_WITH_SPECIFIED_SOURCE ( 'LIBOVOLNÝ', '', #15, .NOT_KNOWN. ) ;
#89 = CC_DESIGN_DATE_AND_TIME_ASSIGNMENT ( #285, #82, ( #361 ) ) ;
#90 = CARTESIAN_POINT ( 'NONE',  ( 6.000000000000000888, 7.347880794884120722E-16, 5.000000000000000000 ) ) ;
#91 = CIRCLE ( 'NONE', #34, 3.000000000000000444 ) ;
#92 = DIRECTION ( 'NONE',  ( -1.000000000000000000, 0.000000000000000000, 0.000000000000000000 ) ) ;
#93 = PERSON ( 'NEURÈENÝ', 'NEURÈENÝ', 'NEURÈENÝ', ('NEURÈENÝ'), ('NEURÈENÝ'), ('NEURÈENÝ') ) ;
#94 = CARTESIAN_POINT ( 'NONE',  ( 0.000000000000000000, 0.000000000000000000, 0.000000000000000000 ) ) ;
#95 = DIRECTION ( 'NONE',  ( 1.000000000000000000, 0.000000000000000000, 0.000000000000000000 ) ) ;
#96 = ORIENTED_EDGE ( 'NONE', *, *, #330, .T. ) ;
#97 = CIRCLE ( 'NONE', #149, 3.000000000000000444 ) ;
#98 =( NAMED_UNIT ( * ) SI_UNIT ( $, .STERADIAN. ) SOLID_ANGLE_UNIT ( ) );
#99 = ORIENTED_EDGE ( 'NONE', *, *, #235, .T. ) ;
#100 = DATE_AND_TIME ( #365, #136 ) ;
#101 = ORIENTED_EDGE ( 'NONE', *, *, #359, .T. ) ;
#102 = DIRECTION ( 'NONE',  ( 1.000000000000000000, 0.000000000000000000, 0.000000000000000000 ) ) ;
#103 = PRODUCT_DEFINITION ( 'NEZNÁMÝ', '', #88, #260 ) ;
#104 = ORIENTED_EDGE ( 'NONE', *, *, #303, .F. ) ;
#105 = AXIS2_PLACEMENT_3D ( 'NONE', #206, #119, #324 ) ;
#106 = ORIENTED_EDGE ( 'NONE', *, *, #321, .F. ) ;
#107 = APPROVAL_DATE_TIME ( #113, #224 ) ;
#108 = CARTESIAN_POINT ( 'NONE',  ( 2.000000000000000000, 2.449293598294706414E-16, 255.0000000000000000 ) ) ;
#109 = EDGE_CURVE ( 'NONE', #186, #251, #207, .T. ) ;
#110 = PERSON_AND_ORGANIZATION_ROLE ( 'creator' ) ;
#111 = DIRECTION ( 'NONE',  ( 0.000000000000000000, 0.000000000000000000, -1.000000000000000000 ) ) ;
#112 = AXIS2_PLACEMENT_3D ( 'NONE', #114, #115, #83 ) ;
#113 = DATE_AND_TIME ( #200, #76 ) ;
#114 = CARTESIAN_POINT ( 'NONE',  ( -3.500000000000000444, 4.286263797015737088E-16, 5.500000000000005329 ) ) ;
#115 = DIRECTION ( 'NONE',  ( 1.224646799147353207E-16, 1.000000000000000000, -0.000000000000000000 ) ) ;
#116 = CYLINDRICAL_SURFACE ( 'NONE', #362, 3.000000000000000444 ) ;
#117 = EDGE_CURVE ( 'NONE', #271, #9, #213, .T. ) ;
#118 = LOCAL_TIME ( 11, 13, 19.00000000000000000, #67 ) ;
#119 = DIRECTION ( 'NONE',  ( 0.000000000000000000, 0.000000000000000000, 1.000000000000000000 ) ) ;
#120 = DIRECTION ( 'NONE',  ( -0.000000000000000000, -0.000000000000000000, -1.000000000000000000 ) ) ;
#121 = EDGE_CURVE ( 'NONE', #81, #229, #344, .T. ) ;
#122 = DIRECTION ( 'NONE',  ( 0.000000000000000000, 0.000000000000000000, 1.000000000000000000 ) ) ;
#123 = PLANE ( 'NONE',  #154 ) ;
#124 = DIRECTION ( 'NONE',  ( 1.000000000000000000, 0.000000000000000000, -0.000000000000000000 ) ) ;
#125 = EDGE_LOOP ( 'NONE', ( #160, #135, #162, #311 ) ) ;
#126 = FACE_BOUND ( 'NONE', #13, .T. ) ;
#127 = LOCAL_TIME ( 11, 13, 19.00000000000000000, #165 ) ;
#128 = ORIENTED_EDGE ( 'NONE', *, *, #50, .T. ) ;
#129 = AXIS2_PLACEMENT_3D ( 'NONE', #211, #272, #95 ) ;
#130 = APPROVAL_STATUS ( 'not_yet_approved' ) ;
#131 = ORIENTED_EDGE ( 'NONE', *, *, #287, .T. ) ;
#132 = ADVANCED_FACE ( 'NONE', ( #172, #261 ), #288, .T. ) ;
#133 = PERSON_AND_ORGANIZATION ( #93, #246 ) ;
#134 = ORIENTED_EDGE ( 'NONE', *, *, #64, .T. ) ;
#135 = ORIENTED_EDGE ( 'NONE', *, *, #73, .F. ) ;
#136 = LOCAL_TIME ( 11, 13, 19.00000000000000000, #252 ) ;
#137 = DIRECTION ( 'NONE',  ( 0.000000000000000000, 0.000000000000000000, 1.000000000000000000 ) ) ;
#138 = CARTESIAN_POINT ( 'NONE',  ( 3.500000000000000444, 0.000000000000000000, 5.500000000000005329 ) ) ;
#139 = ADVANCED_FACE ( 'NONE', ( #22 ), #140, .T. ) ;
#140 = CYLINDRICAL_SURFACE ( 'NONE', #179, 3.000000000000000444 ) ;
#141 = APPLICATION_CONTEXT ( 'configuration controlled 3d designs of mechanical parts and assemblies' ) ;
#142 = CIRCLE ( 'NONE', #375, 6.000000000000000888 ) ;
#143 = SHAPE_DEFINITION_REPRESENTATION ( #337, #327 ) ;
#144 = CARTESIAN_POINT ( 'NONE',  ( 3.000000000000000444, 3.673940397442060361E-16, 255.0000000000000000 ) ) ;
#145 = CC_DESIGN_DATE_AND_TIME_ASSIGNMENT ( #192, #161, ( #103 ) ) ;
#146 = CARTESIAN_POINT ( 'NONE',  ( 6.000000000000000888, 7.347880794884120722E-16, 0.000000000000000000 ) ) ;
#147 = CARTESIAN_POINT ( 'NONE',  ( 3.000000000000000444, 3.673940397442060361E-16, 5.500000000000005329 ) ) ;
#148 = AXIS2_PLACEMENT_3D ( 'NONE', #363, #189, #102 ) ;
#149 = AXIS2_PLACEMENT_3D ( 'NONE', #299, #152, #380 ) ;
#150 = CARTESIAN_POINT ( 'NONE',  ( 6.000000000000000888, 7.347880794884120722E-16, 5.000000000000000000 ) ) ;
#151 = EDGE_CURVE ( 'NONE', #164, #334, #70, .T. ) ;
#152 = DIRECTION ( 'NONE',  ( 0.000000000000000000, 0.000000000000000000, 1.000000000000000000 ) ) ;
#153 = LINE ( 'NONE', #28, #325 ) ;
#154 = AXIS2_PLACEMENT_3D ( 'NONE', #30, #323, #3 ) ;
#155 = PRODUCT_RELATED_PRODUCT_CATEGORY ( 'detail', '', ( #15 ) ) ;
#156 = ORIENTED_EDGE ( 'NONE', *, *, #239, .F. ) ;
#157 = CARTESIAN_POINT ( 'NONE',  ( 0.000000000000000000, 0.000000000000000000, 255.0000000000000000 ) ) ;
#158 = VERTEX_POINT ( 'NONE', #146 ) ;
#159 = PERSON_AND_ORGANIZATION ( #93, #246 ) ;
#160 = ORIENTED_EDGE ( 'NONE', *, *, #151, .F. ) ;
#161 = DATE_TIME_ROLE ( 'creation_date' ) ;
#162 = ORIENTED_EDGE ( 'NONE', *, *, #109, .T. ) ;
#163 =( LENGTH_UNIT ( ) NAMED_UNIT ( * ) SI_UNIT ( .MILLI., .METRE. ) );
#164 = VERTEX_POINT ( 'NONE', #204 ) ;
#165 = COORDINATED_UNIVERSAL_TIME_OFFSET ( 1, 0, .AHEAD. ) ;
#166 = FACE_OUTER_BOUND ( 'NONE', #63, .T. ) ;
#167 = AXIS2_PLACEMENT_3D ( 'NONE', #201, #198, #177 ) ;
#168 = TOROIDAL_SURFACE ( 'NONE', #308, 3.500000000000000444, 0.5000000000000000000 ) ;
#169 = CC_DESIGN_PERSON_AND_ORGANIZATION_ASSIGNMENT ( #218, #335, ( #103 ) ) ;
#170 = EDGE_LOOP ( 'NONE', ( #101, #254, #343, #249 ) ) ;
#171 = CALENDAR_DATE ( 2022, 10, 7 ) ;
#172 = FACE_BOUND ( 'NONE', #188, .T. ) ;
#173 = APPROVAL_STATUS ( 'not_yet_approved' ) ;
#174 = LINE ( 'NONE', #20, #269 ) ;
#175 = EDGE_CURVE ( 'NONE', #40, #164, #153, .T. ) ;
#176 = AXIS2_PLACEMENT_3D ( 'NONE', #36, #212, #338 ) ;
#177 = DIRECTION ( 'NONE',  ( 1.000000000000000000, 0.000000000000000000, 0.000000000000000000 ) ) ;
#178 = DIRECTION ( 'NONE',  ( 1.000000000000000000, 0.000000000000000000, 0.000000000000000000 ) ) ;
#179 = AXIS2_PLACEMENT_3D ( 'NONE', #258, #27, #376 ) ;
#180 = FACE_OUTER_BOUND ( 'NONE', #278, .T. ) ;
#181 = FACE_OUTER_BOUND ( 'NONE', #38, .T. ) ;
#182 = DIRECTION ( 'NONE',  ( -0.000000000000000000, -0.000000000000000000, -1.000000000000000000 ) ) ;
#183 = CC_DESIGN_PERSON_AND_ORGANIZATION_ASSIGNMENT ( #26, #222, ( #361 ) ) ;
#184 = AXIS2_PLACEMENT_3D ( 'NONE', #94, #236, #241 ) ;
#185 = CYLINDRICAL_SURFACE ( 'NONE', #52, 2.000000000000000000 ) ;
#186 = VERTEX_POINT ( 'NONE', #147 ) ;
#187 = APPLICATION_PROTOCOL_DEFINITION ( 'international standard', 'config_control_design', 1994, #141 ) ;
#188 = EDGE_LOOP ( 'NONE', ( #277, #156 ) ) ;
#189 = DIRECTION ( 'NONE',  ( 0.000000000000000000, 0.000000000000000000, 1.000000000000000000 ) ) ;
#190 = ORIENTED_EDGE ( 'NONE', *, *, #121, .F. ) ;
#191 = TOROIDAL_SURFACE ( 'NONE', #301, 3.500000000000000444, 0.5000000000000000000 ) ;
#192 = DATE_AND_TIME ( #307, #118 ) ;
#193 = ORIENTED_EDGE ( 'NONE', *, *, #117, .F. ) ;
#194 = ORIENTED_EDGE ( 'NONE', *, *, #253, .T. ) ;
#195 = CARTESIAN_POINT ( 'NONE',  ( 2.000000000000000000, 2.449293598294706414E-16, 255.0000000000000000 ) ) ;
#196 = AXIS2_PLACEMENT_3D ( 'NONE', #234, #31, #178 ) ;
#197 = DIRECTION ( 'NONE',  ( 0.000000000000000000, 0.000000000000000000, 1.000000000000000000 ) ) ;
#198 = DIRECTION ( 'NONE',  ( -0.000000000000000000, -0.000000000000000000, -1.000000000000000000 ) ) ;
#199 = EDGE_CURVE ( 'NONE', #37, #229, #292, .T. ) ;
#200 = CALENDAR_DATE ( 2022, 10, 7 ) ;
#201 = CARTESIAN_POINT ( 'NONE',  ( 0.000000000000000000, 0.000000000000000000, 5.000000000000000000 ) ) ;
#202 = VECTOR ( 'NONE', #53, 1000.000000000000000 ) ;
#203 = ORIENTED_EDGE ( 'NONE', *, *, #293, .F. ) ;
#204 = CARTESIAN_POINT ( 'NONE',  ( -3.000000000000000444, 0.000000000000000000, 5.500000000000005329 ) ) ;
#205 = EDGE_CURVE ( 'NONE', #251, #334, #265, .T. ) ;
#206 = CARTESIAN_POINT ( 'NONE',  ( 0.000000000000000000, 0.000000000000000000, 255.0000000000000000 ) ) ;
#207 = CIRCLE ( 'NONE', #227, 0.5000000000000004441 ) ;
#208 = FACE_OUTER_BOUND ( 'NONE', #42, .T. ) ;
#209 = CARTESIAN_POINT ( 'NONE',  ( -6.000000000000000888, 0.000000000000000000, 5.000000000000000000 ) ) ;
#210 = ADVANCED_FACE ( 'NONE', ( #322 ), #357, .T. ) ;
#211 = CARTESIAN_POINT ( 'NONE',  ( 0.000000000000000000, 0.000000000000000000, 255.0000000000000000 ) ) ;
#212 = DIRECTION ( 'NONE',  ( 0.000000000000000000, 0.000000000000000000, 1.000000000000000000 ) ) ;
#213 = CIRCLE ( 'NONE', #46, 6.000000000000000888 ) ;
#214 = ORIENTED_EDGE ( 'NONE', *, *, #205, .T. ) ;
#215 = ADVANCED_FACE ( 'NONE', ( #7, #181 ), #123, .F. ) ;
#216 = MECHANICAL_CONTEXT ( 'NONE', #341, 'mechanical' ) ;
#217 = ORIENTED_EDGE ( 'NONE', *, *, #55, .F. ) ;
#218 = PERSON_AND_ORGANIZATION ( #93, #246 ) ;
#219 = EDGE_LOOP ( 'NONE', ( #193, #309, #194, #104 ) ) ;
#220 = APPROVAL_ROLE ( '' ) ;
#221 = ORIENTED_EDGE ( 'NONE', *, *, #239, .T. ) ;
#222 = PERSON_AND_ORGANIZATION_ROLE ( 'classification_officer' ) ;
#223 = ORIENTED_EDGE ( 'NONE', *, *, #303, .T. ) ;
#224 = APPROVAL ( #173, 'NEURÈENÝ' ) ;
#225 = DIRECTION ( 'NONE',  ( 1.000000000000000000, 0.000000000000000000, 0.000000000000000000 ) ) ;
#226 = CARTESIAN_POINT ( 'NONE',  ( 0.000000000000000000, 0.000000000000000000, 0.000000000000000000 ) ) ;
#227 = AXIS2_PLACEMENT_3D ( 'NONE', #138, #257, #111 ) ;
#228 = CARTESIAN_POINT ( 'NONE',  ( 0.000000000000000000, 0.000000000000000000, 5.000000000000000000 ) ) ;
#229 = VERTEX_POINT ( 'NONE', #56 ) ;
#230 = MANIFOLD_SOLID_BREP ( 'Odebrat vysunutím3', #1 ) ;
#231 = DIRECTION ( 'NONE',  ( 0.000000000000000000, 0.000000000000000000, 1.000000000000000000 ) ) ;
#232 = CC_DESIGN_APPROVAL ( #224, ( #361 ) ) ;
#233 = CIRCLE ( 'NONE', #196, 6.000000000000000888 ) ;
#234 = CARTESIAN_POINT ( 'NONE',  ( 0.000000000000000000, 0.000000000000000000, 0.000000000000000000 ) ) ;
#235 = EDGE_CURVE ( 'NONE', #164, #186, #97, .T. ) ;
#236 = DIRECTION ( 'NONE',  ( -0.000000000000000000, -0.000000000000000000, -1.000000000000000000 ) ) ;
#237 = DIRECTION ( 'NONE',  ( 1.000000000000000000, 0.000000000000000000, 0.000000000000000000 ) ) ;
#238 = VECTOR ( 'NONE', #328, 1000.000000000000000 ) ;
#239 = EDGE_CURVE ( 'NONE', #81, #364, #370, .T. ) ;
#240 = CARTESIAN_POINT ( 'NONE',  ( 0.000000000000000000, 0.000000000000000000, 255.0000000000000000 ) ) ;
#241 = DIRECTION ( 'NONE',  ( 1.000000000000000000, 0.000000000000000000, 0.000000000000000000 ) ) ;
#242 = CARTESIAN_POINT ( 'NONE',  ( 0.000000000000000000, 0.000000000000000000, 5.000000000000000000 ) ) ;
#243 = VERTEX_POINT ( 'NONE', #268 ) ;
#244 = APPLICATION_PROTOCOL_DEFINITION ( 'international standard', 'config_control_design', 1994, #341 ) ;
#245 = AXIS2_PLACEMENT_3D ( 'NONE', #33, #297, #358 ) ;
#246 = ORGANIZATION ( 'NEURÈENÝ', 'NEURÈENÝ', '' ) ;
#247 = EDGE_LOOP ( 'NONE', ( #18, #274 ) ) ;
#248 = DIRECTION ( 'NONE',  ( 0.000000000000000000, 0.000000000000000000, -1.000000000000000000 ) ) ;
#249 = ORIENTED_EDGE ( 'NONE', *, *, #64, .F. ) ;
#250 = APPROVAL_STATUS ( 'not_yet_approved' ) ;
#251 = VERTEX_POINT ( 'NONE', #2 ) ;
#252 = COORDINATED_UNIVERSAL_TIME_OFFSET ( 1, 0, .AHEAD. ) ;
#253 = EDGE_CURVE ( 'NONE', #158, #366, #233, .T. ) ;
#254 = ORIENTED_EDGE ( 'NONE', *, *, #121, .T. ) ;
#255 = VECTOR ( 'NONE', #4, 1000.000000000000000 ) ;
#256 = CARTESIAN_POINT ( 'NONE',  ( -2.000000000000000000, 0.000000000000000000, 0.000000000000000000 ) ) ;
#257 = DIRECTION ( 'NONE',  ( 0.000000000000000000, -1.000000000000000000, 0.000000000000000000 ) ) ;
#258 = CARTESIAN_POINT ( 'NONE',  ( 0.000000000000000000, 0.000000000000000000, 255.0000000000000000 ) ) ;
#259 = CARTESIAN_POINT ( 'NONE',  ( 0.000000000000000000, 0.000000000000000000, 5.500000000000005329 ) ) ;
#260 = DESIGN_CONTEXT ( 'detailed design', #141, 'design' ) ;
#261 = FACE_OUTER_BOUND ( 'NONE', #371, .T. ) ;
#262 = DIRECTION ( 'NONE',  ( -0.000000000000000000, -0.000000000000000000, -1.000000000000000000 ) ) ;
#263 = CC_DESIGN_PERSON_AND_ORGANIZATION_ASSIGNMENT ( #80, #110, ( #88 ) ) ;
#264 = LOCAL_TIME ( 11, 13, 19.00000000000000000, #41 ) ;
#265 = CIRCLE ( 'NONE', #314, 3.500000000000000444 ) ;
#266 = DIRECTION ( 'NONE',  ( 1.000000000000000000, 0.000000000000000000, 0.000000000000000000 ) ) ;
#267 = CARTESIAN_POINT ( 'NONE',  ( 0.000000000000000000, 0.000000000000000000, 5.500000000000005329 ) ) ;
#268 = CARTESIAN_POINT ( 'NONE',  ( 3.000000000000000444, 3.673940397442060361E-16, 255.0000000000000000 ) ) ;
#269 = VECTOR ( 'NONE', #374, 1000.000000000000000 ) ;
#270 = DIRECTION ( 'NONE',  ( -1.000000000000000000, 0.000000000000000000, 0.000000000000000000 ) ) ;
#271 = VERTEX_POINT ( 'NONE', #150 ) ;
#272 = DIRECTION ( 'NONE',  ( 0.000000000000000000, 0.000000000000000000, 1.000000000000000000 ) ) ;
#273 = ADVANCED_FACE ( 'NONE', ( #295 ), #354, .T. ) ;
#274 = ORIENTED_EDGE ( 'NONE', *, *, #117, .T. ) ;
#275 = DIRECTION ( 'NONE',  ( 0.000000000000000000, 0.000000000000000000, 1.000000000000000000 ) ) ;
#276 = AXIS2_PLACEMENT_3D ( 'NONE', #350, #379, #378 ) ;
#277 = ORIENTED_EDGE ( 'NONE', *, *, #359, .F. ) ;
#278 = EDGE_LOOP ( 'NONE', ( #75, #74, #348, #281 ) ) ;
#279 = ADVANCED_FACE ( 'NONE', ( #180 ), #191, .F. ) ;
#280 = APPROVAL_DATE_TIME ( #100, #32 ) ;
#281 = ORIENTED_EDGE ( 'NONE', *, *, #109, .F. ) ;
#282 = APPROVAL_PERSON_ORGANIZATION ( #159, #32, #220 ) ;
#283 = CARTESIAN_POINT ( 'NONE',  ( 0.000000000000000000, 0.000000000000000000, 255.0000000000000000 ) ) ;
#284 =( GEOMETRIC_REPRESENTATION_CONTEXT ( 3 ) GLOBAL_UNCERTAINTY_ASSIGNED_CONTEXT ( ( #14 ) ) GLOBAL_UNIT_ASSIGNED_CONTEXT ( ( #163, #369, #98 ) ) REPRESENTATION_CONTEXT ( 'NONE', 'WORKASPACE' ) );
#285 = DATE_AND_TIME ( #171, #127 ) ;
#286 = DIRECTION ( 'NONE',  ( 1.000000000000000000, 0.000000000000000000, 0.000000000000000000 ) ) ;
#287 = EDGE_CURVE ( 'NONE', #243, #40, #5, .T. ) ;
#288 = PLANE ( 'NONE',  #276 ) ;
#289 = PERSON_AND_ORGANIZATION ( #93, #246 ) ;
#290 = DIRECTION ( 'NONE',  ( 0.000000000000000000, 0.000000000000000000, 1.000000000000000000 ) ) ;
#291 = CC_DESIGN_APPROVAL ( #351, ( #88 ) ) ;
#292 = CIRCLE ( 'NONE', #184, 2.000000000000000000 ) ;
#293 = EDGE_CURVE ( 'NONE', #271, #158, #356, .T. ) ;
#294 = LINE ( 'NONE', #209, #238 ) ;
#295 = FACE_OUTER_BOUND ( 'NONE', #219, .T. ) ;
#296 = AXIS2_PLACEMENT_3D ( 'NONE', #86, #29, #57 ) ;
#297 = DIRECTION ( 'NONE',  ( 0.000000000000000000, 0.000000000000000000, 1.000000000000000000 ) ) ;
#298 = ADVANCED_FACE ( 'NONE', ( #208 ), #326, .F. ) ;
#299 = CARTESIAN_POINT ( 'NONE',  ( 0.000000000000000000, 0.000000000000000000, 5.500000000000005329 ) ) ;
#300 = DIRECTION ( 'NONE',  ( 1.000000000000000000, 0.000000000000000000, 0.000000000000000000 ) ) ;
#301 = AXIS2_PLACEMENT_3D ( 'NONE', #267, #122, #237 ) ;
#302 = CARTESIAN_POINT ( 'NONE',  ( -2.000000000000000000, 0.000000000000000000, 255.0000000000000000 ) ) ;
#303 = EDGE_CURVE ( 'NONE', #9, #366, #294, .T. ) ;
#304 = ORIENTED_EDGE ( 'NONE', *, *, #6, .T. ) ;
#305 = ORIENTED_EDGE ( 'NONE', *, *, #175, .F. ) ;
#306 = APPROVAL_PERSON_ORGANIZATION ( #133, #351, #367 ) ;
#307 = CALENDAR_DATE ( 2022, 10, 7 ) ;
#308 = AXIS2_PLACEMENT_3D ( 'NONE', #259, #197, #51 ) ;
#309 = ORIENTED_EDGE ( 'NONE', *, *, #293, .T. ) ;
#310 = CC_DESIGN_PERSON_AND_ORGANIZATION_ASSIGNMENT ( #333, #65, ( #15 ) ) ;
#311 = ORIENTED_EDGE ( 'NONE', *, *, #6, .F. ) ;
#312 = ORIENTED_EDGE ( 'NONE', *, *, #73, .T. ) ;
#313 = CALENDAR_DATE ( 2022, 10, 7 ) ;
#314 = AXIS2_PLACEMENT_3D ( 'NONE', #355, #262, #266 ) ;
#315 = ORIENTED_EDGE ( 'NONE', *, *, #199, .F. ) ;
#316 = PERSON_AND_ORGANIZATION_ROLE ( 'design_supplier' ) ;
#317 = DIRECTION ( 'NONE',  ( -0.000000000000000000, -0.000000000000000000, -1.000000000000000000 ) ) ;
#318 = DIRECTION ( 'NONE',  ( 1.000000000000000000, 0.000000000000000000, 0.000000000000000000 ) ) ;
#319 = APPROVAL_DATE_TIME ( #23, #351 ) ;
#320 = DIRECTION ( 'NONE',  ( -1.000000000000000000, 0.000000000000000000, 0.000000000000000000 ) ) ;
#321 = EDGE_CURVE ( 'NONE', #229, #37, #346, .T. ) ;
#322 = FACE_OUTER_BOUND ( 'NONE', #360, .T. ) ;
#323 = DIRECTION ( 'NONE',  ( 0.000000000000000000, 0.000000000000000000, 1.000000000000000000 ) ) ;
#324 = DIRECTION ( 'NONE',  ( 1.000000000000000000, 0.000000000000000000, 0.000000000000000000 ) ) ;
#325 = VECTOR ( 'NONE', #59, 1000.000000000000000 ) ;
#326 = CYLINDRICAL_SURFACE ( 'NONE', #24, 2.000000000000000000 ) ;
#327 = ADVANCED_BREP_SHAPE_REPRESENTATION ( '9136', ( #230, #148 ), #284 ) ;
#328 = DIRECTION ( 'NONE',  ( -0.000000000000000000, -0.000000000000000000, -1.000000000000000000 ) ) ;
#329 = FACE_OUTER_BOUND ( 'NONE', #170, .T. ) ;
#330 = EDGE_CURVE ( 'NONE', #40, #243, #84, .T. ) ;
#331 = CIRCLE ( 'NONE', #77, 6.000000000000000888 ) ;
#332 = ORIENTED_EDGE ( 'NONE', *, *, #50, .F. ) ;
#333 = PERSON_AND_ORGANIZATION ( #93, #246 ) ;
#334 = VERTEX_POINT ( 'NONE', #62 ) ;
#335 = PERSON_AND_ORGANIZATION_ROLE ( 'creator' ) ;
#336 = EDGE_LOOP ( 'NONE', ( #217, #16, #72, #99 ) ) ;
#337 = PRODUCT_DEFINITION_SHAPE ( 'NONE', 'NONE',  #103 ) ;
#338 = DIRECTION ( 'NONE',  ( 1.000000000000000000, 0.000000000000000000, 0.000000000000000000 ) ) ;
#339 = AXIS2_PLACEMENT_3D ( 'NONE', #87, #120, #270 ) ;
#340 = ORIENTED_EDGE ( 'NONE', *, *, #199, .T. ) ;
#341 = APPLICATION_CONTEXT ( 'configuration controlled 3d designs of mechanical parts and assemblies' ) ;
#342 = APPROVAL_ROLE ( '' ) ;
#343 = ORIENTED_EDGE ( 'NONE', *, *, #321, .T. ) ;
#344 = LINE ( 'NONE', #195, #58 ) ;
#345 = CC_DESIGN_SECURITY_CLASSIFICATION ( #361, ( #88 ) ) ;
#346 = CIRCLE ( 'NONE', #19, 2.000000000000000000 ) ;
#347 = LINE ( 'NONE', #144, #202 ) ;
#348 = ORIENTED_EDGE ( 'NONE', *, *, #205, .F. ) ;
#349 = COORDINATED_UNIVERSAL_TIME_OFFSET ( 1, 0, .AHEAD. ) ;
#350 = CARTESIAN_POINT ( 'NONE',  ( 0.000000000000000000, 0.000000000000000000, 255.0000000000000000 ) ) ;
#351 = APPROVAL ( #250, 'NEURÈENÝ' ) ;
#352 = APPROVAL_PERSON_ORGANIZATION ( #289, #224, #342 ) ;
#353 = FACE_OUTER_BOUND ( 'NONE', #125, .T. ) ;
#354 = CYLINDRICAL_SURFACE ( 'NONE', #296, 6.000000000000000888 ) ;
#355 = CARTESIAN_POINT ( 'NONE',  ( 0.000000000000000000, 0.000000000000000000, 5.000000000000000000 ) ) ;
#356 = LINE ( 'NONE', #90, #255 ) ;
#357 = CYLINDRICAL_SURFACE ( 'NONE', #339, 6.000000000000000888 ) ;
#358 = DIRECTION ( 'NONE',  ( 1.000000000000000000, 0.000000000000000000, 0.000000000000000000 ) ) ;
#359 = EDGE_CURVE ( 'NONE', #364, #81, #11, .T. ) ;
#360 = EDGE_LOOP ( 'NONE', ( #203, #68, #223, #128 ) ) ;
#361 = SECURITY_CLASSIFICATION ( '', '', #47 ) ;
#362 = AXIS2_PLACEMENT_3D ( 'NONE', #283, #317, #320 ) ;
#363 = CARTESIAN_POINT ( 'NONE',  ( 0.000000000000000000, 0.000000000000000000, 0.000000000000000000 ) ) ;
#364 = VERTEX_POINT ( 'NONE', #302 ) ;
#365 = CALENDAR_DATE ( 2022, 10, 7 ) ;
#366 = VERTEX_POINT ( 'NONE', #35 ) ;
#367 = APPROVAL_ROLE ( '' ) ;
#368 = ORIENTED_EDGE ( 'NONE', *, *, #253, .F. ) ;
#369 =( NAMED_UNIT ( * ) PLANE_ANGLE_UNIT ( ) SI_UNIT ( $, .RADIAN. ) );
#370 = CIRCLE ( 'NONE', #105, 2.000000000000000000 ) ;
#371 = EDGE_LOOP ( 'NONE', ( #96, #131 ) ) ;
#372 = EDGE_LOOP ( 'NONE', ( #315, #106 ) ) ;
#373 = ADVANCED_FACE ( 'NONE', ( #126, #12 ), #71, .T. ) ;
#374 = DIRECTION ( 'NONE',  ( 0.000000000000000000, 0.000000000000000000, -1.000000000000000000 ) ) ;
#375 = AXIS2_PLACEMENT_3D ( 'NONE', #21, #137, #85 ) ;
#376 = DIRECTION ( 'NONE',  ( -1.000000000000000000, 0.000000000000000000, 0.000000000000000000 ) ) ;
#377 = ADVANCED_FACE ( 'NONE', ( #329 ), #185, .F. ) ;
#378 = DIRECTION ( 'NONE',  ( 1.000000000000000000, 0.000000000000000000, -0.000000000000000000 ) ) ;
#379 = DIRECTION ( 'NONE',  ( 0.000000000000000000, 0.000000000000000000, 1.000000000000000000 ) ) ;
#380 = DIRECTION ( 'NONE',  ( 1.000000000000000000, 0.000000000000000000, 0.000000000000000000 ) ) ;
#381 = CIRCLE ( 'NONE', #167, 3.500000000000000444 ) ;
ENDSEC;
END-ISO-10303-21;
