ISO-10303-21;
HEADER;
FILE_DESCRIPTION (( 'STEP AP203' ),
    '1' );
FILE_NAME ('934d.STEP',
    '2022-07-10T09:09:46',
    ( '' ),
    ( '' ),
    'SwSTEP 2.0',
    'SolidWorks 2019',
    '' );
FILE_SCHEMA (( 'CONFIG_CONTROL_DESIGN' ));
ENDSEC;

DATA;
#1 = PERSON_AND_ORGANIZATION ( #340, #347 ) ;
#2 = ORIENTED_EDGE ( 'NONE', *, *, #95, .F. ) ;
#3 = ADVANCED_FACE ( 'NONE', ( #132 ), #249, .T. ) ;
#4 = AXIS2_PLACEMENT_3D ( 'NONE', #269, #321, #124 ) ;
#5 = FACE_OUTER_BOUND ( 'NONE', #296, .T. ) ;
#6 = ORIENTED_EDGE ( 'NONE', *, *, #100, .T. ) ;
#7 = AXIS2_PLACEMENT_3D ( 'NONE', #135, #197, #306 ) ;
#8 = ORIENTED_EDGE ( 'NONE', *, *, #353, .T. ) ;
#9 = PERSON_AND_ORGANIZATION ( #340, #347 ) ;
#10 = EDGE_LOOP ( 'NONE', ( #2, #157, #263, #299 ) ) ;
#11 = CC_DESIGN_PERSON_AND_ORGANIZATION_ASSIGNMENT ( #35, #332, ( #75 ) ) ;
#12 = CARTESIAN_POINT ( 'NONE',  ( 0.000000000000000000, 0.000000000000000000, 5.000000000000000000 ) ) ;
#13 = FACE_OUTER_BOUND ( 'NONE', #125, .T. ) ;
#14 = ORIENTED_EDGE ( 'NONE', *, *, #40, .F. ) ;
#15 = CC_DESIGN_PERSON_AND_ORGANIZATION_ASSIGNMENT ( #164, #277, ( #378 ) ) ;
#16 = APPROVAL_STATUS ( 'not_yet_approved' ) ;
#17 = ORIENTED_EDGE ( 'NONE', *, *, #228, .T. ) ;
#18 = CARTESIAN_POINT ( 'NONE',  ( 2.500000000000000000, 3.061616997868383141E-16, 0.000000000000000000 ) ) ;
#19 = AXIS2_PLACEMENT_3D ( 'NONE', #12, #198, #72 ) ;
#20 = CARTESIAN_POINT ( 'NONE',  ( 0.000000000000000000, 0.000000000000000000, 0.000000000000000000 ) ) ;
#21 = DIRECTION ( 'NONE',  ( -0.000000000000000000, -0.000000000000000000, -1.000000000000000000 ) ) ;
#22 = DIRECTION ( 'NONE',  ( 1.000000000000000000, 0.000000000000000000, 0.000000000000000000 ) ) ;
#23 = CARTESIAN_POINT ( 'NONE',  ( 0.000000000000000000, 0.000000000000000000, 5.000000000000000000 ) ) ;
#24 = CC_DESIGN_APPROVAL ( #183, ( #363 ) ) ;
#25 = EDGE_CURVE ( 'NONE', #29, #118, #177, .T. ) ;
#26 = CARTESIAN_POINT ( 'NONE',  ( 0.000000000000000000, 0.000000000000000000, 0.000000000000000000 ) ) ;
#27 = ORIENTED_EDGE ( 'NONE', *, *, #115, .T. ) ;
#28 = CARTESIAN_POINT ( 'NONE',  ( 4.000000000000000000, 4.898587196589412829E-16, 155.0000000000000000 ) ) ;
#29 = VERTEX_POINT ( 'NONE', #219 ) ;
#30 = AXIS2_PLACEMENT_3D ( 'NONE', #379, #88, #50 ) ;
#31 = DATE_AND_TIME ( #295, #53 ) ;
#32 = EDGE_LOOP ( 'NONE', ( #36, #105, #187, #66 ) ) ;
#33 = VERTEX_POINT ( 'NONE', #18 ) ;
#34 = EDGE_CURVE ( 'NONE', #118, #29, #155, .T. ) ;
#35 = PERSON_AND_ORGANIZATION ( #340, #347 ) ;
#36 = ORIENTED_EDGE ( 'NONE', *, *, #286, .F. ) ;
#37 = APPROVAL_PERSON_ORGANIZATION ( #330, #68, #248 ) ;
#38 = PERSON_AND_ORGANIZATION ( #340, #347 ) ;
#39 = FACE_OUTER_BOUND ( 'NONE', #254, .T. ) ;
#40 = EDGE_CURVE ( 'NONE', #33, #276, #317, .T. ) ;
#41 = ORIENTED_EDGE ( 'NONE', *, *, #49, .T. ) ;
#42 = APPROVAL_DATE_TIME ( #365, #84 ) ;
#43 = DIRECTION ( 'NONE',  ( -1.000000000000000000, 1.224646799147351482E-16, 0.000000000000000000 ) ) ;
#44 = DESIGN_CONTEXT ( 'detailed design', #168, 'design' ) ;
#45 = AXIS2_PLACEMENT_3D ( 'NONE', #108, #51, #48 ) ;
#46 = CALENDAR_DATE ( 2022, 10, 7 ) ;
#47 = ORIENTED_EDGE ( 'NONE', *, *, #196, .F. ) ;
#48 = DIRECTION ( 'NONE',  ( 1.000000000000000000, 0.000000000000000000, 0.000000000000000000 ) ) ;
#49 = EDGE_CURVE ( 'NONE', #97, #323, #103, .T. ) ;
#50 = DIRECTION ( 'NONE',  ( 0.000000000000000000, 0.000000000000000000, -1.000000000000000000 ) ) ;
#51 = DIRECTION ( 'NONE',  ( 0.000000000000000000, 0.000000000000000000, 1.000000000000000000 ) ) ;
#52 = CIRCLE ( 'NONE', #210, 4.500000000000000888 ) ;
#53 = LOCAL_TIME ( 11, 9, 46.00000000000000000, #241 ) ;
#54 = DIRECTION ( 'NONE',  ( -1.000000000000000000, 0.000000000000000000, 0.000000000000000000 ) ) ;
#55 = CC_DESIGN_DATE_AND_TIME_ASSIGNMENT ( #220, #131, ( #75 ) ) ;
#56 = CIRCLE ( 'NONE', #19, 4.500000000000000888 ) ;
#57 = DIRECTION ( 'NONE',  ( -0.000000000000000000, -0.000000000000000000, -1.000000000000000000 ) ) ;
#58 =( NAMED_UNIT ( * ) SI_UNIT ( $, .STERADIAN. ) SOLID_ANGLE_UNIT ( ) );
#59 = AXIS2_PLACEMENT_3D ( 'NONE', #20, #318, #348 ) ;
#60 = EDGE_CURVE ( 'NONE', #61, #323, #300, .T. ) ;
#61 = VERTEX_POINT ( 'NONE', #158 ) ;
#62 = AXIS2_PLACEMENT_3D ( 'NONE', #273, #134, #43 ) ;
#63 = DIRECTION ( 'NONE',  ( 1.000000000000000000, 0.000000000000000000, -0.000000000000000000 ) ) ;
#64 = ORIENTED_EDGE ( 'NONE', *, *, #237, .T. ) ;
#65 = APPLICATION_PROTOCOL_DEFINITION ( 'international standard', 'config_control_design', 1994, #168 ) ;
#66 = ORIENTED_EDGE ( 'NONE', *, *, #172, .T. ) ;
#67 = ORIENTED_EDGE ( 'NONE', *, *, #286, .T. ) ;
#68 = APPROVAL ( #251, 'NEURÈENÝ' ) ;
#69 = COORDINATED_UNIVERSAL_TIME_OFFSET ( 1, 0, .AHEAD. ) ;
#70 = ORIENTED_EDGE ( 'NONE', *, *, #172, .F. ) ;
#71 = DATE_AND_TIME ( #76, #200 ) ;
#72 = DIRECTION ( 'NONE',  ( 1.000000000000000000, 0.000000000000000000, 0.000000000000000000 ) ) ;
#73 =( GEOMETRIC_REPRESENTATION_CONTEXT ( 3 ) GLOBAL_UNCERTAINTY_ASSIGNED_CONTEXT ( ( #337 ) ) GLOBAL_UNIT_ASSIGNED_CONTEXT ( ( #298, #150, #58 ) ) REPRESENTATION_CONTEXT ( 'NONE', 'WORKASPACE' ) );
#74 = ADVANCED_FACE ( 'NONE', ( #339 ), #311, .T. ) ;
#75 = SECURITY_CLASSIFICATION ( '', '', #129 ) ;
#76 = CALENDAR_DATE ( 2022, 10, 7 ) ;
#77 = CARTESIAN_POINT ( 'NONE',  ( 4.000000000000000000, 4.898587196589412829E-16, 5.500000000000005329 ) ) ;
#78 = CLOSED_SHELL ( 'NONE', ( #110, #160, #3, #74, #127, #142, #313, #258, #320, #166, #121 ) ) ;
#79 = ORIENTED_EDGE ( 'NONE', *, *, #25, .F. ) ;
#80 = PERSON_AND_ORGANIZATION_ROLE ( 'design_supplier' ) ;
#81 = CARTESIAN_POINT ( 'NONE',  ( 7.000000000000000000, 8.572527594031473190E-16, 5.000000000000000000 ) ) ;
#82 = DIRECTION ( 'NONE',  ( 0.000000000000000000, 0.000000000000000000, 1.000000000000000000 ) ) ;
#83 = DIRECTION ( 'NONE',  ( 0.000000000000000000, 0.000000000000000000, 1.000000000000000000 ) ) ;
#84 = APPROVAL ( #16, 'NEURÈENÝ' ) ;
#85 = CARTESIAN_POINT ( 'NONE',  ( 4.500000000000000888, 0.000000000000000000, 5.000000000000002665 ) ) ;
#86 = VECTOR ( 'NONE', #57, 1000.000000000000000 ) ;
#87 = DIRECTION ( 'NONE',  ( 0.000000000000000000, 0.000000000000000000, 1.000000000000000000 ) ) ;
#88 = DIRECTION ( 'NONE',  ( 0.000000000000000000, -1.000000000000000000, 0.000000000000000000 ) ) ;
#89 = VERTEX_POINT ( 'NONE', #77 ) ;
#90 = AXIS2_PLACEMENT_3D ( 'NONE', #380, #292, #290 ) ;
#91 = LINE ( 'NONE', #98, #159 ) ;
#92 = ORIENTED_EDGE ( 'NONE', *, *, #324, .F. ) ;
#93 = APPROVAL_ROLE ( '' ) ;
#94 = EDGE_LOOP ( 'NONE', ( #70, #217, #267, #116 ) ) ;
#95 = EDGE_CURVE ( 'NONE', #328, #162, #355, .T. ) ;
#96 = DIRECTION ( 'NONE',  ( 0.000000000000000000, 0.000000000000000000, 1.000000000000000000 ) ) ;
#97 = VERTEX_POINT ( 'NONE', #81 ) ;
#98 = CARTESIAN_POINT ( 'NONE',  ( -4.000000000000000000, 0.000000000000000000, 155.0000000000000000 ) ) ;
#99 = CARTESIAN_POINT ( 'NONE',  ( 0.000000000000000000, 0.000000000000000000, 155.0000000000000000 ) ) ;
#100 = EDGE_CURVE ( 'NONE', #154, #162, #56, .T. ) ;
#101 = COORDINATED_UNIVERSAL_TIME_OFFSET ( 1, 0, .AHEAD. ) ;
#102 = CARTESIAN_POINT ( 'NONE',  ( 7.000000000000000000, 8.572527594031473190E-16, 5.000000000000000000 ) ) ;
#103 = LINE ( 'NONE', #102, #208 ) ;
#104 = APPROVAL_ROLE ( '' ) ;
#105 = ORIENTED_EDGE ( 'NONE', *, *, #338, .F. ) ;
#106 = EDGE_LOOP ( 'NONE', ( #358, #165 ) ) ;
#107 = CC_DESIGN_SECURITY_CLASSIFICATION ( #75, ( #378 ) ) ;
#108 = CARTESIAN_POINT ( 'NONE',  ( 0.000000000000000000, 0.000000000000000000, 5.500000000000005329 ) ) ;
#109 = FACE_OUTER_BOUND ( 'NONE', #106, .T. ) ;
#110 = ADVANCED_FACE ( 'NONE', ( #13 ), #247, .F. ) ;
#111 = CARTESIAN_POINT ( 'NONE',  ( 0.000000000000000000, 0.000000000000000000, 0.000000000000000000 ) ) ;
#112 = DIRECTION ( 'NONE',  ( -1.000000000000000000, 0.000000000000000000, 0.000000000000000000 ) ) ;
#113 = CIRCLE ( 'NONE', #315, 7.000000000000000000 ) ;
#114 = DIRECTION ( 'NONE',  ( 0.000000000000000000, 0.000000000000000000, -1.000000000000000000 ) ) ;
#115 = EDGE_CURVE ( 'NONE', #89, #328, #270, .T. ) ;
#116 = ORIENTED_EDGE ( 'NONE', *, *, #310, .F. ) ;
#117 = CARTESIAN_POINT ( 'NONE',  ( 0.000000000000000000, 0.000000000000000000, 155.0000000000000000 ) ) ;
#118 = VERTEX_POINT ( 'NONE', #130 ) ;
#119 = CIRCLE ( 'NONE', #145, 4.000000000000000000 ) ;
#120 = ORIENTED_EDGE ( 'NONE', *, *, #34, .T. ) ;
#121 = ADVANCED_FACE ( 'NONE', ( #39 ), #253, .F. ) ;
#122 = DIRECTION ( 'NONE',  ( 1.000000000000000000, 0.000000000000000000, -0.000000000000000000 ) ) ;
#123 = ORIENTED_EDGE ( 'NONE', *, *, #196, .T. ) ;
#124 = DIRECTION ( 'NONE',  ( 1.000000000000000000, 0.000000000000000000, 0.000000000000000000 ) ) ;
#125 = EDGE_LOOP ( 'NONE', ( #186, #240, #213, #322 ) ) ;
#126 = AXIS2_PLACEMENT_3D ( 'NONE', #117, #211, #63 ) ;
#127 = ADVANCED_FACE ( 'NONE', ( #280 ), #376, .T. ) ;
#128 = CARTESIAN_POINT ( 'NONE',  ( 0.000000000000000000, 0.000000000000000000, 155.0000000000000000 ) ) ;
#129 = SECURITY_CLASSIFICATION_LEVEL ( 'unclassified' ) ;
#130 = CARTESIAN_POINT ( 'NONE',  ( 2.500000000000000000, 3.061616997868383141E-16, 155.0000000000000000 ) ) ;
#131 = DATE_TIME_ROLE ( 'classification_date' ) ;
#132 = FACE_OUTER_BOUND ( 'NONE', #349, .T. ) ;
#133 = APPROVAL_DATE_TIME ( #71, #68 ) ;
#134 = DIRECTION ( 'NONE',  ( 1.224646799147353207E-16, 1.000000000000000000, -0.000000000000000000 ) ) ;
#135 = CARTESIAN_POINT ( 'NONE',  ( 0.000000000000000000, 0.000000000000000000, 155.0000000000000000 ) ) ;
#136 = DIRECTION ( 'NONE',  ( 1.000000000000000000, 0.000000000000000000, 0.000000000000000000 ) ) ;
#137 = PRODUCT_DEFINITION_SHAPE ( 'NONE', 'NONE',  #363 ) ;
#138 = APPLICATION_CONTEXT ( 'configuration controlled 3d designs of mechanical parts and assemblies' ) ;
#139 = CIRCLE ( 'NONE', #193, 7.000000000000000000 ) ;
#140 = LOCAL_TIME ( 11, 9, 46.00000000000000000, #218 ) ;
#141 = CARTESIAN_POINT ( 'NONE',  ( -4.000000000000000000, 0.000000000000000000, 155.0000000000000000 ) ) ;
#142 = ADVANCED_FACE ( 'NONE', ( #377, #256 ), #288, .T. ) ;
#143 = DIRECTION ( 'NONE',  ( 0.000000000000000000, 0.000000000000000000, 1.000000000000000000 ) ) ;
#144 = CARTESIAN_POINT ( 'NONE',  ( 0.000000000000000000, 0.000000000000000000, 5.000000000000000000 ) ) ;
#145 = AXIS2_PLACEMENT_3D ( 'NONE', #206, #314, #22 ) ;
#146 = DIRECTION ( 'NONE',  ( 1.000000000000000000, 0.000000000000000000, 0.000000000000000000 ) ) ;
#147 = FACE_BOUND ( 'NONE', #265, .T. ) ;
#148 = CARTESIAN_POINT ( 'NONE',  ( -4.000000000000000000, 0.000000000000000000, 5.500000000000005329 ) ) ;
#149 = ORIENTED_EDGE ( 'NONE', *, *, #222, .T. ) ;
#150 =( NAMED_UNIT ( * ) PLANE_ANGLE_UNIT ( ) SI_UNIT ( $, .RADIAN. ) );
#151 = EDGE_LOOP ( 'NONE', ( #325, #41, #212, #335 ) ) ;
#152 = TOROIDAL_SURFACE ( 'NONE', #333, 4.500000000000000888, 0.5000000000000000000 ) ;
#153 = CC_DESIGN_PERSON_AND_ORGANIZATION_ASSIGNMENT ( #1, #327, ( #363 ) ) ;
#154 = VERTEX_POINT ( 'NONE', #85 ) ;
#155 = CIRCLE ( 'NONE', #268, 2.500000000000000000 ) ;
#156 = CARTESIAN_POINT ( 'NONE',  ( -2.500000000000000000, 0.000000000000000000, 155.0000000000000000 ) ) ;
#157 = ORIENTED_EDGE ( 'NONE', *, *, #115, .F. ) ;
#158 = CARTESIAN_POINT ( 'NONE',  ( -7.000000000000000000, 0.000000000000000000, 0.000000000000000000 ) ) ;
#159 = VECTOR ( 'NONE', #319, 1000.000000000000000 ) ;
#160 = ADVANCED_FACE ( 'NONE', ( #282 ), #204, .F. ) ;
#161 = SHAPE_DEFINITION_REPRESENTATION ( #137, #357 ) ;
#162 = VERTEX_POINT ( 'NONE', #345 ) ;
#163 = DIRECTION ( 'NONE',  ( -0.000000000000000000, -0.000000000000000000, -1.000000000000000000 ) ) ;
#164 = PERSON_AND_ORGANIZATION ( #340, #347 ) ;
#165 = ORIENTED_EDGE ( 'NONE', *, *, #191, .F. ) ;
#166 = ADVANCED_FACE ( 'NONE', ( #283 ), #152, .F. ) ;
#167 = AXIS2_PLACEMENT_3D ( 'NONE', #304, #170, #334 ) ;
#168 = APPLICATION_CONTEXT ( 'configuration controlled 3d designs of mechanical parts and assemblies' ) ;
#169 = LOCAL_TIME ( 11, 9, 46.00000000000000000, #351 ) ;
#170 = DIRECTION ( 'NONE',  ( 0.000000000000000000, 0.000000000000000000, 1.000000000000000000 ) ) ;
#171 = CARTESIAN_POINT ( 'NONE',  ( -7.000000000000000000, 0.000000000000000000, 5.000000000000000000 ) ) ;
#172 = EDGE_CURVE ( 'NONE', #328, #89, #119, .T. ) ;
#173 = FACE_BOUND ( 'NONE', #242, .T. ) ;
#174 = AXIS2_PLACEMENT_3D ( 'NONE', #26, #96, #122 ) ;
#175 = CARTESIAN_POINT ( 'NONE',  ( 0.000000000000000000, 0.000000000000000000, 5.000000000000000000 ) ) ;
#176 = DIRECTION ( 'NONE',  ( 0.000000000000000000, 0.000000000000000000, 1.000000000000000000 ) ) ;
#177 = CIRCLE ( 'NONE', #7, 2.500000000000000000 ) ;
#178 = CARTESIAN_POINT ( 'NONE',  ( 0.000000000000000000, 0.000000000000000000, 5.500000000000005329 ) ) ;
#179 = LINE ( 'NONE', #156, #303 ) ;
#180 = CC_DESIGN_APPROVAL ( #68, ( #75 ) ) ;
#181 = PERSON_AND_ORGANIZATION_ROLE ( 'design_owner' ) ;
#182 = AXIS2_PLACEMENT_3D ( 'NONE', #223, #163, #221 ) ;
#183 = APPROVAL ( #360, 'NEURÈENÝ' ) ;
#184 = DATE_AND_TIME ( #188, #169 ) ;
#185 = MANIFOLD_SOLID_BREP ( 'Odebrat vysunutím3', #78 ) ;
#186 = ORIENTED_EDGE ( 'NONE', *, *, #25, .T. ) ;
#187 = ORIENTED_EDGE ( 'NONE', *, *, #324, .T. ) ;
#188 = CALENDAR_DATE ( 2022, 10, 7 ) ;
#189 = AXIS2_PLACEMENT_3D ( 'NONE', #341, #82, #201 ) ;
#190 = VERTEX_POINT ( 'NONE', #373 ) ;
#191 = EDGE_CURVE ( 'NONE', #323, #61, #231, .T. ) ;
#192 = DIRECTION ( 'NONE',  ( -1.000000000000000000, 0.000000000000000000, 0.000000000000000000 ) ) ;
#193 = AXIS2_PLACEMENT_3D ( 'NONE', #216, #243, #245 ) ;
#194 = CARTESIAN_POINT ( 'NONE',  ( 0.000000000000000000, 0.000000000000000000, 155.0000000000000000 ) ) ;
#195 = CALENDAR_DATE ( 2022, 10, 7 ) ;
#196 = EDGE_CURVE ( 'NONE', #276, #33, #279, .T. ) ;
#197 = DIRECTION ( 'NONE',  ( 0.000000000000000000, 0.000000000000000000, 1.000000000000000000 ) ) ;
#198 = DIRECTION ( 'NONE',  ( -0.000000000000000000, -0.000000000000000000, -1.000000000000000000 ) ) ;
#199 = AXIS2_PLACEMENT_3D ( 'NONE', #257, #83, #146 ) ;
#200 = LOCAL_TIME ( 11, 9, 46.00000000000000000, #69 ) ;
#201 = DIRECTION ( 'NONE',  ( 1.000000000000000000, 0.000000000000000000, 0.000000000000000000 ) ) ;
#202 = CARTESIAN_POINT ( 'NONE',  ( 0.000000000000000000, 0.000000000000000000, 155.0000000000000000 ) ) ;
#203 = DIRECTION ( 'NONE',  ( 0.000000000000000000, 0.000000000000000000, 1.000000000000000000 ) ) ;
#204 = TOROIDAL_SURFACE ( 'NONE', #45, 4.500000000000000888, 0.5000000000000000000 ) ;
#205 = APPROVAL_PERSON_ORGANIZATION ( #38, #84, #104 ) ;
#206 = CARTESIAN_POINT ( 'NONE',  ( 0.000000000000000000, 0.000000000000000000, 5.500000000000005329 ) ) ;
#207 = LINE ( 'NONE', #227, #86 ) ;
#208 = VECTOR ( 'NONE', #278, 1000.000000000000000 ) ;
#209 = CARTESIAN_POINT ( 'NONE',  ( 0.000000000000000000, 0.000000000000000000, 5.000000000000000000 ) ) ;
#210 = AXIS2_PLACEMENT_3D ( 'NONE', #144, #259, #344 ) ;
#211 = DIRECTION ( 'NONE',  ( 0.000000000000000000, 0.000000000000000000, 1.000000000000000000 ) ) ;
#212 = ORIENTED_EDGE ( 'NONE', *, *, #191, .T. ) ;
#213 = ORIENTED_EDGE ( 'NONE', *, *, #40, .T. ) ;
#214 = APPLICATION_PROTOCOL_DEFINITION ( 'international standard', 'config_control_design', 1994, #138 ) ;
#215 = ORIENTED_EDGE ( 'NONE', *, *, #60, .T. ) ;
#216 = CARTESIAN_POINT ( 'NONE',  ( 0.000000000000000000, 0.000000000000000000, 5.000000000000000000 ) ) ;
#217 = ORIENTED_EDGE ( 'NONE', *, *, #95, .T. ) ;
#218 = COORDINATED_UNIVERSAL_TIME_OFFSET ( 1, 0, .AHEAD. ) ;
#219 = CARTESIAN_POINT ( 'NONE',  ( -2.500000000000000000, 0.000000000000000000, 155.0000000000000000 ) ) ;
#220 = DATE_AND_TIME ( #195, #350 ) ;
#221 = DIRECTION ( 'NONE',  ( -1.000000000000000000, 0.000000000000000000, 0.000000000000000000 ) ) ;
#222 = EDGE_CURVE ( 'NONE', #190, #61, #287, .T. ) ;
#223 = CARTESIAN_POINT ( 'NONE',  ( 0.000000000000000000, 0.000000000000000000, 5.000000000000000000 ) ) ;
#224 = CARTESIAN_POINT ( 'NONE',  ( 0.000000000000000000, 0.000000000000000000, 155.0000000000000000 ) ) ;
#225 = DIRECTION ( 'NONE',  ( 1.000000000000000000, 0.000000000000000000, 0.000000000000000000 ) ) ;
#226 = AXIS2_PLACEMENT_3D ( 'NONE', #194, #305, #308 ) ;
#227 = CARTESIAN_POINT ( 'NONE',  ( 4.000000000000000000, 4.898587196589412829E-16, 155.0000000000000000 ) ) ;
#228 = EDGE_CURVE ( 'NONE', #190, #97, #113, .T. ) ;
#229 = PLANE ( 'NONE',  #174 ) ;
#230 = DIRECTION ( 'NONE',  ( 1.000000000000000000, 0.000000000000000000, -0.000000000000000000 ) ) ;
#231 = CIRCLE ( 'NONE', #272, 7.000000000000000000 ) ;
#232 = APPROVAL_PERSON_ORGANIZATION ( #9, #183, #93 ) ;
#233 = CARTESIAN_POINT ( 'NONE',  ( -2.500000000000000000, 0.000000000000000000, 0.000000000000000000 ) ) ;
#234 = LINE ( 'NONE', #255, #260 ) ;
#235 = MECHANICAL_CONTEXT ( 'NONE', #138, 'mechanical' ) ;
#236 = ORIENTED_EDGE ( 'NONE', *, *, #302, .F. ) ;
#237 = EDGE_CURVE ( 'NONE', #162, #154, #52, .T. ) ;
#238 = PRODUCT ( '934d', '934d', '', ( #235 ) ) ;
#239 = PERSON_AND_ORGANIZATION ( #340, #347 ) ;
#240 = ORIENTED_EDGE ( 'NONE', *, *, #274, .T. ) ;
#241 = COORDINATED_UNIVERSAL_TIME_OFFSET ( 1, 0, .AHEAD. ) ;
#242 = EDGE_LOOP ( 'NONE', ( #47, #14 ) ) ;
#243 = DIRECTION ( 'NONE',  ( 0.000000000000000000, 0.000000000000000000, 1.000000000000000000 ) ) ;
#244 = EDGE_LOOP ( 'NONE', ( #6, #64 ) ) ;
#245 = DIRECTION ( 'NONE',  ( 1.000000000000000000, 0.000000000000000000, 0.000000000000000000 ) ) ;
#246 = ORIENTED_EDGE ( 'NONE', *, *, #374, .T. ) ;
#247 = CYLINDRICAL_SURFACE ( 'NONE', #326, 2.500000000000000000 ) ;
#248 = APPROVAL_ROLE ( '' ) ;
#249 = CYLINDRICAL_SURFACE ( 'NONE', #336, 4.000000000000000000 ) ;
#250 = CC_DESIGN_PERSON_AND_ORGANIZATION_ASSIGNMENT ( #239, #181, ( #238 ) ) ;
#251 = APPROVAL_STATUS ( 'not_yet_approved' ) ;
#252 = DIRECTION ( 'NONE',  ( -1.000000000000000000, 0.000000000000000000, 0.000000000000000000 ) ) ;
#253 = CYLINDRICAL_SURFACE ( 'NONE', #226, 2.500000000000000000 ) ;
#254 = EDGE_LOOP ( 'NONE', ( #381, #120, #8, #123 ) ) ;
#255 = CARTESIAN_POINT ( 'NONE',  ( 2.500000000000000000, 3.061616997868383141E-16, 155.0000000000000000 ) ) ;
#256 = FACE_OUTER_BOUND ( 'NONE', #291, .T. ) ;
#257 = CARTESIAN_POINT ( 'NONE',  ( 0.000000000000000000, 0.000000000000000000, 155.0000000000000000 ) ) ;
#258 = ADVANCED_FACE ( 'NONE', ( #375 ), #285, .T. ) ;
#259 = DIRECTION ( 'NONE',  ( -0.000000000000000000, -0.000000000000000000, -1.000000000000000000 ) ) ;
#260 = VECTOR ( 'NONE', #114, 1000.000000000000000 ) ;
#261 = DIRECTION ( 'NONE',  ( -0.000000000000000000, -0.000000000000000000, -1.000000000000000000 ) ) ;
#262 = PLANE ( 'NONE',  #126 ) ;
#263 = ORIENTED_EDGE ( 'NONE', *, *, #310, .T. ) ;
#264 = DIRECTION ( 'NONE',  ( 0.000000000000000000, 0.000000000000000000, -1.000000000000000000 ) ) ;
#265 = EDGE_LOOP ( 'NONE', ( #79, #301 ) ) ;
#266 = APPROVAL_DATE_TIME ( #31, #183 ) ;
#267 = ORIENTED_EDGE ( 'NONE', *, *, #100, .F. ) ;
#268 = AXIS2_PLACEMENT_3D ( 'NONE', #224, #372, #225 ) ;
#269 = CARTESIAN_POINT ( 'NONE',  ( 0.000000000000000000, 0.000000000000000000, 0.000000000000000000 ) ) ;
#270 = CIRCLE ( 'NONE', #167, 4.000000000000000000 ) ;
#271 = ORIENTED_EDGE ( 'NONE', *, *, #338, .T. ) ;
#272 = AXIS2_PLACEMENT_3D ( 'NONE', #111, #87, #316 ) ;
#273 = CARTESIAN_POINT ( 'NONE',  ( -4.500000000000000888, 5.510910596163089556E-16, 5.500000000000005329 ) ) ;
#274 = EDGE_CURVE ( 'NONE', #118, #33, #234, .T. ) ;
#275 = CARTESIAN_POINT ( 'NONE',  ( 0.000000000000000000, 0.000000000000000000, 0.000000000000000000 ) ) ;
#276 = VERTEX_POINT ( 'NONE', #233 ) ;
#277 = PERSON_AND_ORGANIZATION_ROLE ( 'creator' ) ;
#278 = DIRECTION ( 'NONE',  ( -0.000000000000000000, -0.000000000000000000, -1.000000000000000000 ) ) ;
#279 = CIRCLE ( 'NONE', #59, 2.500000000000000000 ) ;
#280 = FACE_OUTER_BOUND ( 'NONE', #354, .T. ) ;
#281 = CC_DESIGN_PERSON_AND_ORGANIZATION_ASSIGNMENT ( #307, #80, ( #378 ) ) ;
#282 = FACE_OUTER_BOUND ( 'NONE', #94, .T. ) ;
#283 = FACE_OUTER_BOUND ( 'NONE', #10, .T. ) ;
#284 = CIRCLE ( 'NONE', #90, 4.000000000000000000 ) ;
#285 = CYLINDRICAL_SURFACE ( 'NONE', #342, 4.000000000000000000 ) ;
#286 = EDGE_CURVE ( 'NONE', #361, #89, #207, .T. ) ;
#287 = LINE ( 'NONE', #171, #309 ) ;
#288 = PLANE ( 'NONE',  #366 ) ;
#289 = CIRCLE ( 'NONE', #30, 0.5000000000000004441 ) ;
#290 = DIRECTION ( 'NONE',  ( 1.000000000000000000, 0.000000000000000000, 0.000000000000000000 ) ) ;
#291 = EDGE_LOOP ( 'NONE', ( #17, #246 ) ) ;
#292 = DIRECTION ( 'NONE',  ( 0.000000000000000000, 0.000000000000000000, 1.000000000000000000 ) ) ;
#293 = VERTEX_POINT ( 'NONE', #141 ) ;
#294 = AXIS2_PLACEMENT_3D ( 'NONE', #209, #312, #54 ) ;
#295 = CALENDAR_DATE ( 2022, 10, 7 ) ;
#296 = EDGE_LOOP ( 'NONE', ( #271, #369 ) ) ;
#297 = PRODUCT_RELATED_PRODUCT_CATEGORY ( 'detail', '', ( #238 ) ) ;
#298 =( LENGTH_UNIT ( ) NAMED_UNIT ( * ) SI_UNIT ( .MILLI., .METRE. ) );
#299 = ORIENTED_EDGE ( 'NONE', *, *, #237, .F. ) ;
#300 = CIRCLE ( 'NONE', #189, 7.000000000000000000 ) ;
#301 = ORIENTED_EDGE ( 'NONE', *, *, #34, .F. ) ;
#302 = EDGE_CURVE ( 'NONE', #361, #293, #359, .T. ) ;
#303 = VECTOR ( 'NONE', #264, 1000.000000000000000 ) ;
#304 = CARTESIAN_POINT ( 'NONE',  ( 0.000000000000000000, 0.000000000000000000, 5.500000000000005329 ) ) ;
#305 = DIRECTION ( 'NONE',  ( 0.000000000000000000, 0.000000000000000000, -1.000000000000000000 ) ) ;
#306 = DIRECTION ( 'NONE',  ( 1.000000000000000000, 0.000000000000000000, 0.000000000000000000 ) ) ;
#307 = PERSON_AND_ORGANIZATION ( #340, #347 ) ;
#308 = DIRECTION ( 'NONE',  ( -1.000000000000000000, 0.000000000000000000, 0.000000000000000000 ) ) ;
#309 = VECTOR ( 'NONE', #261, 1000.000000000000000 ) ;
#310 = EDGE_CURVE ( 'NONE', #89, #154, #289, .T. ) ;
#311 = CYLINDRICAL_SURFACE ( 'NONE', #182, 7.000000000000000000 ) ;
#312 = DIRECTION ( 'NONE',  ( -0.000000000000000000, -0.000000000000000000, -1.000000000000000000 ) ) ;
#313 = ADVANCED_FACE ( 'NONE', ( #173, #109 ), #229, .F. ) ;
#314 = DIRECTION ( 'NONE',  ( 0.000000000000000000, 0.000000000000000000, 1.000000000000000000 ) ) ;
#315 = AXIS2_PLACEMENT_3D ( 'NONE', #175, #143, #136 ) ;
#316 = DIRECTION ( 'NONE',  ( 1.000000000000000000, 0.000000000000000000, 0.000000000000000000 ) ) ;
#317 = CIRCLE ( 'NONE', #370, 2.500000000000000000 ) ;
#318 = DIRECTION ( 'NONE',  ( -0.000000000000000000, -0.000000000000000000, -1.000000000000000000 ) ) ;
#319 = DIRECTION ( 'NONE',  ( -0.000000000000000000, -0.000000000000000000, -1.000000000000000000 ) ) ;
#320 = ADVANCED_FACE ( 'NONE', ( #147, #5 ), #262, .T. ) ;
#321 = DIRECTION ( 'NONE',  ( 0.000000000000000000, 0.000000000000000000, 1.000000000000000000 ) ) ;
#322 = ORIENTED_EDGE ( 'NONE', *, *, #353, .F. ) ;
#323 = VERTEX_POINT ( 'NONE', #356 ) ;
#324 = EDGE_CURVE ( 'NONE', #293, #328, #91, .T. ) ;
#325 = ORIENTED_EDGE ( 'NONE', *, *, #374, .F. ) ;
#326 = AXIS2_PLACEMENT_3D ( 'NONE', #99, #331, #192 ) ;
#327 = PERSON_AND_ORGANIZATION_ROLE ( 'creator' ) ;
#328 = VERTEX_POINT ( 'NONE', #148 ) ;
#329 = ORIENTED_EDGE ( 'NONE', *, *, #228, .F. ) ;
#330 = PERSON_AND_ORGANIZATION ( #340, #347 ) ;
#331 = DIRECTION ( 'NONE',  ( 0.000000000000000000, 0.000000000000000000, -1.000000000000000000 ) ) ;
#332 = PERSON_AND_ORGANIZATION_ROLE ( 'classification_officer' ) ;
#333 = AXIS2_PLACEMENT_3D ( 'NONE', #178, #203, #346 ) ;
#334 = DIRECTION ( 'NONE',  ( 1.000000000000000000, 0.000000000000000000, 0.000000000000000000 ) ) ;
#335 = ORIENTED_EDGE ( 'NONE', *, *, #222, .F. ) ;
#336 = AXIS2_PLACEMENT_3D ( 'NONE', #128, #364, #252 ) ;
#337 = UNCERTAINTY_MEASURE_WITH_UNIT (LENGTH_MEASURE( 1.000000000000000082E-05 ), #298, 'distance_accuracy_value', 'NONE');
#338 = EDGE_CURVE ( 'NONE', #293, #361, #284, .T. ) ;
#339 = FACE_OUTER_BOUND ( 'NONE', #151, .T. ) ;
#340 = PERSON ( 'NEURÈENÝ', 'NEURÈENÝ', 'NEURÈENÝ', ('NEURÈENÝ'), ('NEURÈENÝ'), ('NEURÈENÝ') ) ;
#341 = CARTESIAN_POINT ( 'NONE',  ( 0.000000000000000000, 0.000000000000000000, 0.000000000000000000 ) ) ;
#342 = AXIS2_PLACEMENT_3D ( 'NONE', #202, #21, #112 ) ;
#343 = CC_DESIGN_APPROVAL ( #84, ( #378 ) ) ;
#344 = DIRECTION ( 'NONE',  ( 1.000000000000000000, 0.000000000000000000, 0.000000000000000000 ) ) ;
#345 = CARTESIAN_POINT ( 'NONE',  ( -4.500000000000000888, 5.510910596163088569E-16, 5.000000000000002665 ) ) ;
#346 = DIRECTION ( 'NONE',  ( 1.000000000000000000, 0.000000000000000000, 0.000000000000000000 ) ) ;
#347 = ORGANIZATION ( 'NEURÈENÝ', 'NEURÈENÝ', '' ) ;
#348 = DIRECTION ( 'NONE',  ( 1.000000000000000000, 0.000000000000000000, 0.000000000000000000 ) ) ;
#349 = EDGE_LOOP ( 'NONE', ( #236, #67, #27, #92 ) ) ;
#350 = LOCAL_TIME ( 11, 9, 46.00000000000000000, #101 ) ;
#351 = COORDINATED_UNIVERSAL_TIME_OFFSET ( 1, 0, .AHEAD. ) ;
#352 = ORIENTED_EDGE ( 'NONE', *, *, #49, .F. ) ;
#353 = EDGE_CURVE ( 'NONE', #29, #276, #179, .T. ) ;
#354 = EDGE_LOOP ( 'NONE', ( #352, #329, #149, #215 ) ) ;
#355 = CIRCLE ( 'NONE', #62, 0.5000000000000004441 ) ;
#356 = CARTESIAN_POINT ( 'NONE',  ( 7.000000000000000000, 8.572527594031473190E-16, 0.000000000000000000 ) ) ;
#357 = ADVANCED_BREP_SHAPE_REPRESENTATION ( '934d', ( #185, #4 ), #73 ) ;
#358 = ORIENTED_EDGE ( 'NONE', *, *, #60, .F. ) ;
#359 = CIRCLE ( 'NONE', #199, 4.000000000000000000 ) ;
#360 = APPROVAL_STATUS ( 'not_yet_approved' ) ;
#361 = VERTEX_POINT ( 'NONE', #28 ) ;
#362 = DIRECTION ( 'NONE',  ( 1.000000000000000000, 0.000000000000000000, 0.000000000000000000 ) ) ;
#363 = PRODUCT_DEFINITION ( 'NEZNÁMÝ', '', #378, #44 ) ;
#364 = DIRECTION ( 'NONE',  ( -0.000000000000000000, -0.000000000000000000, -1.000000000000000000 ) ) ;
#365 = DATE_AND_TIME ( #46, #140 ) ;
#366 = AXIS2_PLACEMENT_3D ( 'NONE', #23, #176, #230 ) ;
#367 = DIRECTION ( 'NONE',  ( -0.000000000000000000, -0.000000000000000000, -1.000000000000000000 ) ) ;
#368 = CC_DESIGN_DATE_AND_TIME_ASSIGNMENT ( #184, #371, ( #363 ) ) ;
#369 = ORIENTED_EDGE ( 'NONE', *, *, #302, .T. ) ;
#370 = AXIS2_PLACEMENT_3D ( 'NONE', #275, #367, #362 ) ;
#371 = DATE_TIME_ROLE ( 'creation_date' ) ;
#372 = DIRECTION ( 'NONE',  ( 0.000000000000000000, 0.000000000000000000, 1.000000000000000000 ) ) ;
#373 = CARTESIAN_POINT ( 'NONE',  ( -7.000000000000000000, 0.000000000000000000, 5.000000000000000000 ) ) ;
#374 = EDGE_CURVE ( 'NONE', #97, #190, #139, .T. ) ;
#375 = FACE_OUTER_BOUND ( 'NONE', #32, .T. ) ;
#376 = CYLINDRICAL_SURFACE ( 'NONE', #294, 7.000000000000000000 ) ;
#377 = FACE_BOUND ( 'NONE', #244, .T. ) ;
#378 = PRODUCT_DEFINITION_FORMATION_WITH_SPECIFIED_SOURCE ( 'LIBOVOLNÝ', '', #238, .NOT_KNOWN. ) ;
#379 = CARTESIAN_POINT ( 'NONE',  ( 4.500000000000000888, 0.000000000000000000, 5.500000000000005329 ) ) ;
#380 = CARTESIAN_POINT ( 'NONE',  ( 0.000000000000000000, 0.000000000000000000, 155.0000000000000000 ) ) ;
#381 = ORIENTED_EDGE ( 'NONE', *, *, #274, .F. ) ;
ENDSEC;
END-ISO-10303-21;
