ISO-10303-21;
HEADER;
FILE_DESCRIPTION (( 'STEP AP203' ),
    '1' );
FILE_NAME ('9ccc.STEP',
    '2022-07-10T08:59:56',
    ( '' ),
    ( '' ),
    'SwSTEP 2.0',
    'SolidWorks 2019',
    '' );
FILE_SCHEMA (( 'CONFIG_CONTROL_DESIGN' ));
ENDSEC;

DATA;
#1 = EDGE_CURVE ( 'NONE', #379, #18, #228, .T. ) ;
#2 = APPROVAL_DATE_TIME ( #381, #330 ) ;
#3 = DIRECTION ( 'NONE',  ( -0.000000000000000000, -0.000000000000000000, -1.000000000000000000 ) ) ;
#4 = CALENDAR_DATE ( 2022, 10, 7 ) ;
#5 = DIRECTION ( 'NONE',  ( -0.000000000000000000, -0.000000000000000000, -1.000000000000000000 ) ) ;
#6 = DIRECTION ( 'NONE',  ( 0.000000000000000000, 0.000000000000000000, 1.000000000000000000 ) ) ;
#7 = CARTESIAN_POINT ( 'NONE',  ( 11.00000000000000000, 1.347111479062088405E-15, 7.000000000000000000 ) ) ;
#8 = CIRCLE ( 'NONE', #112, 8.000000000000000000 ) ;
#9 = CC_DESIGN_APPROVAL ( #187, ( #203 ) ) ;
#10 = CARTESIAN_POINT ( 'NONE',  ( 0.000000000000000000, 0.000000000000000000, 0.000000000000000000 ) ) ;
#11 = DIRECTION ( 'NONE',  ( -0.000000000000000000, -0.000000000000000000, -1.000000000000000000 ) ) ;
#12 = ORIENTED_EDGE ( 'NONE', *, *, #28, .F. ) ;
#13 = CARTESIAN_POINT ( 'NONE',  ( 0.000000000000000000, 0.000000000000000000, 157.0000000000000000 ) ) ;
#14 = ORIENTED_EDGE ( 'NONE', *, *, #19, .T. ) ;
#15 = CYLINDRICAL_SURFACE ( 'NONE', #186, 6.000000000000000888 ) ;
#16 = ORIENTED_EDGE ( 'NONE', *, *, #48, .T. ) ;
#17 = PERSON_AND_ORGANIZATION ( #286, #27 ) ;
#18 = VERTEX_POINT ( 'NONE', #251 ) ;
#19 = EDGE_CURVE ( 'NONE', #321, #368, #148, .T. ) ;
#20 = PERSON_AND_ORGANIZATION_ROLE ( 'creator' ) ;
#21 = DIRECTION ( 'NONE',  ( 1.000000000000000000, 0.000000000000000000, 0.000000000000000000 ) ) ;
#22 = EDGE_CURVE ( 'NONE', #368, #321, #8, .T. ) ;
#23 = DIRECTION ( 'NONE',  ( 0.000000000000000000, 0.000000000000000000, 1.000000000000000000 ) ) ;
#24 = ORIENTED_EDGE ( 'NONE', *, *, #226, .T. ) ;
#25 = ORIENTED_EDGE ( 'NONE', *, *, #37, .F. ) ;
#26 = AXIS2_PLACEMENT_3D ( 'NONE', #153, #174, #234 ) ;
#27 = ORGANIZATION ( 'NEURÈENÝ', 'NEURÈENÝ', '' ) ;
#28 = EDGE_CURVE ( 'NONE', #368, #158, #29, .T. ) ;
#29 = LINE ( 'NONE', #374, #366 ) ;
#30 = CARTESIAN_POINT ( 'NONE',  ( 0.000000000000000000, 0.000000000000000000, 0.000000000000000000 ) ) ;
#31 = CARTESIAN_POINT ( 'NONE',  ( 11.00000000000000000, 1.347111479062088405E-15, 0.000000000000000000 ) ) ;
#32 = AXIS2_PLACEMENT_3D ( 'NONE', #30, #146, #177 ) ;
#33 = AXIS2_PLACEMENT_3D ( 'NONE', #41, #278, #369 ) ;
#34 = APPROVAL_ROLE ( '' ) ;
#35 = CARTESIAN_POINT ( 'NONE',  ( 8.699999999999999289, 0.000000000000000000, 7.700000000000012612 ) ) ;
#36 = DIRECTION ( 'NONE',  ( 1.000000000000000000, 0.000000000000000000, 0.000000000000000000 ) ) ;
#37 = EDGE_CURVE ( 'NONE', #346, #331, #145, .T. ) ;
#38 = VECTOR ( 'NONE', #297, 1000.000000000000000 ) ;
#39 = AXIS2_PLACEMENT_3D ( 'NONE', #333, #304, #211 ) ;
#40 = DIRECTION ( 'NONE',  ( -1.000000000000000000, 0.000000000000000000, 0.000000000000000000 ) ) ;
#41 = CARTESIAN_POINT ( 'NONE',  ( 0.000000000000000000, 0.000000000000000000, 157.0000000000000000 ) ) ;
#42 = ORIENTED_EDGE ( 'NONE', *, *, #22, .F. ) ;
#43 = CARTESIAN_POINT ( 'NONE',  ( -8.699999999999999289, 1.065442715258197248E-15, 7.700000000000012612 ) ) ;
#44 = TOROIDAL_SURFACE ( 'NONE', #86, 8.699999999999999289, 0.6999999999999999556 ) ;
#45 = CYLINDRICAL_SURFACE ( 'NONE', #131, 6.000000000000000888 ) ;
#46 = DIRECTION ( 'NONE',  ( -0.000000000000000000, -0.000000000000000000, -1.000000000000000000 ) ) ;
#47 = EDGE_LOOP ( 'NONE', ( #105, #136 ) ) ;
#48 = EDGE_CURVE ( 'NONE', #321, #141, #168, .T. ) ;
#49 = COORDINATED_UNIVERSAL_TIME_OFFSET ( 1, 0, .AHEAD. ) ;
#50 = DIRECTION ( 'NONE',  ( 0.000000000000000000, 0.000000000000000000, -1.000000000000000000 ) ) ;
#51 = APPROVAL_ROLE ( '' ) ;
#52 = CC_DESIGN_PERSON_AND_ORGANIZATION_ASSIGNMENT ( #280, #20, ( #203 ) ) ;
#53 = MECHANICAL_CONTEXT ( 'NONE', #229, 'mechanical' ) ;
#54 = CIRCLE ( 'NONE', #142, 0.7000000000000000666 ) ;
#55 = PRODUCT_DEFINITION_FORMATION_WITH_SPECIFIED_SOURCE ( 'LIBOVOLNÝ', '', #290, .NOT_KNOWN. ) ;
#56 = DIRECTION ( 'NONE',  ( 0.000000000000000000, 0.000000000000000000, 1.000000000000000000 ) ) ;
#57 = DIRECTION ( 'NONE',  ( 1.000000000000000000, 0.000000000000000000, -0.000000000000000000 ) ) ;
#58 = CARTESIAN_POINT ( 'NONE',  ( 8.000000000000000000, 9.797174393178825657E-16, 7.700000000000012612 ) ) ;
#59 = MANIFOLD_SOLID_BREP ( 'Odebrat vysunutím3', #155 ) ;
#60 = DIRECTION ( 'NONE',  ( -0.000000000000000000, -0.000000000000000000, -1.000000000000000000 ) ) ;
#61 = AXIS2_PLACEMENT_3D ( 'NONE', #269, #3, #325 ) ;
#62 = LOCAL_TIME ( 10, 59, 56.00000000000000000, #169 ) ;
#63 = SHAPE_DEFINITION_REPRESENTATION ( #83, #306 ) ;
#64 = CARTESIAN_POINT ( 'NONE',  ( 0.000000000000000000, 0.000000000000000000, 0.000000000000000000 ) ) ;
#65 = EDGE_CURVE ( 'NONE', #141, #158, #223, .T. ) ;
#66 = CARTESIAN_POINT ( 'NONE',  ( -8.699999999999999289, 1.065442715258197248E-15, 7.000000000000006217 ) ) ;
#67 = PRODUCT_RELATED_PRODUCT_CATEGORY ( 'detail', '', ( #290 ) ) ;
#68 = DIRECTION ( 'NONE',  ( 0.000000000000000000, 0.000000000000000000, -1.000000000000000000 ) ) ;
#69 = ADVANCED_FACE ( 'NONE', ( #295, #356 ), #230, .F. ) ;
#70 = EDGE_LOOP ( 'NONE', ( #288, #210, #320, #164 ) ) ;
#71 = AXIS2_PLACEMENT_3D ( 'NONE', #209, #183, #161 ) ;
#72 = DIRECTION ( 'NONE',  ( 1.000000000000000000, 0.000000000000000000, 0.000000000000000000 ) ) ;
#73 = ORIENTED_EDGE ( 'NONE', *, *, #318, .T. ) ;
#74 = FACE_OUTER_BOUND ( 'NONE', #216, .T. ) ;
#75 = ORIENTED_EDGE ( 'NONE', *, *, #372, .T. ) ;
#76 = DIRECTION ( 'NONE',  ( 0.000000000000000000, 0.000000000000000000, -1.000000000000000000 ) ) ;
#77 = EDGE_LOOP ( 'NONE', ( #340, #375 ) ) ;
#78 = CIRCLE ( 'NONE', #341, 11.00000000000000000 ) ;
#79 = CYLINDRICAL_SURFACE ( 'NONE', #33, 8.000000000000000000 ) ;
#80 = EDGE_CURVE ( 'NONE', #331, #18, #180, .T. ) ;
#81 = EDGE_LOOP ( 'NONE', ( #110, #181 ) ) ;
#82 = DIRECTION ( 'NONE',  ( 1.000000000000000000, 0.000000000000000000, 0.000000000000000000 ) ) ;
#83 = PRODUCT_DEFINITION_SHAPE ( 'NONE', 'NONE',  #203 ) ;
#84 = ORIENTED_EDGE ( 'NONE', *, *, #314, .T. ) ;
#85 = VERTEX_POINT ( 'NONE', #154 ) ;
#86 = AXIS2_PLACEMENT_3D ( 'NONE', #123, #355, #92 ) ;
#87 = DIRECTION ( 'NONE',  ( -0.000000000000000000, -0.000000000000000000, -1.000000000000000000 ) ) ;
#88 = ORIENTED_EDGE ( 'NONE', *, *, #162, .T. ) ;
#89 = APPROVAL_DATE_TIME ( #353, #268 ) ;
#90 = VERTEX_POINT ( 'NONE', #207 ) ;
#91 = CIRCLE ( 'NONE', #200, 8.699999999999999289 ) ;
#92 = DIRECTION ( 'NONE',  ( 1.000000000000000000, 0.000000000000000000, 0.000000000000000000 ) ) ;
#93 = CC_DESIGN_PERSON_AND_ORGANIZATION_ASSIGNMENT ( #197, #173, ( #55 ) ) ;
#94 = CC_DESIGN_PERSON_AND_ORGANIZATION_ASSIGNMENT ( #118, #252, ( #290 ) ) ;
#95 = CARTESIAN_POINT ( 'NONE',  ( -11.00000000000000000, 0.000000000000000000, 0.000000000000000000 ) ) ;
#96 = ADVANCED_FACE ( 'NONE', ( #357 ), #359, .T. ) ;
#97 = FACE_OUTER_BOUND ( 'NONE', #371, .T. ) ;
#98 = CARTESIAN_POINT ( 'NONE',  ( 0.000000000000000000, 0.000000000000000000, 7.000000000000000000 ) ) ;
#99 = ORIENTED_EDGE ( 'NONE', *, *, #226, .F. ) ;
#100 = PERSON_AND_ORGANIZATION ( #286, #27 ) ;
#101 = CC_DESIGN_DATE_AND_TIME_ASSIGNMENT ( #114, #227, ( #203 ) ) ;
#102 = PLANE ( 'NONE',  #39 ) ;
#103 = CARTESIAN_POINT ( 'NONE',  ( 0.000000000000000000, 0.000000000000000000, 0.000000000000000000 ) ) ;
#104 = DIRECTION ( 'NONE',  ( 1.000000000000000000, 0.000000000000000000, 0.000000000000000000 ) ) ;
#105 = ORIENTED_EDGE ( 'NONE', *, *, #218, .F. ) ;
#106 = FACE_BOUND ( 'NONE', #81, .T. ) ;
#107 = FACE_OUTER_BOUND ( 'NONE', #345, .T. ) ;
#108 = APPROVAL_PERSON_ORGANIZATION ( #348, #187, #196 ) ;
#109 = DIRECTION ( 'NONE',  ( 1.000000000000000000, 0.000000000000000000, 0.000000000000000000 ) ) ;
#110 = ORIENTED_EDGE ( 'NONE', *, *, #305, .F. ) ;
#111 = VERTEX_POINT ( 'NONE', #95 ) ;
#112 = AXIS2_PLACEMENT_3D ( 'NONE', #140, #56, #292 ) ;
#113 = LOCAL_TIME ( 10, 59, 56.00000000000000000, #152 ) ;
#114 = DATE_AND_TIME ( #377, #62 ) ;
#115 = APPROVAL_PERSON_ORGANIZATION ( #225, #268, #51 ) ;
#116 = ORIENTED_EDGE ( 'NONE', *, *, #1, .F. ) ;
#117 = EDGE_CURVE ( 'NONE', #166, #310, #91, .T. ) ;
#118 = PERSON_AND_ORGANIZATION ( #286, #27 ) ;
#119 = DATE_TIME_ROLE ( 'classification_date' ) ;
#120 = DESIGN_CONTEXT ( 'detailed design', #281, 'design' ) ;
#121 = CC_DESIGN_SECURITY_CLASSIFICATION ( #317, ( #55 ) ) ;
#122 = DIRECTION ( 'NONE',  ( 1.000000000000000000, 0.000000000000000000, 0.000000000000000000 ) ) ;
#123 = CARTESIAN_POINT ( 'NONE',  ( 0.000000000000000000, 0.000000000000000000, 7.700000000000012612 ) ) ;
#124 = CARTESIAN_POINT ( 'NONE',  ( -8.000000000000000000, 0.000000000000000000, 7.700000000000012612 ) ) ;
#125 = AXIS2_PLACEMENT_3D ( 'NONE', #362, #332, #149 ) ;
#126 = CIRCLE ( 'NONE', #378, 8.699999999999999289 ) ;
#127 = EDGE_CURVE ( 'NONE', #85, #170, #202, .T. ) ;
#128 = CARTESIAN_POINT ( 'NONE',  ( 8.699999999999999289, 0.000000000000000000, 7.000000000000006217 ) ) ;
#129 = DIRECTION ( 'NONE',  ( 0.000000000000000000, 0.000000000000000000, 1.000000000000000000 ) ) ;
#130 = FACE_OUTER_BOUND ( 'NONE', #279, .T. ) ;
#131 = AXIS2_PLACEMENT_3D ( 'NONE', #163, #76, #214 ) ;
#132 = DIRECTION ( 'NONE',  ( 0.000000000000000000, 0.000000000000000000, 1.000000000000000000 ) ) ;
#133 = ORIENTED_EDGE ( 'NONE', *, *, #150, .T. ) ;
#134 = EDGE_CURVE ( 'NONE', #90, #111, #324, .T. ) ;
#135 = CARTESIAN_POINT ( 'NONE',  ( 8.000000000000000000, 9.797174393178825657E-16, 157.0000000000000000 ) ) ;
#136 = ORIENTED_EDGE ( 'NONE', *, *, #80, .F. ) ;
#137 =( LENGTH_UNIT ( ) NAMED_UNIT ( * ) SI_UNIT ( .MILLI., .METRE. ) );
#138 = CIRCLE ( 'NONE', #291, 11.00000000000000000 ) ;
#139 = DATE_AND_TIME ( #249, #224 ) ;
#140 = CARTESIAN_POINT ( 'NONE',  ( 0.000000000000000000, 0.000000000000000000, 157.0000000000000000 ) ) ;
#141 = VERTEX_POINT ( 'NONE', #124 ) ;
#142 = AXIS2_PLACEMENT_3D ( 'NONE', #35, #204, #206 ) ;
#143 =( NAMED_UNIT ( * ) PLANE_ANGLE_UNIT ( ) SI_UNIT ( $, .RADIAN. ) );
#144 = ORIENTED_EDGE ( 'NONE', *, *, #189, .T. ) ;
#145 = LINE ( 'NONE', #316, #326 ) ;
#146 = DIRECTION ( 'NONE',  ( -0.000000000000000000, -0.000000000000000000, -1.000000000000000000 ) ) ;
#147 = DATE_AND_TIME ( #257, #373 ) ;
#148 = CIRCLE ( 'NONE', #289, 8.000000000000000000 ) ;
#149 = DIRECTION ( 'NONE',  ( -1.000000000000000000, 0.000000000000000000, 0.000000000000000000 ) ) ;
#150 = EDGE_CURVE ( 'NONE', #158, #310, #54, .T. ) ;
#151 = ORIENTED_EDGE ( 'NONE', *, *, #308, .T. ) ;
#152 = COORDINATED_UNIVERSAL_TIME_OFFSET ( 1, 0, .AHEAD. ) ;
#153 = CARTESIAN_POINT ( 'NONE',  ( 0.000000000000000000, 0.000000000000000000, 7.700000000000012612 ) ) ;
#154 = CARTESIAN_POINT ( 'NONE',  ( 11.00000000000000000, 1.347111479062088405E-15, 7.000000000000000000 ) ) ;
#155 = CLOSED_SHELL ( 'NONE', ( #351, #376, #347, #172, #96, #221, #69, #285, #334, #198, #264 ) ) ;
#156 = CIRCLE ( 'NONE', #71, 6.000000000000000888 ) ;
#157 = CARTESIAN_POINT ( 'NONE',  ( 0.000000000000000000, 0.000000000000000000, 157.0000000000000000 ) ) ;
#158 = VERTEX_POINT ( 'NONE', #58 ) ;
#159 = DIRECTION ( 'NONE',  ( 1.000000000000000000, 0.000000000000000000, 0.000000000000000000 ) ) ;
#160 = FACE_OUTER_BOUND ( 'NONE', #358, .T. ) ;
#161 = DIRECTION ( 'NONE',  ( 1.000000000000000000, 0.000000000000000000, 0.000000000000000000 ) ) ;
#162 = EDGE_CURVE ( 'NONE', #158, #141, #360, .T. ) ;
#163 = CARTESIAN_POINT ( 'NONE',  ( 0.000000000000000000, 0.000000000000000000, 157.0000000000000000 ) ) ;
#164 = ORIENTED_EDGE ( 'NONE', *, *, #205, .T. ) ;
#165 = APPROVAL_DATE_TIME ( #139, #187 ) ;
#166 = VERTEX_POINT ( 'NONE', #66 ) ;
#167 = AXIS2_PLACEMENT_3D ( 'NONE', #255, #23, #82 ) ;
#168 = LINE ( 'NONE', #284, #266 ) ;
#169 = COORDINATED_UNIVERSAL_TIME_OFFSET ( 1, 0, .AHEAD. ) ;
#170 = VERTEX_POINT ( 'NONE', #31 ) ;
#171 = COORDINATED_UNIVERSAL_TIME_OFFSET ( 1, 0, .AHEAD. ) ;
#172 = ADVANCED_FACE ( 'NONE', ( #97 ), #263, .T. ) ;
#173 = PERSON_AND_ORGANIZATION_ROLE ( 'creator' ) ;
#174 = DIRECTION ( 'NONE',  ( 0.000000000000000000, 0.000000000000000000, 1.000000000000000000 ) ) ;
#175 = CIRCLE ( 'NONE', #350, 11.00000000000000000 ) ;
#176 = CARTESIAN_POINT ( 'NONE',  ( -11.00000000000000000, 0.000000000000000000, 7.000000000000000000 ) ) ;
#177 = DIRECTION ( 'NONE',  ( 1.000000000000000000, 0.000000000000000000, 0.000000000000000000 ) ) ;
#178 = DIRECTION ( 'NONE',  ( 1.000000000000000000, 0.000000000000000000, 0.000000000000000000 ) ) ;
#179 = CARTESIAN_POINT ( 'NONE',  ( -6.000000000000000888, 0.000000000000000000, 157.0000000000000000 ) ) ;
#180 = CIRCLE ( 'NONE', #32, 6.000000000000000888 ) ;
#181 = ORIENTED_EDGE ( 'NONE', *, *, #308, .F. ) ;
#182 = CARTESIAN_POINT ( 'NONE',  ( 0.000000000000000000, 0.000000000000000000, 157.0000000000000000 ) ) ;
#183 = DIRECTION ( 'NONE',  ( 0.000000000000000000, 0.000000000000000000, 1.000000000000000000 ) ) ;
#184 = ORIENTED_EDGE ( 'NONE', *, *, #65, .F. ) ;
#185 = DIRECTION ( 'NONE',  ( -0.000000000000000000, -0.000000000000000000, -1.000000000000000000 ) ) ;
#186 = AXIS2_PLACEMENT_3D ( 'NONE', #157, #68, #40 ) ;
#187 = APPROVAL ( #192, 'NEURÈENÝ' ) ;
#188 = DIRECTION ( 'NONE',  ( -1.000000000000000000, 0.000000000000000000, 0.000000000000000000 ) ) ;
#189 = EDGE_CURVE ( 'NONE', #85, #90, #78, .T. ) ;
#190 = ORIENTED_EDGE ( 'NONE', *, *, #162, .F. ) ;
#191 = APPLICATION_PROTOCOL_DEFINITION ( 'international standard', 'config_control_design', 1994, #229 ) ;
#192 = APPROVAL_STATUS ( 'not_yet_approved' ) ;
#193 = ORIENTED_EDGE ( 'NONE', *, *, #65, .T. ) ;
#194 = AXIS2_PLACEMENT_3D ( 'NONE', #64, #233, #57 ) ;
#195 = CIRCLE ( 'NONE', #275, 0.6999999999999992895 ) ;
#196 = APPROVAL_ROLE ( '' ) ;
#197 = PERSON_AND_ORGANIZATION ( #286, #27 ) ;
#198 = ADVANCED_FACE ( 'NONE', ( #301 ), #44, .F. ) ;
#199 = CARTESIAN_POINT ( 'NONE',  ( 0.000000000000000000, 0.000000000000000000, 157.0000000000000000 ) ) ;
#200 = AXIS2_PLACEMENT_3D ( 'NONE', #98, #60, #36 ) ;
#201 = DIRECTION ( 'NONE',  ( 0.000000000000000000, 0.000000000000000000, 1.000000000000000000 ) ) ;
#202 = LINE ( 'NONE', #7, #38 ) ;
#203 = PRODUCT_DEFINITION ( 'NEZNÁMÝ', '', #55, #120 ) ;
#204 = DIRECTION ( 'NONE',  ( 0.000000000000000000, -1.000000000000000000, 0.000000000000000000 ) ) ;
#205 = EDGE_CURVE ( 'NONE', #111, #170, #138, .T. ) ;
#206 = DIRECTION ( 'NONE',  ( 0.000000000000000000, 0.000000000000000000, -1.000000000000000000 ) ) ;
#207 = CARTESIAN_POINT ( 'NONE',  ( -11.00000000000000000, 0.000000000000000000, 7.000000000000000000 ) ) ;
#208 = DIRECTION ( 'NONE',  ( 1.000000000000000000, 0.000000000000000000, 0.000000000000000000 ) ) ;
#209 = CARTESIAN_POINT ( 'NONE',  ( 0.000000000000000000, 0.000000000000000000, 157.0000000000000000 ) ) ;
#210 = ORIENTED_EDGE ( 'NONE', *, *, #314, .F. ) ;
#211 = DIRECTION ( 'NONE',  ( 1.000000000000000000, 0.000000000000000000, -0.000000000000000000 ) ) ;
#212 = ORIENTED_EDGE ( 'NONE', *, *, #1, .T. ) ;
#213 = CC_DESIGN_PERSON_AND_ORGANIZATION_ASSIGNMENT ( #17, #246, ( #55 ) ) ;
#214 = DIRECTION ( 'NONE',  ( -1.000000000000000000, 0.000000000000000000, 0.000000000000000000 ) ) ;
#215 = FACE_BOUND ( 'NONE', #219, .T. ) ;
#216 = EDGE_LOOP ( 'NONE', ( #25, #151, #212, #365 ) ) ;
#217 = AXIS2_PLACEMENT_3D ( 'NONE', #370, #185, #188 ) ;
#218 = EDGE_CURVE ( 'NONE', #18, #331, #299, .T. ) ;
#219 = EDGE_LOOP ( 'NONE', ( #75, #354 ) ) ;
#220 = DIRECTION ( 'NONE',  ( -0.000000000000000000, -0.000000000000000000, -1.000000000000000000 ) ) ;
#221 = ADVANCED_FACE ( 'NONE', ( #215, #160 ), #102, .T. ) ;
#222 = APPLICATION_PROTOCOL_DEFINITION ( 'international standard', 'config_control_design', 1994, #281 ) ;
#223 = CIRCLE ( 'NONE', #247, 8.000000000000000000 ) ;
#224 = LOCAL_TIME ( 10, 59, 56.00000000000000000, #49 ) ;
#225 = PERSON_AND_ORGANIZATION ( #286, #27 ) ;
#226 = EDGE_CURVE ( 'NONE', #141, #166, #195, .T. ) ;
#227 = DATE_TIME_ROLE ( 'creation_date' ) ;
#228 = LINE ( 'NONE', #258, #298 ) ;
#229 = APPLICATION_CONTEXT ( 'configuration controlled 3d designs of mechanical parts and assemblies' ) ;
#230 = PLANE ( 'NONE',  #194 ) ;
#231 = CIRCLE ( 'NONE', #254, 11.00000000000000000 ) ;
#232 = DIRECTION ( 'NONE',  ( 1.000000000000000000, 0.000000000000000000, 0.000000000000000000 ) ) ;
#233 = DIRECTION ( 'NONE',  ( 0.000000000000000000, 0.000000000000000000, 1.000000000000000000 ) ) ;
#234 = DIRECTION ( 'NONE',  ( 1.000000000000000000, 0.000000000000000000, 0.000000000000000000 ) ) ;
#235 = CARTESIAN_POINT ( 'NONE',  ( 0.000000000000000000, 0.000000000000000000, 7.700000000000012612 ) ) ;
#236 = CC_DESIGN_PERSON_AND_ORGANIZATION_ASSIGNMENT ( #100, #262, ( #317 ) ) ;
#237 = DIRECTION ( 'NONE',  ( 0.000000000000000000, 0.000000000000000000, 1.000000000000000000 ) ) ;
#238 = EDGE_LOOP ( 'NONE', ( #99, #190, #133, #256 ) ) ;
#239 = CARTESIAN_POINT ( 'NONE',  ( -8.000000000000000000, 0.000000000000000000, 157.0000000000000000 ) ) ;
#240 = AXIS2_PLACEMENT_3D ( 'NONE', #13, #132, #339 ) ;
#241 = EDGE_LOOP ( 'NONE', ( #42, #243, #88, #245 ) ) ;
#242 = DIRECTION ( 'NONE',  ( 1.224646799147353207E-16, 1.000000000000000000, -0.000000000000000000 ) ) ;
#243 = ORIENTED_EDGE ( 'NONE', *, *, #28, .T. ) ;
#244 = CARTESIAN_POINT ( 'NONE',  ( 0.000000000000000000, 0.000000000000000000, 7.000000000000000000 ) ) ;
#245 = ORIENTED_EDGE ( 'NONE', *, *, #48, .F. ) ;
#246 = PERSON_AND_ORGANIZATION_ROLE ( 'design_supplier' ) ;
#247 = AXIS2_PLACEMENT_3D ( 'NONE', #259, #6, #122 ) ;
#248 = LOCAL_TIME ( 10, 59, 56.00000000000000000, #171 ) ;
#249 = CALENDAR_DATE ( 2022, 10, 7 ) ;
#250 =( NAMED_UNIT ( * ) SI_UNIT ( $, .STERADIAN. ) SOLID_ANGLE_UNIT ( ) );
#251 = CARTESIAN_POINT ( 'NONE',  ( -6.000000000000000888, 0.000000000000000000, 0.000000000000000000 ) ) ;
#252 = PERSON_AND_ORGANIZATION_ROLE ( 'design_owner' ) ;
#253 = ORIENTED_EDGE ( 'NONE', *, *, #37, .T. ) ;
#254 = AXIS2_PLACEMENT_3D ( 'NONE', #364, #336, #274 ) ;
#255 = CARTESIAN_POINT ( 'NONE',  ( 0.000000000000000000, 0.000000000000000000, 0.000000000000000000 ) ) ;
#256 = ORIENTED_EDGE ( 'NONE', *, *, #117, .F. ) ;
#257 = CALENDAR_DATE ( 2022, 10, 7 ) ;
#258 = CARTESIAN_POINT ( 'NONE',  ( -6.000000000000000888, 0.000000000000000000, 157.0000000000000000 ) ) ;
#259 = CARTESIAN_POINT ( 'NONE',  ( 0.000000000000000000, 0.000000000000000000, 7.700000000000012612 ) ) ;
#260 = APPROVAL_STATUS ( 'not_yet_approved' ) ;
#261 = CARTESIAN_POINT ( 'NONE',  ( 0.000000000000000000, 0.000000000000000000, 7.000000000000000000 ) ) ;
#262 = PERSON_AND_ORGANIZATION_ROLE ( 'classification_officer' ) ;
#263 = CYLINDRICAL_SURFACE ( 'NONE', #125, 11.00000000000000000 ) ;
#264 = ADVANCED_FACE ( 'NONE', ( #74 ), #45, .F. ) ;
#265 = CC_DESIGN_DATE_AND_TIME_ASSIGNMENT ( #147, #119, ( #317 ) ) ;
#266 = VECTOR ( 'NONE', #87, 1000.000000000000000 ) ;
#267 = APPROVAL_PERSON_ORGANIZATION ( #329, #330, #34 ) ;
#268 = APPROVAL ( #319, 'NEURÈENÝ' ) ;
#269 = CARTESIAN_POINT ( 'NONE',  ( 0.000000000000000000, 0.000000000000000000, 7.000000000000000000 ) ) ;
#270 = CARTESIAN_POINT ( 'NONE',  ( 6.000000000000000888, 7.347880794884120722E-16, 0.000000000000000000 ) ) ;
#271 = ORIENTED_EDGE ( 'NONE', *, *, #80, .T. ) ;
#272 = CARTESIAN_POINT ( 'NONE',  ( 0.000000000000000000, 0.000000000000000000, 0.000000000000000000 ) ) ;
#273 = ORIENTED_EDGE ( 'NONE', *, *, #134, .F. ) ;
#274 = DIRECTION ( 'NONE',  ( 1.000000000000000000, 0.000000000000000000, 0.000000000000000000 ) ) ;
#275 = AXIS2_PLACEMENT_3D ( 'NONE', #43, #242, #337 ) ;
#276 = FACE_OUTER_BOUND ( 'NONE', #277, .T. ) ;
#277 = EDGE_LOOP ( 'NONE', ( #307, #253, #271, #116 ) ) ;
#278 = DIRECTION ( 'NONE',  ( -0.000000000000000000, -0.000000000000000000, -1.000000000000000000 ) ) ;
#279 = EDGE_LOOP ( 'NONE', ( #12, #344, #16, #193 ) ) ;
#280 = PERSON_AND_ORGANIZATION ( #286, #27 ) ;
#281 = APPLICATION_CONTEXT ( 'configuration controlled 3d designs of mechanical parts and assemblies' ) ;
#282 = DIRECTION ( 'NONE',  ( 0.000000000000000000, 0.000000000000000000, 1.000000000000000000 ) ) ;
#283 =( GEOMETRIC_REPRESENTATION_CONTEXT ( 3 ) GLOBAL_UNCERTAINTY_ASSIGNED_CONTEXT ( ( #294 ) ) GLOBAL_UNIT_ASSIGNED_CONTEXT ( ( #137, #143, #250 ) ) REPRESENTATION_CONTEXT ( 'NONE', 'WORKASPACE' ) );
#284 = CARTESIAN_POINT ( 'NONE',  ( -8.000000000000000000, 0.000000000000000000, 157.0000000000000000 ) ) ;
#285 = ADVANCED_FACE ( 'NONE', ( #130 ), #79, .T. ) ;
#286 = PERSON ( 'NEURÈENÝ', 'NEURÈENÝ', 'NEURÈENÝ', ('NEURÈENÝ'), ('NEURÈENÝ'), ('NEURÈENÝ') ) ;
#287 = CALENDAR_DATE ( 2022, 10, 7 ) ;
#288 = ORIENTED_EDGE ( 'NONE', *, *, #127, .F. ) ;
#289 = AXIS2_PLACEMENT_3D ( 'NONE', #199, #282, #21 ) ;
#290 = PRODUCT ( '9ccc', '9ccc', '', ( #53 ) ) ;
#291 = AXIS2_PLACEMENT_3D ( 'NONE', #10, #323, #232 ) ;
#292 = DIRECTION ( 'NONE',  ( 1.000000000000000000, 0.000000000000000000, 0.000000000000000000 ) ) ;
#293 = COORDINATED_UNIVERSAL_TIME_OFFSET ( 1, 0, .AHEAD. ) ;
#294 = UNCERTAINTY_MEASURE_WITH_UNIT (LENGTH_MEASURE( 1.000000000000000082E-05 ), #137, 'distance_accuracy_value', 'NONE');
#295 = FACE_BOUND ( 'NONE', #47, .T. ) ;
#296 = SECURITY_CLASSIFICATION_LEVEL ( 'unclassified' ) ;
#297 = DIRECTION ( 'NONE',  ( -0.000000000000000000, -0.000000000000000000, -1.000000000000000000 ) ) ;
#298 = VECTOR ( 'NONE', #380, 1000.000000000000000 ) ;
#299 = CIRCLE ( 'NONE', #335, 6.000000000000000888 ) ;
#300 = ORIENTED_EDGE ( 'NONE', *, *, #22, .T. ) ;
#301 = FACE_OUTER_BOUND ( 'NONE', #238, .T. ) ;
#302 = AXIS2_PLACEMENT_3D ( 'NONE', #235, #129, #109 ) ;
#303 = PLANE ( 'NONE',  #240 ) ;
#304 = DIRECTION ( 'NONE',  ( 0.000000000000000000, 0.000000000000000000, 1.000000000000000000 ) ) ;
#305 = EDGE_CURVE ( 'NONE', #379, #346, #361, .T. ) ;
#306 = ADVANCED_BREP_SHAPE_REPRESENTATION ( '9ccc', ( #59, #167 ), #283 ) ;
#307 = ORIENTED_EDGE ( 'NONE', *, *, #305, .T. ) ;
#308 = EDGE_CURVE ( 'NONE', #346, #379, #156, .T. ) ;
#309 = FACE_OUTER_BOUND ( 'NONE', #349, .T. ) ;
#310 = VERTEX_POINT ( 'NONE', #128 ) ;
#311 = VECTOR ( 'NONE', #5, 1000.000000000000000 ) ;
#312 = CYLINDRICAL_SURFACE ( 'NONE', #217, 8.000000000000000000 ) ;
#313 = ORIENTED_EDGE ( 'NONE', *, *, #127, .T. ) ;
#314 = EDGE_CURVE ( 'NONE', #90, #85, #231, .T. ) ;
#315 = ORIENTED_EDGE ( 'NONE', *, *, #372, .F. ) ;
#316 = CARTESIAN_POINT ( 'NONE',  ( 6.000000000000000888, 7.347880794884120722E-16, 157.0000000000000000 ) ) ;
#317 = SECURITY_CLASSIFICATION ( '', '', #296 ) ;
#318 = EDGE_CURVE ( 'NONE', #170, #111, #175, .T. ) ;
#319 = APPROVAL_STATUS ( 'not_yet_approved' ) ;
#320 = ORIENTED_EDGE ( 'NONE', *, *, #134, .T. ) ;
#321 = VERTEX_POINT ( 'NONE', #239 ) ;
#322 = AXIS2_PLACEMENT_3D ( 'NONE', #182, #237, #159 ) ;
#323 = DIRECTION ( 'NONE',  ( 0.000000000000000000, 0.000000000000000000, 1.000000000000000000 ) ) ;
#324 = LINE ( 'NONE', #176, #311 ) ;
#325 = DIRECTION ( 'NONE',  ( -1.000000000000000000, 0.000000000000000000, 0.000000000000000000 ) ) ;
#326 = VECTOR ( 'NONE', #50, 1000.000000000000000 ) ;
#327 = CC_DESIGN_APPROVAL ( #330, ( #317 ) ) ;
#328 = CC_DESIGN_APPROVAL ( #268, ( #55 ) ) ;
#329 = PERSON_AND_ORGANIZATION ( #286, #27 ) ;
#330 = APPROVAL ( #260, 'NEURÈENÝ' ) ;
#331 = VERTEX_POINT ( 'NONE', #270 ) ;
#332 = DIRECTION ( 'NONE',  ( -0.000000000000000000, -0.000000000000000000, -1.000000000000000000 ) ) ;
#333 = CARTESIAN_POINT ( 'NONE',  ( 0.000000000000000000, 0.000000000000000000, 7.000000000000000000 ) ) ;
#334 = ADVANCED_FACE ( 'NONE', ( #106, #309 ), #303, .T. ) ;
#335 = AXIS2_PLACEMENT_3D ( 'NONE', #103, #46, #208 ) ;
#336 = DIRECTION ( 'NONE',  ( 0.000000000000000000, 0.000000000000000000, 1.000000000000000000 ) ) ;
#337 = DIRECTION ( 'NONE',  ( -1.000000000000000000, 1.224646799147353207E-16, 0.000000000000000000 ) ) ;
#338 = ORIENTED_EDGE ( 'NONE', *, *, #189, .F. ) ;
#339 = DIRECTION ( 'NONE',  ( 1.000000000000000000, 0.000000000000000000, -0.000000000000000000 ) ) ;
#340 = ORIENTED_EDGE ( 'NONE', *, *, #205, .F. ) ;
#341 = AXIS2_PLACEMENT_3D ( 'NONE', #261, #201, #178 ) ;
#342 = DIRECTION ( 'NONE',  ( 0.000000000000000000, 0.000000000000000000, 1.000000000000000000 ) ) ;
#343 = TOROIDAL_SURFACE ( 'NONE', #302, 8.699999999999999289, 0.6999999999999999556 ) ;
#344 = ORIENTED_EDGE ( 'NONE', *, *, #19, .F. ) ;
#345 = EDGE_LOOP ( 'NONE', ( #184, #24, #315, #352 ) ) ;
#346 = VERTEX_POINT ( 'NONE', #367 ) ;
#347 = ADVANCED_FACE ( 'NONE', ( #363 ), #312, .T. ) ;
#348 = PERSON_AND_ORGANIZATION ( #286, #27 ) ;
#349 = EDGE_LOOP ( 'NONE', ( #14, #300 ) ) ;
#350 = AXIS2_PLACEMENT_3D ( 'NONE', #272, #342, #72 ) ;
#351 = ADVANCED_FACE ( 'NONE', ( #276 ), #15, .F. ) ;
#352 = ORIENTED_EDGE ( 'NONE', *, *, #150, .F. ) ;
#353 = DATE_AND_TIME ( #287, #248 ) ;
#354 = ORIENTED_EDGE ( 'NONE', *, *, #117, .T. ) ;
#355 = DIRECTION ( 'NONE',  ( 0.000000000000000000, 0.000000000000000000, 1.000000000000000000 ) ) ;
#356 = FACE_OUTER_BOUND ( 'NONE', #77, .T. ) ;
#357 = FACE_OUTER_BOUND ( 'NONE', #70, .T. ) ;
#358 = EDGE_LOOP ( 'NONE', ( #84, #144 ) ) ;
#359 = CYLINDRICAL_SURFACE ( 'NONE', #61, 11.00000000000000000 ) ;
#360 = CIRCLE ( 'NONE', #26, 8.000000000000000000 ) ;
#361 = CIRCLE ( 'NONE', #322, 6.000000000000000888 ) ;
#362 = CARTESIAN_POINT ( 'NONE',  ( 0.000000000000000000, 0.000000000000000000, 7.000000000000000000 ) ) ;
#363 = FACE_OUTER_BOUND ( 'NONE', #241, .T. ) ;
#364 = CARTESIAN_POINT ( 'NONE',  ( 0.000000000000000000, 0.000000000000000000, 7.000000000000000000 ) ) ;
#365 = ORIENTED_EDGE ( 'NONE', *, *, #218, .T. ) ;
#366 = VECTOR ( 'NONE', #220, 1000.000000000000000 ) ;
#367 = CARTESIAN_POINT ( 'NONE',  ( 6.000000000000000888, 7.347880794884120722E-16, 157.0000000000000000 ) ) ;
#368 = VERTEX_POINT ( 'NONE', #135 ) ;
#369 = DIRECTION ( 'NONE',  ( -1.000000000000000000, 0.000000000000000000, 0.000000000000000000 ) ) ;
#370 = CARTESIAN_POINT ( 'NONE',  ( 0.000000000000000000, 0.000000000000000000, 157.0000000000000000 ) ) ;
#371 = EDGE_LOOP ( 'NONE', ( #338, #313, #73, #273 ) ) ;
#372 = EDGE_CURVE ( 'NONE', #310, #166, #126, .T. ) ;
#373 = LOCAL_TIME ( 10, 59, 56.00000000000000000, #293 ) ;
#374 = CARTESIAN_POINT ( 'NONE',  ( 8.000000000000000000, 9.797174393178825657E-16, 157.0000000000000000 ) ) ;
#375 = ORIENTED_EDGE ( 'NONE', *, *, #318, .F. ) ;
#376 = ADVANCED_FACE ( 'NONE', ( #107 ), #343, .F. ) ;
#377 = CALENDAR_DATE ( 2022, 10, 7 ) ;
#378 = AXIS2_PLACEMENT_3D ( 'NONE', #244, #11, #104 ) ;
#379 = VERTEX_POINT ( 'NONE', #179 ) ;
#380 = DIRECTION ( 'NONE',  ( 0.000000000000000000, 0.000000000000000000, -1.000000000000000000 ) ) ;
#381 = DATE_AND_TIME ( #4, #113 ) ;
ENDSEC;
END-ISO-10303-21;
