ISO-10303-21;
HEADER;
FILE_DESCRIPTION (( 'STEP AP203' ),
    '1' );
FILE_NAME ('7014.STEP',
    '2022-07-10T09:01:40',
    ( '' ),
    ( '' ),
    'SwSTEP 2.0',
    'SolidWorks 2019',
    '' );
FILE_SCHEMA (( 'CONFIG_CONTROL_DESIGN' ));
ENDSEC;

DATA;
#1 = CARTESIAN_POINT ( 'NONE',  ( 0.000000000000000000, 0.000000000000000000, 82.00000000000000000 ) ) ;
#2 = PRODUCT_DEFINITION ( 'NEZNÁMÝ', '', #62, #244 ) ;
#3 = AXIS2_PLACEMENT_3D ( 'NONE', #207, #330, #71 ) ;
#4 = LINE ( 'NONE', #241, #203 ) ;
#5 = AXIS2_PLACEMENT_3D ( 'NONE', #32, #100, #210 ) ;
#6 = CARTESIAN_POINT ( 'NONE',  ( 0.000000000000000000, 0.000000000000000000, 7.000000000000000000 ) ) ;
#7 = UNCERTAINTY_MEASURE_WITH_UNIT (LENGTH_MEASURE( 1.000000000000000082E-05 ), #83, 'distance_accuracy_value', 'NONE');
#8 = EDGE_CURVE ( 'NONE', #305, #239, #282, .T. ) ;
#9 = COORDINATED_UNIVERSAL_TIME_OFFSET ( 1, 0, .AHEAD. ) ;
#10 = DIRECTION ( 'NONE',  ( -0.000000000000000000, -0.000000000000000000, -1.000000000000000000 ) ) ;
#11 = DIRECTION ( 'NONE',  ( 0.000000000000000000, 0.000000000000000000, 1.000000000000000000 ) ) ;
#12 = AXIS2_PLACEMENT_3D ( 'NONE', #174, #197, #201 ) ;
#13 = LINE ( 'NONE', #39, #364 ) ;
#14 = ORIENTED_EDGE ( 'NONE', *, *, #45, .T. ) ;
#15 = DIRECTION ( 'NONE',  ( 0.000000000000000000, 0.000000000000000000, 1.000000000000000000 ) ) ;
#16 = CC_DESIGN_DATE_AND_TIME_ASSIGNMENT ( #231, #345, ( #2 ) ) ;
#17 = VECTOR ( 'NONE', #41, 1000.000000000000000 ) ;
#18 = DIRECTION ( 'NONE',  ( 1.000000000000000000, 0.000000000000000000, 0.000000000000000000 ) ) ;
#19 = LOCAL_TIME ( 11, 1, 40.00000000000000000, #9 ) ;
#20 = VERTEX_POINT ( 'NONE', #346 ) ;
#21 = FACE_OUTER_BOUND ( 'NONE', #134, .T. ) ;
#22 = ORIENTED_EDGE ( 'NONE', *, *, #216, .F. ) ;
#23 = APPROVAL_DATE_TIME ( #373, #182 ) ;
#24 = ORIENTED_EDGE ( 'NONE', *, *, #291, .F. ) ;
#25 = COORDINATED_UNIVERSAL_TIME_OFFSET ( 1, 0, .AHEAD. ) ;
#26 = ORIENTED_EDGE ( 'NONE', *, *, #335, .F. ) ;
#27 = PERSON_AND_ORGANIZATION_ROLE ( 'design_owner' ) ;
#28 = VERTEX_POINT ( 'NONE', #319 ) ;
#29 = PERSON_AND_ORGANIZATION ( #202, #108 ) ;
#30 = APPLICATION_PROTOCOL_DEFINITION ( 'international standard', 'config_control_design', 1994, #206 ) ;
#31 = DIRECTION ( 'NONE',  ( -0.000000000000000000, -0.000000000000000000, -1.000000000000000000 ) ) ;
#32 = CARTESIAN_POINT ( 'NONE',  ( 0.000000000000000000, 0.000000000000000000, 0.000000000000000000 ) ) ;
#33 = DIRECTION ( 'NONE',  ( 0.000000000000000000, 0.000000000000000000, -1.000000000000000000 ) ) ;
#34 = APPROVAL_PERSON_ORGANIZATION ( #209, #368, #97 ) ;
#35 = FACE_OUTER_BOUND ( 'NONE', #281, .T. ) ;
#36 = EDGE_CURVE ( 'NONE', #239, #305, #103, .T. ) ;
#37 = AXIS2_PLACEMENT_3D ( 'NONE', #299, #327, #213 ) ;
#38 = CYLINDRICAL_SURFACE ( 'NONE', #171, 7.000000000000000888 ) ;
#39 = CARTESIAN_POINT ( 'NONE',  ( -11.00000000000000000, 0.000000000000000000, 7.000000000000000000 ) ) ;
#40 = AXIS2_PLACEMENT_3D ( 'NONE', #188, #189, #49 ) ;
#41 = DIRECTION ( 'NONE',  ( 0.000000000000000000, 0.000000000000000000, -1.000000000000000000 ) ) ;
#42 = EDGE_LOOP ( 'NONE', ( #53, #341, #374, #290 ) ) ;
#43 = CIRCLE ( 'NONE', #5, 5.000000000000000000 ) ;
#44 = DIRECTION ( 'NONE',  ( -0.000000000000000000, -0.000000000000000000, -1.000000000000000000 ) ) ;
#45 = EDGE_CURVE ( 'NONE', #54, #195, #119, .T. ) ;
#46 = CARTESIAN_POINT ( 'NONE',  ( 0.000000000000000000, 0.000000000000000000, 7.000000000000000000 ) ) ;
#47 = EDGE_LOOP ( 'NONE', ( #254, #105 ) ) ;
#48 = AXIS2_PLACEMENT_3D ( 'NONE', #135, #77, #18 ) ;
#49 = DIRECTION ( 'NONE',  ( 1.000000000000000000, 0.000000000000000000, 0.000000000000000000 ) ) ;
#50 = ORIENTED_EDGE ( 'NONE', *, *, #291, .T. ) ;
#51 = PERSON_AND_ORGANIZATION_ROLE ( 'creator' ) ;
#52 = DIRECTION ( 'NONE',  ( 1.000000000000000000, 0.000000000000000000, 0.000000000000000000 ) ) ;
#53 = ORIENTED_EDGE ( 'NONE', *, *, #250, .F. ) ;
#54 = VERTEX_POINT ( 'NONE', #297 ) ;
#55 = LOCAL_TIME ( 11, 1, 40.00000000000000000, #25 ) ;
#56 = APPROVAL_ROLE ( '' ) ;
#57 = CARTESIAN_POINT ( 'NONE',  ( 11.00000000000000000, 1.347111479062088405E-15, 7.000000000000000000 ) ) ;
#58 = ORIENTED_EDGE ( 'NONE', *, *, #355, .T. ) ;
#59 = PRODUCT_RELATED_PRODUCT_CATEGORY ( 'detail', '', ( #85 ) ) ;
#60 = ORIENTED_EDGE ( 'NONE', *, *, #161, .F. ) ;
#61 = AXIS2_PLACEMENT_3D ( 'NONE', #86, #196, #315 ) ;
#62 = PRODUCT_DEFINITION_FORMATION_WITH_SPECIFIED_SOURCE ( 'LIBOVOLNÝ', '', #85, .NOT_KNOWN. ) ;
#63 = CYLINDRICAL_SURFACE ( 'NONE', #179, 7.000000000000000888 ) ;
#64 = DIRECTION ( 'NONE',  ( 0.000000000000000000, 0.000000000000000000, 1.000000000000000000 ) ) ;
#65 = CARTESIAN_POINT ( 'NONE',  ( -11.00000000000000000, 0.000000000000000000, 7.000000000000000000 ) ) ;
#66 = CIRCLE ( 'NONE', #3, 7.000000000000000888 ) ;
#67 = APPROVAL_PERSON_ORGANIZATION ( #168, #182, #193 ) ;
#68 = DATE_TIME_ROLE ( 'classification_date' ) ;
#69 = CARTESIAN_POINT ( 'NONE',  ( 0.000000000000000000, 0.000000000000000000, 0.000000000000000000 ) ) ;
#70 = CLOSED_SHELL ( 'NONE', ( #82, #270, #73, #198, #158, #236, #126, #163, #277, #300, #272 ) ) ;
#71 = DIRECTION ( 'NONE',  ( 1.000000000000000000, 0.000000000000000000, 0.000000000000000000 ) ) ;
#72 = DIRECTION ( 'NONE',  ( 0.000000000000000000, -1.000000000000000000, 0.000000000000000000 ) ) ;
#73 = ADVANCED_FACE ( 'NONE', ( #35 ), #63, .T. ) ;
#74 =( GEOMETRIC_REPRESENTATION_CONTEXT ( 3 ) GLOBAL_UNCERTAINTY_ASSIGNED_CONTEXT ( ( #7 ) ) GLOBAL_UNIT_ASSIGNED_CONTEXT ( ( #83, #91, #289 ) ) REPRESENTATION_CONTEXT ( 'NONE', 'WORKASPACE' ) );
#75 = CARTESIAN_POINT ( 'NONE',  ( 0.000000000000000000, 0.000000000000000000, 7.000000000000000000 ) ) ;
#76 = VERTEX_POINT ( 'NONE', #354 ) ;
#77 = DIRECTION ( 'NONE',  ( 0.000000000000000000, 0.000000000000000000, 1.000000000000000000 ) ) ;
#78 = ORIENTED_EDGE ( 'NONE', *, *, #110, .T. ) ;
#79 = DIRECTION ( 'NONE',  ( 1.000000000000000000, 0.000000000000000000, 0.000000000000000000 ) ) ;
#80 = AXIS2_PLACEMENT_3D ( 'NONE', #249, #303, #79 ) ;
#81 = CC_DESIGN_APPROVAL ( #326, ( #62 ) ) ;
#82 = ADVANCED_FACE ( 'NONE', ( #150 ), #298, .F. ) ;
#83 =( LENGTH_UNIT ( ) NAMED_UNIT ( * ) SI_UNIT ( .MILLI., .METRE. ) );
#84 = VERTEX_POINT ( 'NONE', #152 ) ;
#85 = PRODUCT ( '7014', '7014', '', ( #321 ) ) ;
#86 = CARTESIAN_POINT ( 'NONE',  ( 0.000000000000000000, 0.000000000000000000, 7.000000000000000000 ) ) ;
#87 = DIRECTION ( 'NONE',  ( 0.000000000000000000, 0.000000000000000000, 1.000000000000000000 ) ) ;
#88 = EDGE_CURVE ( 'NONE', #305, #20, #125, .T. ) ;
#89 = DIRECTION ( 'NONE',  ( 0.000000000000000000, 0.000000000000000000, 1.000000000000000000 ) ) ;
#90 = LOCAL_TIME ( 11, 1, 40.00000000000000000, #343 ) ;
#91 =( NAMED_UNIT ( * ) PLANE_ANGLE_UNIT ( ) SI_UNIT ( $, .RADIAN. ) );
#92 = EDGE_LOOP ( 'NONE', ( #58, #78 ) ) ;
#93 = DATE_AND_TIME ( #242, #120 ) ;
#94 = DIRECTION ( 'NONE',  ( -0.000000000000000000, -0.000000000000000000, -1.000000000000000000 ) ) ;
#95 = DIRECTION ( 'NONE',  ( 0.000000000000000000, 0.000000000000000000, -1.000000000000000000 ) ) ;
#96 = EDGE_CURVE ( 'NONE', #309, #84, #367, .T. ) ;
#97 = APPROVAL_ROLE ( '' ) ;
#98 = DIRECTION ( 'NONE',  ( -1.000000000000000000, 0.000000000000000000, 0.000000000000000000 ) ) ;
#99 = EDGE_CURVE ( 'NONE', #309, #111, #4, .T. ) ;
#100 = DIRECTION ( 'NONE',  ( -0.000000000000000000, -0.000000000000000000, -1.000000000000000000 ) ) ;
#101 = AXIS2_PLACEMENT_3D ( 'NONE', #240, #94, #324 ) ;
#102 = DIRECTION ( 'NONE',  ( 0.000000000000000000, 0.000000000000000000, 1.000000000000000000 ) ) ;
#103 = CIRCLE ( 'NONE', #12, 5.000000000000000000 ) ;
#104 = DIRECTION ( 'NONE',  ( 0.000000000000000000, 0.000000000000000000, 1.000000000000000000 ) ) ;
#105 = ORIENTED_EDGE ( 'NONE', *, *, #293, .T. ) ;
#106 = FACE_BOUND ( 'NONE', #47, .T. ) ;
#107 = ORIENTED_EDGE ( 'NONE', *, *, #235, .F. ) ;
#108 = ORGANIZATION ( 'NEURÈENÝ', 'NEURÈENÝ', '' ) ;
#109 = CARTESIAN_POINT ( 'NONE',  ( -11.00000000000000000, 0.000000000000000000, 0.000000000000000000 ) ) ;
#110 = EDGE_CURVE ( 'NONE', #54, #139, #230, .T. ) ;
#111 = VERTEX_POINT ( 'NONE', #128 ) ;
#112 = CARTESIAN_POINT ( 'NONE',  ( 7.000000000000000888, 8.572527594031474176E-16, 82.00000000000000000 ) ) ;
#113 = PERSON_AND_ORGANIZATION_ROLE ( 'design_supplier' ) ;
#114 = ORIENTED_EDGE ( 'NONE', *, *, #313, .T. ) ;
#115 = EDGE_CURVE ( 'NONE', #166, #20, #43, .T. ) ;
#116 = DIRECTION ( 'NONE',  ( 1.000000000000000000, 0.000000000000000000, 0.000000000000000000 ) ) ;
#117 = PERSON_AND_ORGANIZATION ( #202, #108 ) ;
#118 = CIRCLE ( 'NONE', #256, 7.700000000000001066 ) ;
#119 = LINE ( 'NONE', #57, #296 ) ;
#120 = LOCAL_TIME ( 11, 1, 40.00000000000000000, #294 ) ;
#121 = DIRECTION ( 'NONE',  ( 0.000000000000000000, 0.000000000000000000, -1.000000000000000000 ) ) ;
#122 = AXIS2_PLACEMENT_3D ( 'NONE', #376, #87, #116 ) ;
#123 = ORIENTED_EDGE ( 'NONE', *, *, #45, .F. ) ;
#124 = DIRECTION ( 'NONE',  ( 1.000000000000000000, 0.000000000000000000, -0.000000000000000000 ) ) ;
#125 = LINE ( 'NONE', #243, #283 ) ;
#126 = ADVANCED_FACE ( 'NONE', ( #149, #267 ), #325, .F. ) ;
#127 = DIRECTION ( 'NONE',  ( 1.000000000000000000, 0.000000000000000000, 0.000000000000000000 ) ) ;
#128 = CARTESIAN_POINT ( 'NONE',  ( 7.000000000000000888, 8.572527594031474176E-16, 7.699999999999998401 ) ) ;
#129 = APPROVAL_STATUS ( 'not_yet_approved' ) ;
#130 = DIRECTION ( 'NONE',  ( 1.000000000000000000, 0.000000000000000000, 0.000000000000000000 ) ) ;
#131 = ORIENTED_EDGE ( 'NONE', *, *, #88, .F. ) ;
#132 = AXIS2_PLACEMENT_3D ( 'NONE', #1, #268, #127 ) ;
#133 = CARTESIAN_POINT ( 'NONE',  ( -5.000000000000000000, 0.000000000000000000, 82.00000000000000000 ) ) ;
#134 = EDGE_LOOP ( 'NONE', ( #162, #380, #22, #26 ) ) ;
#135 = CARTESIAN_POINT ( 'NONE',  ( 0.000000000000000000, 0.000000000000000000, 7.699999999999998401 ) ) ;
#136 = DIRECTION ( 'NONE',  ( 0.000000000000000000, 0.000000000000000000, -1.000000000000000000 ) ) ;
#137 = EDGE_LOOP ( 'NONE', ( #259, #232 ) ) ;
#138 = CALENDAR_DATE ( 2022, 10, 7 ) ;
#139 = VERTEX_POINT ( 'NONE', #65 ) ;
#140 = CALENDAR_DATE ( 2022, 10, 7 ) ;
#141 = ORIENTED_EDGE ( 'NONE', *, *, #314, .F. ) ;
#142 = APPROVAL_STATUS ( 'not_yet_approved' ) ;
#143 = APPLICATION_PROTOCOL_DEFINITION ( 'international standard', 'config_control_design', 1994, #225 ) ;
#144 = ORIENTED_EDGE ( 'NONE', *, *, #147, .F. ) ;
#145 = CIRCLE ( 'NONE', #358, 7.000000000000000888 ) ;
#146 = EDGE_LOOP ( 'NONE', ( #170, #14, #178, #24 ) ) ;
#147 = EDGE_CURVE ( 'NONE', #76, #257, #212, .T. ) ;
#148 = CARTESIAN_POINT ( 'NONE',  ( 0.000000000000000000, 0.000000000000000000, 82.00000000000000000 ) ) ;
#149 = FACE_BOUND ( 'NONE', #137, .T. ) ;
#150 = FACE_OUTER_BOUND ( 'NONE', #262, .T. ) ;
#151 = AXIS2_PLACEMENT_3D ( 'NONE', #278, #104, #187 ) ;
#152 = CARTESIAN_POINT ( 'NONE',  ( -7.000000000000000888, 0.000000000000000000, 82.00000000000000000 ) ) ;
#153 = DIRECTION ( 'NONE',  ( -0.000000000000000000, -0.000000000000000000, -1.000000000000000000 ) ) ;
#154 = FACE_BOUND ( 'NONE', #176, .T. ) ;
#155 = FACE_OUTER_BOUND ( 'NONE', #42, .T. ) ;
#156 = ORIENTED_EDGE ( 'NONE', *, *, #313, .F. ) ;
#157 = FACE_OUTER_BOUND ( 'NONE', #190, .T. ) ;
#158 = ADVANCED_FACE ( 'NONE', ( #180 ), #271, .T. ) ;
#159 = AXIS2_PLACEMENT_3D ( 'NONE', #356, #64, #124 ) ;
#160 = CARTESIAN_POINT ( 'NONE',  ( 5.000000000000000000, 6.123233995736766282E-16, 82.00000000000000000 ) ) ;
#161 = EDGE_CURVE ( 'NONE', #195, #285, #323, .T. ) ;
#162 = ORIENTED_EDGE ( 'NONE', *, *, #181, .F. ) ;
#163 = ADVANCED_FACE ( 'NONE', ( #185 ), #38, .T. ) ;
#164 = AXIS2_PLACEMENT_3D ( 'NONE', #165, #136, #279 ) ;
#165 = CARTESIAN_POINT ( 'NONE',  ( 0.000000000000000000, 0.000000000000000000, 82.00000000000000000 ) ) ;
#166 = VERTEX_POINT ( 'NONE', #215 ) ;
#167 = CC_DESIGN_DATE_AND_TIME_ASSIGNMENT ( #93, #68, ( #184 ) ) ;
#168 = PERSON_AND_ORGANIZATION ( #202, #108 ) ;
#169 = DIRECTION ( 'NONE',  ( 1.000000000000000000, 0.000000000000000000, 0.000000000000000000 ) ) ;
#170 = ORIENTED_EDGE ( 'NONE', *, *, #110, .F. ) ;
#171 = AXIS2_PLACEMENT_3D ( 'NONE', #274, #10, #245 ) ;
#172 = CC_DESIGN_APPROVAL ( #368, ( #184 ) ) ;
#173 = DATE_AND_TIME ( #138, #90 ) ;
#174 = CARTESIAN_POINT ( 'NONE',  ( 0.000000000000000000, 0.000000000000000000, 82.00000000000000000 ) ) ;
#175 = PRODUCT_DEFINITION_SHAPE ( 'NONE', 'NONE',  #2 ) ;
#176 = EDGE_LOOP ( 'NONE', ( #307, #378 ) ) ;
#177 = AXIS2_PLACEMENT_3D ( 'NONE', #331, #72, #121 ) ;
#178 = ORIENTED_EDGE ( 'NONE', *, *, #161, .T. ) ;
#179 = AXIS2_PLACEMENT_3D ( 'NONE', #148, #153, #351 ) ;
#180 = FACE_OUTER_BOUND ( 'NONE', #204, .T. ) ;
#181 = EDGE_CURVE ( 'NONE', #76, #111, #66, .T. ) ;
#182 = APPROVAL ( #142, 'NEURÈENÝ' ) ;
#183 = DIRECTION ( 'NONE',  ( 1.224646799147353207E-16, 1.000000000000000000, -0.000000000000000000 ) ) ;
#184 = SECURITY_CLASSIFICATION ( '', '', #348 ) ;
#185 = FACE_OUTER_BOUND ( 'NONE', #322, .T. ) ;
#186 = DIRECTION ( 'NONE',  ( 0.000000000000000000, 0.000000000000000000, 1.000000000000000000 ) ) ;
#187 = DIRECTION ( 'NONE',  ( 1.000000000000000000, 0.000000000000000000, -0.000000000000000000 ) ) ;
#188 = CARTESIAN_POINT ( 'NONE',  ( 0.000000000000000000, 0.000000000000000000, 7.699999999999998401 ) ) ;
#189 = DIRECTION ( 'NONE',  ( 0.000000000000000000, 0.000000000000000000, 1.000000000000000000 ) ) ;
#190 = EDGE_LOOP ( 'NONE', ( #144, #141, #226, #255 ) ) ;
#191 = PLANE ( 'NONE',  #317 ) ;
#192 = AXIS2_PLACEMENT_3D ( 'NONE', #359, #183, #301 ) ;
#193 = APPROVAL_ROLE ( '' ) ;
#194 = CARTESIAN_POINT ( 'NONE',  ( 0.000000000000000000, 0.000000000000000000, 82.00000000000000000 ) ) ;
#195 = VERTEX_POINT ( 'NONE', #295 ) ;
#196 = DIRECTION ( 'NONE',  ( 0.000000000000000000, 0.000000000000000000, 1.000000000000000000 ) ) ;
#197 = DIRECTION ( 'NONE',  ( 0.000000000000000000, 0.000000000000000000, 1.000000000000000000 ) ) ;
#198 = ADVANCED_FACE ( 'NONE', ( #265 ), #381, .T. ) ;
#199 = AXIS2_PLACEMENT_3D ( 'NONE', #369, #44, #222 ) ;
#200 = PERSON_AND_ORGANIZATION ( #202, #108 ) ;
#201 = DIRECTION ( 'NONE',  ( 1.000000000000000000, 0.000000000000000000, 0.000000000000000000 ) ) ;
#202 = PERSON ( 'NEURÈENÝ', 'NEURÈENÝ', 'NEURÈENÝ', ('NEURÈENÝ'), ('NEURÈENÝ'), ('NEURÈENÝ') ) ;
#203 = VECTOR ( 'NONE', #329, 1000.000000000000000 ) ;
#204 = EDGE_LOOP ( 'NONE', ( #123, #264, #50, #114 ) ) ;
#205 = ORIENTED_EDGE ( 'NONE', *, *, #99, .F. ) ;
#206 = APPLICATION_CONTEXT ( 'configuration controlled 3d designs of mechanical parts and assemblies' ) ;
#207 = CARTESIAN_POINT ( 'NONE',  ( 0.000000000000000000, 0.000000000000000000, 7.699999999999998401 ) ) ;
#208 = CC_DESIGN_PERSON_AND_ORGANIZATION_ASSIGNMENT ( #117, #27, ( #85 ) ) ;
#209 = PERSON_AND_ORGANIZATION ( #202, #108 ) ;
#210 = DIRECTION ( 'NONE',  ( 1.000000000000000000, 0.000000000000000000, 0.000000000000000000 ) ) ;
#211 = CARTESIAN_POINT ( 'NONE',  ( 0.000000000000000000, 0.000000000000000000, 82.00000000000000000 ) ) ;
#212 = CIRCLE ( 'NONE', #192, 0.7000000000000000666 ) ;
#213 = DIRECTION ( 'NONE',  ( 1.000000000000000000, 0.000000000000000000, 0.000000000000000000 ) ) ;
#214 = TOROIDAL_SURFACE ( 'NONE', #48, 7.700000000000001066, 0.6999999999999999556 ) ;
#215 = CARTESIAN_POINT ( 'NONE',  ( 5.000000000000000000, 6.123233995736766282E-16, 0.000000000000000000 ) ) ;
#216 = EDGE_CURVE ( 'NONE', #28, #257, #118, .T. ) ;
#217 = DIRECTION ( 'NONE',  ( 1.000000000000000000, 0.000000000000000000, 0.000000000000000000 ) ) ;
#218 = ORIENTED_EDGE ( 'NONE', *, *, #365, .F. ) ;
#219 = CIRCLE ( 'NONE', #80, 5.000000000000000000 ) ;
#220 = CC_DESIGN_APPROVAL ( #182, ( #2 ) ) ;
#221 = CC_DESIGN_PERSON_AND_ORGANIZATION_ASSIGNMENT ( #29, #286, ( #2 ) ) ;
#222 = DIRECTION ( 'NONE',  ( 1.000000000000000000, 0.000000000000000000, 0.000000000000000000 ) ) ;
#223 = ORIENTED_EDGE ( 'NONE', *, *, #235, .T. ) ;
#224 = DIRECTION ( 'NONE',  ( 1.000000000000000000, 0.000000000000000000, 0.000000000000000000 ) ) ;
#225 = APPLICATION_CONTEXT ( 'configuration controlled 3d designs of mechanical parts and assemblies' ) ;
#226 = ORIENTED_EDGE ( 'NONE', *, *, #335, .T. ) ;
#227 = LINE ( 'NONE', #360, #328 ) ;
#228 = CIRCLE ( 'NONE', #61, 11.00000000000000000 ) ;
#229 = PERSON_AND_ORGANIZATION ( #202, #108 ) ;
#230 = CIRCLE ( 'NONE', #37, 11.00000000000000000 ) ;
#231 = DATE_AND_TIME ( #140, #55 ) ;
#232 = ORIENTED_EDGE ( 'NONE', *, *, #115, .F. ) ;
#233 = EDGE_CURVE ( 'NONE', #20, #166, #219, .T. ) ;
#234 = ORIENTED_EDGE ( 'NONE', *, *, #96, .F. ) ;
#235 = EDGE_CURVE ( 'NONE', #84, #76, #227, .T. ) ;
#236 = ADVANCED_FACE ( 'NONE', ( #106, #252 ), #191, .T. ) ;
#237 = PERSON_AND_ORGANIZATION ( #202, #108 ) ;
#238 = DIRECTION ( 'NONE',  ( -0.000000000000000000, -0.000000000000000000, -1.000000000000000000 ) ) ;
#239 = VERTEX_POINT ( 'NONE', #336 ) ;
#240 = CARTESIAN_POINT ( 'NONE',  ( 0.000000000000000000, 0.000000000000000000, 7.000000000000000000 ) ) ;
#241 = CARTESIAN_POINT ( 'NONE',  ( 7.000000000000000888, 8.572527594031474176E-16, 82.00000000000000000 ) ) ;
#242 = CALENDAR_DATE ( 2022, 10, 7 ) ;
#243 = CARTESIAN_POINT ( 'NONE',  ( -5.000000000000000000, 0.000000000000000000, 82.00000000000000000 ) ) ;
#244 = DESIGN_CONTEXT ( 'detailed design', #206, 'design' ) ;
#245 = DIRECTION ( 'NONE',  ( -1.000000000000000000, 0.000000000000000000, 0.000000000000000000 ) ) ;
#246 = CYLINDRICAL_SURFACE ( 'NONE', #164, 5.000000000000000000 ) ;
#247 = CC_DESIGN_PERSON_AND_ORGANIZATION_ASSIGNMENT ( #237, #113, ( #62 ) ) ;
#248 = ORIENTED_EDGE ( 'NONE', *, *, #314, .T. ) ;
#249 = CARTESIAN_POINT ( 'NONE',  ( 0.000000000000000000, 0.000000000000000000, 0.000000000000000000 ) ) ;
#250 = EDGE_CURVE ( 'NONE', #239, #166, #253, .T. ) ;
#251 = DIRECTION ( 'NONE',  ( -0.000000000000000000, -0.000000000000000000, -1.000000000000000000 ) ) ;
#252 = FACE_OUTER_BOUND ( 'NONE', #92, .T. ) ;
#253 = LINE ( 'NONE', #160, #17 ) ;
#254 = ORIENTED_EDGE ( 'NONE', *, *, #216, .T. ) ;
#255 = ORIENTED_EDGE ( 'NONE', *, *, #293, .F. ) ;
#256 = AXIS2_PLACEMENT_3D ( 'NONE', #46, #308, #224 ) ;
#257 = VERTEX_POINT ( 'NONE', #366 ) ;
#258 = COORDINATED_UNIVERSAL_TIME_OFFSET ( 1, 0, .AHEAD. ) ;
#259 = ORIENTED_EDGE ( 'NONE', *, *, #233, .F. ) ;
#260 = CC_DESIGN_PERSON_AND_ORGANIZATION_ASSIGNMENT ( #377, #51, ( #62 ) ) ;
#261 = DIRECTION ( 'NONE',  ( 0.000000000000000000, 0.000000000000000000, 1.000000000000000000 ) ) ;
#262 = EDGE_LOOP ( 'NONE', ( #287, #334, #312, #131 ) ) ;
#263 = AXIS2_PLACEMENT_3D ( 'NONE', #6, #31, #357 ) ;
#264 = ORIENTED_EDGE ( 'NONE', *, *, #355, .F. ) ;
#265 = FACE_OUTER_BOUND ( 'NONE', #146, .T. ) ;
#266 = CALENDAR_DATE ( 2022, 10, 7 ) ;
#267 = FACE_OUTER_BOUND ( 'NONE', #349, .T. ) ;
#268 = DIRECTION ( 'NONE',  ( 0.000000000000000000, 0.000000000000000000, 1.000000000000000000 ) ) ;
#269 = APPROVAL_PERSON_ORGANIZATION ( #200, #326, #56 ) ;
#270 = ADVANCED_FACE ( 'NONE', ( #21 ), #352, .F. ) ;
#271 = CYLINDRICAL_SURFACE ( 'NONE', #263, 11.00000000000000000 ) ;
#272 = ADVANCED_FACE ( 'NONE', ( #155 ), #246, .F. ) ;
#273 = DATE_AND_TIME ( #266, #19 ) ;
#274 = CARTESIAN_POINT ( 'NONE',  ( 0.000000000000000000, 0.000000000000000000, 82.00000000000000000 ) ) ;
#275 = CARTESIAN_POINT ( 'NONE',  ( 0.000000000000000000, 0.000000000000000000, 7.699999999999998401 ) ) ;
#276 = CIRCLE ( 'NONE', #372, 7.000000000000000888 ) ;
#277 = ADVANCED_FACE ( 'NONE', ( #154, #363 ), #280, .T. ) ;
#278 = CARTESIAN_POINT ( 'NONE',  ( 0.000000000000000000, 0.000000000000000000, 82.00000000000000000 ) ) ;
#279 = DIRECTION ( 'NONE',  ( -1.000000000000000000, 0.000000000000000000, 0.000000000000000000 ) ) ;
#280 = PLANE ( 'NONE',  #151 ) ;
#281 = EDGE_LOOP ( 'NONE', ( #234, #292, #248, #107 ) ) ;
#282 = CIRCLE ( 'NONE', #122, 5.000000000000000000 ) ;
#283 = VECTOR ( 'NONE', #33, 1000.000000000000000 ) ;
#284 = CARTESIAN_POINT ( 'NONE',  ( 0.000000000000000000, 0.000000000000000000, 0.000000000000000000 ) ) ;
#285 = VERTEX_POINT ( 'NONE', #109 ) ;
#286 = PERSON_AND_ORGANIZATION_ROLE ( 'creator' ) ;
#287 = ORIENTED_EDGE ( 'NONE', *, *, #8, .T. ) ;
#288 = LOCAL_TIME ( 11, 1, 40.00000000000000000, #258 ) ;
#289 =( NAMED_UNIT ( * ) SI_UNIT ( $, .STERADIAN. ) SOLID_ANGLE_UNIT ( ) );
#290 = ORIENTED_EDGE ( 'NONE', *, *, #233, .T. ) ;
#291 = EDGE_CURVE ( 'NONE', #139, #285, #13, .T. ) ;
#292 = ORIENTED_EDGE ( 'NONE', *, *, #99, .T. ) ;
#293 = EDGE_CURVE ( 'NONE', #257, #28, #379, .T. ) ;
#294 = COORDINATED_UNIVERSAL_TIME_OFFSET ( 1, 0, .AHEAD. ) ;
#295 = CARTESIAN_POINT ( 'NONE',  ( 11.00000000000000000, 1.347111479062088405E-15, 0.000000000000000000 ) ) ;
#296 = VECTOR ( 'NONE', #238, 1000.000000000000000 ) ;
#297 = CARTESIAN_POINT ( 'NONE',  ( 11.00000000000000000, 1.347111479062088405E-15, 7.000000000000000000 ) ) ;
#298 = CYLINDRICAL_SURFACE ( 'NONE', #320, 5.000000000000000000 ) ;
#299 = CARTESIAN_POINT ( 'NONE',  ( 0.000000000000000000, 0.000000000000000000, 7.000000000000000000 ) ) ;
#300 = ADVANCED_FACE ( 'NONE', ( #157 ), #214, .F. ) ;
#301 = DIRECTION ( 'NONE',  ( -1.000000000000000000, 1.224646799147351975E-16, 0.000000000000000000 ) ) ;
#302 = DIRECTION ( 'NONE',  ( 1.000000000000000000, 0.000000000000000000, 0.000000000000000000 ) ) ;
#303 = DIRECTION ( 'NONE',  ( -0.000000000000000000, -0.000000000000000000, -1.000000000000000000 ) ) ;
#304 = CIRCLE ( 'NONE', #310, 11.00000000000000000 ) ;
#305 = VERTEX_POINT ( 'NONE', #133 ) ;
#306 = DIRECTION ( 'NONE',  ( -0.000000000000000000, -0.000000000000000000, -1.000000000000000000 ) ) ;
#307 = ORIENTED_EDGE ( 'NONE', *, *, #8, .F. ) ;
#308 = DIRECTION ( 'NONE',  ( -0.000000000000000000, -0.000000000000000000, -1.000000000000000000 ) ) ;
#309 = VERTEX_POINT ( 'NONE', #112 ) ;
#310 = AXIS2_PLACEMENT_3D ( 'NONE', #338, #186, #302 ) ;
#311 = AXIS2_PLACEMENT_3D ( 'NONE', #284, #89, #52 ) ;
#312 = ORIENTED_EDGE ( 'NONE', *, *, #115, .T. ) ;
#313 = EDGE_CURVE ( 'NONE', #285, #195, #304, .T. ) ;
#314 = EDGE_CURVE ( 'NONE', #111, #76, #145, .T. ) ;
#315 = DIRECTION ( 'NONE',  ( 1.000000000000000000, 0.000000000000000000, 0.000000000000000000 ) ) ;
#316 = MANIFOLD_SOLID_BREP ( 'Odebrat vysunutím3', #70 ) ;
#317 = AXIS2_PLACEMENT_3D ( 'NONE', #75, #15, #362 ) ;
#318 = APPROVAL_STATUS ( 'not_yet_approved' ) ;
#319 = CARTESIAN_POINT ( 'NONE',  ( 7.700000000000001066, 0.000000000000000000, 6.999999999999999112 ) ) ;
#320 = AXIS2_PLACEMENT_3D ( 'NONE', #211, #95, #98 ) ;
#321 = MECHANICAL_CONTEXT ( 'NONE', #225, 'mechanical' ) ;
#322 = EDGE_LOOP ( 'NONE', ( #205, #218, #223, #333 ) ) ;
#323 = CIRCLE ( 'NONE', #332, 11.00000000000000000 ) ;
#324 = DIRECTION ( 'NONE',  ( -1.000000000000000000, 0.000000000000000000, 0.000000000000000000 ) ) ;
#325 = PLANE ( 'NONE',  #159 ) ;
#326 = APPROVAL ( #318, 'NEURÈENÝ' ) ;
#327 = DIRECTION ( 'NONE',  ( 0.000000000000000000, 0.000000000000000000, 1.000000000000000000 ) ) ;
#328 = VECTOR ( 'NONE', #251, 1000.000000000000000 ) ;
#329 = DIRECTION ( 'NONE',  ( -0.000000000000000000, -0.000000000000000000, -1.000000000000000000 ) ) ;
#330 = DIRECTION ( 'NONE',  ( 0.000000000000000000, 0.000000000000000000, 1.000000000000000000 ) ) ;
#331 = CARTESIAN_POINT ( 'NONE',  ( 7.700000000000001066, 0.000000000000000000, 7.699999999999998401 ) ) ;
#332 = AXIS2_PLACEMENT_3D ( 'NONE', #69, #102, #130 ) ;
#333 = ORIENTED_EDGE ( 'NONE', *, *, #181, .T. ) ;
#334 = ORIENTED_EDGE ( 'NONE', *, *, #250, .T. ) ;
#335 = EDGE_CURVE ( 'NONE', #111, #28, #339, .T. ) ;
#336 = CARTESIAN_POINT ( 'NONE',  ( 5.000000000000000000, 6.123233995736766282E-16, 82.00000000000000000 ) ) ;
#337 = EDGE_LOOP ( 'NONE', ( #344, #371 ) ) ;
#338 = CARTESIAN_POINT ( 'NONE',  ( 0.000000000000000000, 0.000000000000000000, 0.000000000000000000 ) ) ;
#339 = CIRCLE ( 'NONE', #177, 0.7000000000000000666 ) ;
#340 = PERSON_AND_ORGANIZATION_ROLE ( 'classification_officer' ) ;
#341 = ORIENTED_EDGE ( 'NONE', *, *, #36, .T. ) ;
#342 = ADVANCED_BREP_SHAPE_REPRESENTATION ( '7014', ( #316, #311 ), #74 ) ;
#343 = COORDINATED_UNIVERSAL_TIME_OFFSET ( 1, 0, .AHEAD. ) ;
#344 = ORIENTED_EDGE ( 'NONE', *, *, #365, .T. ) ;
#345 = DATE_TIME_ROLE ( 'creation_date' ) ;
#346 = CARTESIAN_POINT ( 'NONE',  ( -5.000000000000000000, 0.000000000000000000, 0.000000000000000000 ) ) ;
#347 = CC_DESIGN_SECURITY_CLASSIFICATION ( #184, ( #62 ) ) ;
#348 = SECURITY_CLASSIFICATION_LEVEL ( 'unclassified' ) ;
#349 = EDGE_LOOP ( 'NONE', ( #156, #60 ) ) ;
#350 = SHAPE_DEFINITION_REPRESENTATION ( #175, #342 ) ;
#351 = DIRECTION ( 'NONE',  ( -1.000000000000000000, 0.000000000000000000, 0.000000000000000000 ) ) ;
#352 = TOROIDAL_SURFACE ( 'NONE', #40, 7.700000000000001066, 0.6999999999999999556 ) ;
#353 = APPROVAL_DATE_TIME ( #273, #368 ) ;
#354 = CARTESIAN_POINT ( 'NONE',  ( -7.000000000000000888, 0.000000000000000000, 7.699999999999998401 ) ) ;
#355 = EDGE_CURVE ( 'NONE', #139, #54, #228, .T. ) ;
#356 = CARTESIAN_POINT ( 'NONE',  ( 0.000000000000000000, 0.000000000000000000, 0.000000000000000000 ) ) ;
#357 = DIRECTION ( 'NONE',  ( -1.000000000000000000, 0.000000000000000000, 0.000000000000000000 ) ) ;
#358 = AXIS2_PLACEMENT_3D ( 'NONE', #275, #11, #217 ) ;
#359 = CARTESIAN_POINT ( 'NONE',  ( -7.700000000000001066, 9.429780353434621002E-16, 7.699999999999998401 ) ) ;
#360 = CARTESIAN_POINT ( 'NONE',  ( -7.000000000000000888, 0.000000000000000000, 82.00000000000000000 ) ) ;
#361 = CC_DESIGN_PERSON_AND_ORGANIZATION_ASSIGNMENT ( #229, #340, ( #184 ) ) ;
#362 = DIRECTION ( 'NONE',  ( 1.000000000000000000, 0.000000000000000000, -0.000000000000000000 ) ) ;
#363 = FACE_OUTER_BOUND ( 'NONE', #337, .T. ) ;
#364 = VECTOR ( 'NONE', #306, 1000.000000000000000 ) ;
#365 = EDGE_CURVE ( 'NONE', #84, #309, #276, .T. ) ;
#366 = CARTESIAN_POINT ( 'NONE',  ( -7.700000000000001066, 9.429780353434621002E-16, 6.999999999999999112 ) ) ;
#367 = CIRCLE ( 'NONE', #132, 7.000000000000000888 ) ;
#368 = APPROVAL ( #129, 'NEURÈENÝ' ) ;
#369 = CARTESIAN_POINT ( 'NONE',  ( 0.000000000000000000, 0.000000000000000000, 7.000000000000000000 ) ) ;
#370 = APPROVAL_DATE_TIME ( #173, #326 ) ;
#371 = ORIENTED_EDGE ( 'NONE', *, *, #96, .T. ) ;
#372 = AXIS2_PLACEMENT_3D ( 'NONE', #194, #261, #169 ) ;
#373 = DATE_AND_TIME ( #375, #288 ) ;
#374 = ORIENTED_EDGE ( 'NONE', *, *, #88, .T. ) ;
#375 = CALENDAR_DATE ( 2022, 10, 7 ) ;
#376 = CARTESIAN_POINT ( 'NONE',  ( 0.000000000000000000, 0.000000000000000000, 82.00000000000000000 ) ) ;
#377 = PERSON_AND_ORGANIZATION ( #202, #108 ) ;
#378 = ORIENTED_EDGE ( 'NONE', *, *, #36, .F. ) ;
#379 = CIRCLE ( 'NONE', #199, 7.700000000000001066 ) ;
#380 = ORIENTED_EDGE ( 'NONE', *, *, #147, .T. ) ;
#381 = CYLINDRICAL_SURFACE ( 'NONE', #101, 11.00000000000000000 ) ;
ENDSEC;
END-ISO-10303-21;
