ISO-10303-21;
HEADER;
FILE_DESCRIPTION (( 'STEP AP203' ),
    '1' );
FILE_NAME ('8eeb.STEP',
    '2022-07-10T09:19:05',
    ( '' ),
    ( '' ),
    'SwSTEP 2.0',
    'SolidWorks 2019',
    '' );
FILE_SCHEMA (( 'CONFIG_CONTROL_DESIGN' ));
ENDSEC;

DATA;
#1 = AXIS2_PLACEMENT_3D ( 'NONE', #323, #293, #177 ) ;
#2 = PERSON_AND_ORGANIZATION_ROLE ( 'creator' ) ;
#3 = DATE_AND_TIME ( #295, #14 ) ;
#4 = CARTESIAN_POINT ( 'NONE',  ( 0.000000000000000000, 0.000000000000000000, 0.000000000000000000 ) ) ;
#5 = ADVANCED_FACE ( 'NONE', ( #355 ), #320, .F. ) ;
#6 = APPROVAL_STATUS ( 'not_yet_approved' ) ;
#7 = CARTESIAN_POINT ( 'NONE',  ( 2.299999999999999822, 0.000000000000000000, 3.299999999999997158 ) ) ;
#8 = APPROVAL_PERSON_ORGANIZATION ( #267, #376, #381 ) ;
#9 = LOCAL_TIME ( 11, 19, 5.000000000000000000, #362 ) ;
#10 = EDGE_CURVE ( 'NONE', #109, #368, #65, .T. ) ;
#11 = CARTESIAN_POINT ( 'NONE',  ( -4.000000000000000000, 0.000000000000000000, 3.000000000000000000 ) ) ;
#12 = ORIENTED_EDGE ( 'NONE', *, *, #10, .T. ) ;
#13 = AXIS2_PLACEMENT_3D ( 'NONE', #283, #125, #255 ) ;
#14 = LOCAL_TIME ( 11, 19, 5.000000000000000000, #333 ) ;
#15 = CYLINDRICAL_SURFACE ( 'NONE', #135, 1.100000000000000089 ) ;
#16 = ORIENTED_EDGE ( 'NONE', *, *, #179, .T. ) ;
#17 = DIRECTION ( 'NONE',  ( 0.000000000000000000, 0.000000000000000000, -1.000000000000000000 ) ) ;
#18 = EDGE_CURVE ( 'NONE', #238, #86, #269, .T. ) ;
#19 = PRODUCT_DEFINITION_SHAPE ( 'NONE', 'NONE',  #252 ) ;
#20 = DIRECTION ( 'NONE',  ( 0.000000000000000000, 0.000000000000000000, 1.000000000000000000 ) ) ;
#21 = ORIENTED_EDGE ( 'NONE', *, *, #18, .F. ) ;
#22 = AXIS2_PLACEMENT_3D ( 'NONE', #155, #149, #69 ) ;
#23 = DIRECTION ( 'NONE',  ( 1.000000000000000000, 0.000000000000000000, -0.000000000000000000 ) ) ;
#24 = DATE_AND_TIME ( #258, #176 ) ;
#25 = DIRECTION ( 'NONE',  ( 0.000000000000000000, 0.000000000000000000, 1.000000000000000000 ) ) ;
#26 = ORIENTED_EDGE ( 'NONE', *, *, #257, .T. ) ;
#27 = CIRCLE ( 'NONE', #291, 2.000000000000000000 ) ;
#28 = DIRECTION ( 'NONE',  ( 0.000000000000000000, 0.000000000000000000, 1.000000000000000000 ) ) ;
#29 = FACE_OUTER_BOUND ( 'NONE', #348, .T. ) ;
#30 = ADVANCED_FACE ( 'NONE', ( #81, #111 ), #287, .T. ) ;
#31 = PERSON_AND_ORGANIZATION_ROLE ( 'creator' ) ;
#32 = VECTOR ( 'NONE', #39, 1000.000000000000000 ) ;
#33 = AXIS2_PLACEMENT_3D ( 'NONE', #36, #87, #180 ) ;
#34 = PERSON_AND_ORGANIZATION_ROLE ( 'classification_officer' ) ;
#35 = CARTESIAN_POINT ( 'NONE',  ( -2.000000000000000000, 0.000000000000000000, 153.0000000000000000 ) ) ;
#36 = CARTESIAN_POINT ( 'NONE',  ( 0.000000000000000000, 0.000000000000000000, 0.000000000000000000 ) ) ;
#37 = DIRECTION ( 'NONE',  ( 1.000000000000000000, 0.000000000000000000, 0.000000000000000000 ) ) ;
#38 = PERSON_AND_ORGANIZATION ( #117, #181 ) ;
#39 = DIRECTION ( 'NONE',  ( -0.000000000000000000, -0.000000000000000000, -1.000000000000000000 ) ) ;
#40 = VERTEX_POINT ( 'NONE', #325 ) ;
#41 = CARTESIAN_POINT ( 'NONE',  ( 4.000000000000000000, 4.898587196589412829E-16, 3.000000000000000000 ) ) ;
#42 = ORIENTED_EDGE ( 'NONE', *, *, #241, .F. ) ;
#43 = VERTEX_POINT ( 'NONE', #375 ) ;
#44 = CIRCLE ( 'NONE', #221, 2.000000000000000000 ) ;
#45 = ADVANCED_FACE ( 'NONE', ( #110 ), #207, .T. ) ;
#46 = ORIENTED_EDGE ( 'NONE', *, *, #294, .F. ) ;
#47 = CARTESIAN_POINT ( 'NONE',  ( 0.000000000000000000, 0.000000000000000000, 153.0000000000000000 ) ) ;
#48 = APPROVAL_ROLE ( '' ) ;
#49 = ADVANCED_FACE ( 'NONE', ( #329, #29 ), #138, .T. ) ;
#50 = VECTOR ( 'NONE', #235, 1000.000000000000000 ) ;
#51 =( NAMED_UNIT ( * ) SI_UNIT ( $, .STERADIAN. ) SOLID_ANGLE_UNIT ( ) );
#52 = ORIENTED_EDGE ( 'NONE', *, *, #18, .T. ) ;
#53 =( LENGTH_UNIT ( ) NAMED_UNIT ( * ) SI_UNIT ( .MILLI., .METRE. ) );
#54 = ORIENTED_EDGE ( 'NONE', *, *, #179, .F. ) ;
#55 = CIRCLE ( 'NONE', #297, 1.100000000000000089 ) ;
#56 = CARTESIAN_POINT ( 'NONE',  ( 0.000000000000000000, 0.000000000000000000, 153.0000000000000000 ) ) ;
#57 = VERTEX_POINT ( 'NONE', #35 ) ;
#58 = EDGE_CURVE ( 'NONE', #312, #43, #101, .T. ) ;
#59 = CC_DESIGN_SECURITY_CLASSIFICATION ( #170, ( #194 ) ) ;
#60 = APPROVAL_ROLE ( '' ) ;
#61 = CARTESIAN_POINT ( 'NONE',  ( -1.100000000000000089, 0.000000000000000000, 153.0000000000000000 ) ) ;
#62 = MECHANICAL_CONTEXT ( 'NONE', #141, 'mechanical' ) ;
#63 = DIRECTION ( 'NONE',  ( -0.000000000000000000, -0.000000000000000000, -1.000000000000000000 ) ) ;
#64 = EDGE_CURVE ( 'NONE', #43, #284, #215, .T. ) ;
#65 = CIRCLE ( 'NONE', #277, 4.000000000000000000 ) ;
#66 = DIRECTION ( 'NONE',  ( 0.000000000000000000, 0.000000000000000000, -1.000000000000000000 ) ) ;
#67 = CALENDAR_DATE ( 2022, 10, 7 ) ;
#68 = CARTESIAN_POINT ( 'NONE',  ( 0.000000000000000000, 0.000000000000000000, 3.000000000000000000 ) ) ;
#69 = DIRECTION ( 'NONE',  ( 1.000000000000000000, 0.000000000000000000, 0.000000000000000000 ) ) ;
#70 = CC_DESIGN_APPROVAL ( #376, ( #194 ) ) ;
#71 = FACE_OUTER_BOUND ( 'NONE', #143, .T. ) ;
#72 = EDGE_LOOP ( 'NONE', ( #21, #282 ) ) ;
#73 = ADVANCED_FACE ( 'NONE', ( #91, #150 ), #334, .F. ) ;
#74 = CARTESIAN_POINT ( 'NONE',  ( -2.299999999999999822, 2.816687638038912056E-16, 3.299999999999997158 ) ) ;
#75 = CIRCLE ( 'NONE', #361, 0.2999999999999999334 ) ;
#76 = VERTEX_POINT ( 'NONE', #300 ) ;
#77 = DIRECTION ( 'NONE',  ( 1.000000000000000000, 0.000000000000000000, 0.000000000000000000 ) ) ;
#78 = ORIENTED_EDGE ( 'NONE', *, *, #140, .F. ) ;
#79 = EDGE_CURVE ( 'NONE', #57, #312, #268, .T. ) ;
#80 = DIRECTION ( 'NONE',  ( 0.000000000000000000, 0.000000000000000000, 1.000000000000000000 ) ) ;
#81 = FACE_BOUND ( 'NONE', #72, .T. ) ;
#82 = AXIS2_PLACEMENT_3D ( 'NONE', #259, #173, #205 ) ;
#83 = DIRECTION ( 'NONE',  ( 0.000000000000000000, 0.000000000000000000, 1.000000000000000000 ) ) ;
#84 = CARTESIAN_POINT ( 'NONE',  ( 2.299999999999999822, 0.000000000000000000, 2.999999999999998668 ) ) ;
#85 =( GEOMETRIC_REPRESENTATION_CONTEXT ( 3 ) GLOBAL_UNCERTAINTY_ASSIGNED_CONTEXT ( ( #345 ) ) GLOBAL_UNIT_ASSIGNED_CONTEXT ( ( #53, #289, #51 ) ) REPRESENTATION_CONTEXT ( 'NONE', 'WORKASPACE' ) );
#86 = VERTEX_POINT ( 'NONE', #118 ) ;
#87 = DIRECTION ( 'NONE',  ( 0.000000000000000000, 0.000000000000000000, 1.000000000000000000 ) ) ;
#88 = LINE ( 'NONE', #119, #32 ) ;
#89 = EDGE_CURVE ( 'NONE', #199, #109, #88, .T. ) ;
#90 = PERSON_AND_ORGANIZATION_ROLE ( 'design_owner' ) ;
#91 = FACE_BOUND ( 'NONE', #114, .T. ) ;
#92 = TOROIDAL_SURFACE ( 'NONE', #342, 2.299999999999999822, 0.2999999999999999889 ) ;
#93 = CARTESIAN_POINT ( 'NONE',  ( -4.000000000000000000, 0.000000000000000000, 0.000000000000000000 ) ) ;
#94 = CC_DESIGN_APPROVAL ( #220, ( #252 ) ) ;
#95 = SECURITY_CLASSIFICATION_LEVEL ( 'unclassified' ) ;
#96 = CARTESIAN_POINT ( 'NONE',  ( 0.000000000000000000, 0.000000000000000000, 3.299999999999997158 ) ) ;
#97 = EDGE_CURVE ( 'NONE', #238, #353, #212, .T. ) ;
#98 = DIRECTION ( 'NONE',  ( -1.000000000000000000, 1.224646799147353207E-16, 0.000000000000000000 ) ) ;
#99 = CLOSED_SHELL ( 'NONE', ( #234, #153, #326, #319, #158, #49, #73, #45, #30, #5, #166 ) ) ;
#100 = ORIENTED_EDGE ( 'NONE', *, *, #228, .F. ) ;
#101 = CIRCLE ( 'NONE', #22, 2.000000000000000000 ) ;
#102 = DIRECTION ( 'NONE',  ( 1.224646799147353207E-16, 1.000000000000000000, -0.000000000000000000 ) ) ;
#103 = ORIENTED_EDGE ( 'NONE', *, *, #183, .T. ) ;
#104 = EDGE_CURVE ( 'NONE', #40, #43, #296, .T. ) ;
#105 = DIRECTION ( 'NONE',  ( 1.000000000000000000, 0.000000000000000000, 0.000000000000000000 ) ) ;
#106 = EDGE_LOOP ( 'NONE', ( #249, #157, #280, #233 ) ) ;
#107 = DIRECTION ( 'NONE',  ( 1.000000000000000000, 0.000000000000000000, 0.000000000000000000 ) ) ;
#108 = AXIS2_PLACEMENT_3D ( 'NONE', #116, #28, #380 ) ;
#109 = VERTEX_POINT ( 'NONE', #93 ) ;
#110 = FACE_OUTER_BOUND ( 'NONE', #223, .T. ) ;
#111 = FACE_OUTER_BOUND ( 'NONE', #225, .T. ) ;
#112 = AXIS2_PLACEMENT_3D ( 'NONE', #292, #285, #327 ) ;
#113 = CARTESIAN_POINT ( 'NONE',  ( 0.000000000000000000, 0.000000000000000000, 3.000000000000000000 ) ) ;
#114 = EDGE_LOOP ( 'NONE', ( #230, #46 ) ) ;
#115 = APPROVAL_STATUS ( 'not_yet_approved' ) ;
#116 = CARTESIAN_POINT ( 'NONE',  ( 0.000000000000000000, 0.000000000000000000, 3.299999999999997158 ) ) ;
#117 = PERSON ( 'NEURÈENÝ', 'NEURÈENÝ', 'NEURÈENÝ', ('NEURÈENÝ'), ('NEURÈENÝ'), ('NEURÈENÝ') ) ;
#118 = CARTESIAN_POINT ( 'NONE',  ( 1.100000000000000089, 1.347111479062088503E-16, 153.0000000000000000 ) ) ;
#119 = CARTESIAN_POINT ( 'NONE',  ( -4.000000000000000000, 0.000000000000000000, 3.000000000000000000 ) ) ;
#120 = COORDINATED_UNIVERSAL_TIME_OFFSET ( 1, 0, .AHEAD. ) ;
#121 = COORDINATED_UNIVERSAL_TIME_OFFSET ( 1, 0, .AHEAD. ) ;
#122 = CIRCLE ( 'NONE', #201, 4.000000000000000000 ) ;
#123 = CARTESIAN_POINT ( 'NONE',  ( 2.000000000000000000, 2.449293598294706414E-16, 153.0000000000000000 ) ) ;
#124 = EDGE_CURVE ( 'NONE', #368, #109, #174, .T. ) ;
#125 = DIRECTION ( 'NONE',  ( 0.000000000000000000, 0.000000000000000000, 1.000000000000000000 ) ) ;
#126 = VERTEX_POINT ( 'NONE', #217 ) ;
#127 = LINE ( 'NONE', #308, #50 ) ;
#128 = AXIS2_PLACEMENT_3D ( 'NONE', #113, #167, #324 ) ;
#129 = ORIENTED_EDGE ( 'NONE', *, *, #64, .T. ) ;
#130 = PRODUCT ( '8eeb', '8eeb', '', ( #62 ) ) ;
#131 = DIRECTION ( 'NONE',  ( 0.000000000000000000, 0.000000000000000000, -1.000000000000000000 ) ) ;
#132 = ORIENTED_EDGE ( 'NONE', *, *, #228, .T. ) ;
#133 = ORIENTED_EDGE ( 'NONE', *, *, #279, .T. ) ;
#134 = EDGE_LOOP ( 'NONE', ( #78, #26, #251, #163 ) ) ;
#135 = AXIS2_PLACEMENT_3D ( 'NONE', #162, #131, #343 ) ;
#136 = ORIENTED_EDGE ( 'NONE', *, *, #104, .T. ) ;
#137 = CYLINDRICAL_SURFACE ( 'NONE', #112, 2.000000000000000000 ) ;
#138 = PLANE ( 'NONE',  #237 ) ;
#139 = EDGE_LOOP ( 'NONE', ( #328, #374, #262, #12 ) ) ;
#140 = EDGE_CURVE ( 'NONE', #254, #199, #122, .T. ) ;
#141 = APPLICATION_CONTEXT ( 'configuration controlled 3d designs of mechanical parts and assemblies' ) ;
#142 = AXIS2_PLACEMENT_3D ( 'NONE', #196, #278, #224 ) ;
#143 = EDGE_LOOP ( 'NONE', ( #52, #132, #232, #260 ) ) ;
#144 = DIRECTION ( 'NONE',  ( 1.000000000000000000, 0.000000000000000000, 0.000000000000000000 ) ) ;
#145 = ORIENTED_EDGE ( 'NONE', *, *, #202, .T. ) ;
#146 = DIRECTION ( 'NONE',  ( 1.000000000000000000, 0.000000000000000000, -0.000000000000000000 ) ) ;
#147 = AXIS2_PLACEMENT_3D ( 'NONE', #311, #347, #188 ) ;
#148 = CALENDAR_DATE ( 2022, 10, 7 ) ;
#149 = DIRECTION ( 'NONE',  ( 0.000000000000000000, 0.000000000000000000, 1.000000000000000000 ) ) ;
#150 = FACE_OUTER_BOUND ( 'NONE', #370, .T. ) ;
#151 = PERSON_AND_ORGANIZATION ( #117, #181 ) ;
#152 = FACE_OUTER_BOUND ( 'NONE', #106, .T. ) ;
#153 = ADVANCED_FACE ( 'NONE', ( #152 ), #92, .F. ) ;
#154 = SHAPE_DEFINITION_REPRESENTATION ( #19, #302 ) ;
#155 = CARTESIAN_POINT ( 'NONE',  ( 0.000000000000000000, 0.000000000000000000, 3.299999999999997158 ) ) ;
#156 = LOCAL_TIME ( 11, 19, 5.000000000000000000, #120 ) ;
#157 = ORIENTED_EDGE ( 'NONE', *, *, #241, .T. ) ;
#158 = ADVANCED_FACE ( 'NONE', ( #272 ), #229, .T. ) ;
#159 = DIRECTION ( 'NONE',  ( 1.000000000000000000, 0.000000000000000000, 0.000000000000000000 ) ) ;
#160 = AXIS2_PLACEMENT_3D ( 'NONE', #189, #316, #159 ) ;
#161 = ORIENTED_EDGE ( 'NONE', *, *, #214, .T. ) ;
#162 = CARTESIAN_POINT ( 'NONE',  ( 0.000000000000000000, 0.000000000000000000, 153.0000000000000000 ) ) ;
#163 = ORIENTED_EDGE ( 'NONE', *, *, #89, .F. ) ;
#164 = CARTESIAN_POINT ( 'NONE',  ( 0.000000000000000000, 0.000000000000000000, 153.0000000000000000 ) ) ;
#165 = ORIENTED_EDGE ( 'NONE', *, *, #290, .F. ) ;
#166 = ADVANCED_FACE ( 'NONE', ( #222 ), #15, .F. ) ;
#167 = DIRECTION ( 'NONE',  ( -0.000000000000000000, -0.000000000000000000, -1.000000000000000000 ) ) ;
#168 = DIRECTION ( 'NONE',  ( 1.000000000000000000, 0.000000000000000000, 0.000000000000000000 ) ) ;
#169 = CIRCLE ( 'NONE', #160, 2.299999999999999822 ) ;
#170 = SECURITY_CLASSIFICATION ( '', '', #95 ) ;
#171 = DIRECTION ( 'NONE',  ( 0.000000000000000000, 0.000000000000000000, 1.000000000000000000 ) ) ;
#172 = APPROVAL ( #115, 'NEURÈENÝ' ) ;
#173 = DIRECTION ( 'NONE',  ( -0.000000000000000000, -0.000000000000000000, -1.000000000000000000 ) ) ;
#174 = CIRCLE ( 'NONE', #336, 4.000000000000000000 ) ;
#175 = CYLINDRICAL_SURFACE ( 'NONE', #128, 4.000000000000000000 ) ;
#176 = LOCAL_TIME ( 11, 19, 5.000000000000000000, #276 ) ;
#177 = DIRECTION ( 'NONE',  ( -1.000000000000000000, 0.000000000000000000, 0.000000000000000000 ) ) ;
#178 = DIRECTION ( 'NONE',  ( 0.000000000000000000, 0.000000000000000000, -1.000000000000000000 ) ) ;
#179 = EDGE_CURVE ( 'NONE', #76, #284, #372, .T. ) ;
#180 = DIRECTION ( 'NONE',  ( 1.000000000000000000, 0.000000000000000000, 0.000000000000000000 ) ) ;
#181 = ORGANIZATION ( 'NEURÈENÝ', 'NEURÈENÝ', '' ) ;
#182 = APPROVAL_DATE_TIME ( #3, #220 ) ;
#183 = EDGE_CURVE ( 'NONE', #284, #76, #169, .T. ) ;
#184 = DIRECTION ( 'NONE',  ( 0.000000000000000000, -1.000000000000000000, 0.000000000000000000 ) ) ;
#185 = CIRCLE ( 'NONE', #366, 2.000000000000000000 ) ;
#186 = CARTESIAN_POINT ( 'NONE',  ( 0.000000000000000000, 0.000000000000000000, 3.000000000000000000 ) ) ;
#187 = CC_DESIGN_PERSON_AND_ORGANIZATION_ASSIGNMENT ( #337, #31, ( #252 ) ) ;
#188 = DIRECTION ( 'NONE',  ( -1.000000000000000000, 0.000000000000000000, 0.000000000000000000 ) ) ;
#189 = CARTESIAN_POINT ( 'NONE',  ( 0.000000000000000000, 0.000000000000000000, 3.000000000000000000 ) ) ;
#190 = ORIENTED_EDGE ( 'NONE', *, *, #124, .F. ) ;
#191 = CARTESIAN_POINT ( 'NONE',  ( 0.000000000000000000, 0.000000000000000000, 153.0000000000000000 ) ) ;
#192 = CIRCLE ( 'NONE', #13, 4.000000000000000000 ) ;
#193 = ORIENTED_EDGE ( 'NONE', *, *, #140, .T. ) ;
#194 = PRODUCT_DEFINITION_FORMATION_WITH_SPECIFIED_SOURCE ( 'LIBOVOLNÝ', '', #130, .NOT_KNOWN. ) ;
#195 = MANIFOLD_SOLID_BREP ( 'Odebrat vysunutím3', #99 ) ;
#196 = CARTESIAN_POINT ( 'NONE',  ( 0.000000000000000000, 0.000000000000000000, 3.000000000000000000 ) ) ;
#197 = EDGE_LOOP ( 'NONE', ( #317, #136, #266, #240 ) ) ;
#198 = DIRECTION ( 'NONE',  ( -0.000000000000000000, -0.000000000000000000, -1.000000000000000000 ) ) ;
#199 = VERTEX_POINT ( 'NONE', #11 ) ;
#200 = CARTESIAN_POINT ( 'NONE',  ( 0.000000000000000000, 0.000000000000000000, 153.0000000000000000 ) ) ;
#201 = AXIS2_PLACEMENT_3D ( 'NONE', #68, #303, #37 ) ;
#202 = EDGE_CURVE ( 'NONE', #57, #40, #44, .T. ) ;
#203 = CARTESIAN_POINT ( 'NONE',  ( 0.000000000000000000, 0.000000000000000000, 0.000000000000000000 ) ) ;
#204 = ORIENTED_EDGE ( 'NONE', *, *, #79, .T. ) ;
#205 = DIRECTION ( 'NONE',  ( 1.000000000000000000, 0.000000000000000000, 0.000000000000000000 ) ) ;
#206 = CARTESIAN_POINT ( 'NONE',  ( -1.100000000000000089, 0.000000000000000000, 0.000000000000000000 ) ) ;
#207 = CYLINDRICAL_SURFACE ( 'NONE', #1, 2.000000000000000000 ) ;
#208 = VECTOR ( 'NONE', #17, 1000.000000000000000 ) ;
#209 = APPROVAL_STATUS ( 'not_yet_approved' ) ;
#210 = DIRECTION ( 'NONE',  ( 1.000000000000000000, 0.000000000000000000, -0.000000000000000000 ) ) ;
#211 = CC_DESIGN_PERSON_AND_ORGANIZATION_ASSIGNMENT ( #335, #34, ( #170 ) ) ;
#212 = LINE ( 'NONE', #61, #250 ) ;
#213 = PERSON_AND_ORGANIZATION_ROLE ( 'design_supplier' ) ;
#214 = EDGE_CURVE ( 'NONE', #199, #254, #192, .T. ) ;
#215 = CIRCLE ( 'NONE', #256, 0.2999999999999999334 ) ;
#216 = PERSON_AND_ORGANIZATION ( #117, #181 ) ;
#217 = CARTESIAN_POINT ( 'NONE',  ( 1.100000000000000089, 1.347111479062088503E-16, 0.000000000000000000 ) ) ;
#218 = DATE_AND_TIME ( #304, #9 ) ;
#219 = DIRECTION ( 'NONE',  ( 0.000000000000000000, 0.000000000000000000, 1.000000000000000000 ) ) ;
#220 = APPROVAL ( #209, 'NEURÈENÝ' ) ;
#221 = AXIS2_PLACEMENT_3D ( 'NONE', #164, #20, #253 ) ;
#222 = FACE_OUTER_BOUND ( 'NONE', #356, .T. ) ;
#223 = EDGE_LOOP ( 'NONE', ( #318, #344, #204, #315 ) ) ;
#224 = DIRECTION ( 'NONE',  ( -1.000000000000000000, 0.000000000000000000, 0.000000000000000000 ) ) ;
#225 = EDGE_LOOP ( 'NONE', ( #145, #365 ) ) ;
#226 = LINE ( 'NONE', #314, #208 ) ;
#227 = EDGE_LOOP ( 'NONE', ( #103, #16 ) ) ;
#228 = EDGE_CURVE ( 'NONE', #86, #126, #226, .T. ) ;
#229 = CYLINDRICAL_SURFACE ( 'NONE', #142, 4.000000000000000000 ) ;
#230 = ORIENTED_EDGE ( 'NONE', *, *, #371, .F. ) ;
#231 = CC_DESIGN_APPROVAL ( #172, ( #170 ) ) ;
#232 = ORIENTED_EDGE ( 'NONE', *, *, #294, .T. ) ;
#233 = ORIENTED_EDGE ( 'NONE', *, *, #64, .F. ) ;
#234 = ADVANCED_FACE ( 'NONE', ( #71 ), #367, .F. ) ;
#235 = DIRECTION ( 'NONE',  ( -0.000000000000000000, -0.000000000000000000, -1.000000000000000000 ) ) ;
#236 = CARTESIAN_POINT ( 'NONE',  ( 0.000000000000000000, 0.000000000000000000, 0.000000000000000000 ) ) ;
#237 = AXIS2_PLACEMENT_3D ( 'NONE', #359, #340, #210 ) ;
#238 = VERTEX_POINT ( 'NONE', #309 ) ;
#239 = CARTESIAN_POINT ( 'NONE',  ( 0.000000000000000000, 0.000000000000000000, 3.299999999999997158 ) ) ;
#240 = ORIENTED_EDGE ( 'NONE', *, *, #79, .F. ) ;
#241 = EDGE_CURVE ( 'NONE', #312, #76, #75, .T. ) ;
#242 = VECTOR ( 'NONE', #63, 1000.000000000000000 ) ;
#243 = DATE_AND_TIME ( #67, #156 ) ;
#244 = DIRECTION ( 'NONE',  ( 0.000000000000000000, 0.000000000000000000, 1.000000000000000000 ) ) ;
#245 = CIRCLE ( 'NONE', #322, 1.100000000000000089 ) ;
#246 = CARTESIAN_POINT ( 'NONE',  ( 0.000000000000000000, 0.000000000000000000, 0.000000000000000000 ) ) ;
#247 = EDGE_CURVE ( 'NONE', #40, #57, #185, .T. ) ;
#248 = DIRECTION ( 'NONE',  ( 0.000000000000000000, 0.000000000000000000, 1.000000000000000000 ) ) ;
#249 = ORIENTED_EDGE ( 'NONE', *, *, #58, .F. ) ;
#250 = VECTOR ( 'NONE', #178, 1000.000000000000000 ) ;
#251 = ORIENTED_EDGE ( 'NONE', *, *, #124, .T. ) ;
#252 = PRODUCT_DEFINITION ( 'NEZNÁMÝ', '', #194, #273 ) ;
#253 = DIRECTION ( 'NONE',  ( 1.000000000000000000, 0.000000000000000000, 0.000000000000000000 ) ) ;
#254 = VERTEX_POINT ( 'NONE', #41 ) ;
#255 = DIRECTION ( 'NONE',  ( 1.000000000000000000, 0.000000000000000000, 0.000000000000000000 ) ) ;
#256 = AXIS2_PLACEMENT_3D ( 'NONE', #7, #184, #66 ) ;
#257 = EDGE_CURVE ( 'NONE', #254, #368, #127, .T. ) ;
#258 = CALENDAR_DATE ( 2022, 10, 7 ) ;
#259 = CARTESIAN_POINT ( 'NONE',  ( 0.000000000000000000, 0.000000000000000000, 0.000000000000000000 ) ) ;
#260 = ORIENTED_EDGE ( 'NONE', *, *, #97, .F. ) ;
#261 = CARTESIAN_POINT ( 'NONE',  ( 4.000000000000000000, 4.898587196589412829E-16, 0.000000000000000000 ) ) ;
#262 = ORIENTED_EDGE ( 'NONE', *, *, #89, .T. ) ;
#263 = AXIS2_PLACEMENT_3D ( 'NONE', #246, #305, #146 ) ;
#264 = APPLICATION_PROTOCOL_DEFINITION ( 'international standard', 'config_control_design', 1994, #141 ) ;
#265 = DIRECTION ( 'NONE',  ( 1.000000000000000000, 0.000000000000000000, 0.000000000000000000 ) ) ;
#266 = ORIENTED_EDGE ( 'NONE', *, *, #290, .T. ) ;
#267 = PERSON_AND_ORGANIZATION ( #117, #181 ) ;
#268 = LINE ( 'NONE', #331, #242 ) ;
#269 = CIRCLE ( 'NONE', #377, 1.100000000000000089 ) ;
#270 = APPROVAL_DATE_TIME ( #301, #376 ) ;
#271 = DIRECTION ( 'NONE',  ( -0.000000000000000000, -0.000000000000000000, -1.000000000000000000 ) ) ;
#272 = FACE_OUTER_BOUND ( 'NONE', #139, .T. ) ;
#273 = DESIGN_CONTEXT ( 'detailed design', #281, 'design' ) ;
#274 = CC_DESIGN_PERSON_AND_ORGANIZATION_ASSIGNMENT ( #358, #213, ( #194 ) ) ;
#275 = DIRECTION ( 'NONE',  ( -0.000000000000000000, -0.000000000000000000, -1.000000000000000000 ) ) ;
#276 = COORDINATED_UNIVERSAL_TIME_OFFSET ( 1, 0, .AHEAD. ) ;
#277 = AXIS2_PLACEMENT_3D ( 'NONE', #236, #83, #265 ) ;
#278 = DIRECTION ( 'NONE',  ( -0.000000000000000000, -0.000000000000000000, -1.000000000000000000 ) ) ;
#279 = EDGE_CURVE ( 'NONE', #86, #238, #245, .T. ) ;
#280 = ORIENTED_EDGE ( 'NONE', *, *, #183, .F. ) ;
#281 = APPLICATION_CONTEXT ( 'configuration controlled 3d designs of mechanical parts and assemblies' ) ;
#282 = ORIENTED_EDGE ( 'NONE', *, *, #279, .F. ) ;
#283 = CARTESIAN_POINT ( 'NONE',  ( 0.000000000000000000, 0.000000000000000000, 3.000000000000000000 ) ) ;
#284 = VERTEX_POINT ( 'NONE', #84 ) ;
#285 = DIRECTION ( 'NONE',  ( -0.000000000000000000, -0.000000000000000000, -1.000000000000000000 ) ) ;
#286 = AXIS2_PLACEMENT_3D ( 'NONE', #200, #171, #23 ) ;
#287 = PLANE ( 'NONE',  #286 ) ;
#288 = ORIENTED_EDGE ( 'NONE', *, *, #97, .T. ) ;
#289 =( NAMED_UNIT ( * ) PLANE_ANGLE_UNIT ( ) SI_UNIT ( $, .RADIAN. ) );
#290 = EDGE_CURVE ( 'NONE', #43, #312, #27, .T. ) ;
#291 = AXIS2_PLACEMENT_3D ( 'NONE', #239, #80, #77 ) ;
#292 = CARTESIAN_POINT ( 'NONE',  ( 0.000000000000000000, 0.000000000000000000, 153.0000000000000000 ) ) ;
#293 = DIRECTION ( 'NONE',  ( -0.000000000000000000, -0.000000000000000000, -1.000000000000000000 ) ) ;
#294 = EDGE_CURVE ( 'NONE', #126, #353, #349, .T. ) ;
#295 = CALENDAR_DATE ( 2022, 10, 7 ) ;
#296 = LINE ( 'NONE', #123, #307 ) ;
#297 = AXIS2_PLACEMENT_3D ( 'NONE', #203, #198, #144 ) ;
#298 = APPROVAL_PERSON_ORGANIZATION ( #357, #220, #60 ) ;
#299 = DATE_TIME_ROLE ( 'creation_date' ) ;
#300 = CARTESIAN_POINT ( 'NONE',  ( -2.299999999999999822, 2.816687638038912056E-16, 2.999999999999998668 ) ) ;
#301 = DATE_AND_TIME ( #148, #373 ) ;
#302 = ADVANCED_BREP_SHAPE_REPRESENTATION ( '8eeb', ( #195, #33 ), #85 ) ;
#303 = DIRECTION ( 'NONE',  ( 0.000000000000000000, 0.000000000000000000, 1.000000000000000000 ) ) ;
#304 = CALENDAR_DATE ( 2022, 10, 7 ) ;
#305 = DIRECTION ( 'NONE',  ( 0.000000000000000000, 0.000000000000000000, 1.000000000000000000 ) ) ;
#306 = CC_DESIGN_DATE_AND_TIME_ASSIGNMENT ( #243, #299, ( #252 ) ) ;
#307 = VECTOR ( 'NONE', #271, 1000.000000000000000 ) ;
#308 = CARTESIAN_POINT ( 'NONE',  ( 4.000000000000000000, 4.898587196589412829E-16, 3.000000000000000000 ) ) ;
#309 = CARTESIAN_POINT ( 'NONE',  ( -1.100000000000000089, 0.000000000000000000, 153.0000000000000000 ) ) ;
#310 = CC_DESIGN_DATE_AND_TIME_ASSIGNMENT ( #218, #338, ( #170 ) ) ;
#311 = CARTESIAN_POINT ( 'NONE',  ( 0.000000000000000000, 0.000000000000000000, 153.0000000000000000 ) ) ;
#312 = VERTEX_POINT ( 'NONE', #378 ) ;
#313 = AXIS2_PLACEMENT_3D ( 'NONE', #186, #275, #105 ) ;
#314 = CARTESIAN_POINT ( 'NONE',  ( 1.100000000000000089, 1.347111479062088503E-16, 153.0000000000000000 ) ) ;
#315 = ORIENTED_EDGE ( 'NONE', *, *, #58, .T. ) ;
#316 = DIRECTION ( 'NONE',  ( -0.000000000000000000, -0.000000000000000000, -1.000000000000000000 ) ) ;
#317 = ORIENTED_EDGE ( 'NONE', *, *, #247, .F. ) ;
#318 = ORIENTED_EDGE ( 'NONE', *, *, #104, .F. ) ;
#319 = ADVANCED_FACE ( 'NONE', ( #321 ), #175, .T. ) ;
#320 = TOROIDAL_SURFACE ( 'NONE', #108, 2.299999999999999822, 0.2999999999999999889 ) ;
#321 = FACE_OUTER_BOUND ( 'NONE', #134, .T. ) ;
#322 = AXIS2_PLACEMENT_3D ( 'NONE', #56, #25, #351 ) ;
#323 = CARTESIAN_POINT ( 'NONE',  ( 0.000000000000000000, 0.000000000000000000, 153.0000000000000000 ) ) ;
#324 = DIRECTION ( 'NONE',  ( -1.000000000000000000, 0.000000000000000000, 0.000000000000000000 ) ) ;
#325 = CARTESIAN_POINT ( 'NONE',  ( 2.000000000000000000, 2.449293598294706414E-16, 153.0000000000000000 ) ) ;
#326 = ADVANCED_FACE ( 'NONE', ( #352 ), #137, .T. ) ;
#327 = DIRECTION ( 'NONE',  ( -1.000000000000000000, 0.000000000000000000, 0.000000000000000000 ) ) ;
#328 = ORIENTED_EDGE ( 'NONE', *, *, #257, .F. ) ;
#329 = FACE_BOUND ( 'NONE', #227, .T. ) ;
#330 = APPLICATION_PROTOCOL_DEFINITION ( 'international standard', 'config_control_design', 1994, #281 ) ;
#331 = CARTESIAN_POINT ( 'NONE',  ( -2.000000000000000000, 0.000000000000000000, 153.0000000000000000 ) ) ;
#332 = CC_DESIGN_PERSON_AND_ORGANIZATION_ASSIGNMENT ( #216, #90, ( #130 ) ) ;
#333 = COORDINATED_UNIVERSAL_TIME_OFFSET ( 1, 0, .AHEAD. ) ;
#334 = PLANE ( 'NONE',  #263 ) ;
#335 = PERSON_AND_ORGANIZATION ( #117, #181 ) ;
#336 = AXIS2_PLACEMENT_3D ( 'NONE', #4, #244, #360 ) ;
#337 = PERSON_AND_ORGANIZATION ( #117, #181 ) ;
#338 = DATE_TIME_ROLE ( 'classification_date' ) ;
#339 = CC_DESIGN_PERSON_AND_ORGANIZATION_ASSIGNMENT ( #151, #2, ( #194 ) ) ;
#340 = DIRECTION ( 'NONE',  ( 0.000000000000000000, 0.000000000000000000, 1.000000000000000000 ) ) ;
#341 = DIRECTION ( 'NONE',  ( 1.000000000000000000, 0.000000000000000000, 0.000000000000000000 ) ) ;
#342 = AXIS2_PLACEMENT_3D ( 'NONE', #96, #248, #107 ) ;
#343 = DIRECTION ( 'NONE',  ( -1.000000000000000000, 0.000000000000000000, 0.000000000000000000 ) ) ;
#344 = ORIENTED_EDGE ( 'NONE', *, *, #202, .F. ) ;
#345 = UNCERTAINTY_MEASURE_WITH_UNIT (LENGTH_MEASURE( 1.000000000000000082E-05 ), #53, 'distance_accuracy_value', 'NONE');
#346 = ORIENTED_EDGE ( 'NONE', *, *, #10, .F. ) ;
#347 = DIRECTION ( 'NONE',  ( 0.000000000000000000, 0.000000000000000000, -1.000000000000000000 ) ) ;
#348 = EDGE_LOOP ( 'NONE', ( #161, #193 ) ) ;
#349 = CIRCLE ( 'NONE', #82, 1.100000000000000089 ) ;
#350 = ORIENTED_EDGE ( 'NONE', *, *, #371, .T. ) ;
#351 = DIRECTION ( 'NONE',  ( 1.000000000000000000, 0.000000000000000000, 0.000000000000000000 ) ) ;
#352 = FACE_OUTER_BOUND ( 'NONE', #197, .T. ) ;
#353 = VERTEX_POINT ( 'NONE', #206 ) ;
#354 = APPROVAL_PERSON_ORGANIZATION ( #38, #172, #48 ) ;
#355 = FACE_OUTER_BOUND ( 'NONE', #369, .T. ) ;
#356 = EDGE_LOOP ( 'NONE', ( #100, #133, #288, #350 ) ) ;
#357 = PERSON_AND_ORGANIZATION ( #117, #181 ) ;
#358 = PERSON_AND_ORGANIZATION ( #117, #181 ) ;
#359 = CARTESIAN_POINT ( 'NONE',  ( 0.000000000000000000, 0.000000000000000000, 3.000000000000000000 ) ) ;
#360 = DIRECTION ( 'NONE',  ( 1.000000000000000000, 0.000000000000000000, 0.000000000000000000 ) ) ;
#361 = AXIS2_PLACEMENT_3D ( 'NONE', #74, #102, #98 ) ;
#362 = COORDINATED_UNIVERSAL_TIME_OFFSET ( 1, 0, .AHEAD. ) ;
#363 = APPROVAL_DATE_TIME ( #24, #172 ) ;
#364 = PRODUCT_RELATED_PRODUCT_CATEGORY ( 'detail', '', ( #130 ) ) ;
#365 = ORIENTED_EDGE ( 'NONE', *, *, #247, .T. ) ;
#366 = AXIS2_PLACEMENT_3D ( 'NONE', #191, #219, #341 ) ;
#367 = CYLINDRICAL_SURFACE ( 'NONE', #147, 1.100000000000000089 ) ;
#368 = VERTEX_POINT ( 'NONE', #261 ) ;
#369 = EDGE_LOOP ( 'NONE', ( #42, #165, #129, #54 ) ) ;
#370 = EDGE_LOOP ( 'NONE', ( #346, #190 ) ) ;
#371 = EDGE_CURVE ( 'NONE', #353, #126, #55, .T. ) ;
#372 = CIRCLE ( 'NONE', #313, 2.299999999999999822 ) ;
#373 = LOCAL_TIME ( 11, 19, 5.000000000000000000, #121 ) ;
#374 = ORIENTED_EDGE ( 'NONE', *, *, #214, .F. ) ;
#375 = CARTESIAN_POINT ( 'NONE',  ( 2.000000000000000000, 2.449293598294706414E-16, 3.299999999999997158 ) ) ;
#376 = APPROVAL ( #6, 'NEURÈENÝ' ) ;
#377 = AXIS2_PLACEMENT_3D ( 'NONE', #47, #379, #168 ) ;
#378 = CARTESIAN_POINT ( 'NONE',  ( -2.000000000000000000, 0.000000000000000000, 3.299999999999997158 ) ) ;
#379 = DIRECTION ( 'NONE',  ( 0.000000000000000000, 0.000000000000000000, 1.000000000000000000 ) ) ;
#380 = DIRECTION ( 'NONE',  ( 1.000000000000000000, 0.000000000000000000, 0.000000000000000000 ) ) ;
#381 = APPROVAL_ROLE ( '' ) ;
ENDSEC;
END-ISO-10303-21;
