ISO-10303-21;
HEADER;
FILE_DESCRIPTION (( 'STEP AP203' ),
    '1' );
FILE_NAME ('db56.STEP',
    '2022-07-10T09:11:26',
    ( '' ),
    ( '' ),
    'SwSTEP 2.0',
    'SolidWorks 2019',
    '' );
FILE_SCHEMA (( 'CONFIG_CONTROL_DESIGN' ));
ENDSEC;

DATA;
#1 = CARTESIAN_POINT ( 'NONE',  ( 0.000000000000000000, 0.000000000000000000, 0.000000000000000000 ) ) ;
#2 = CARTESIAN_POINT ( 'NONE',  ( 0.000000000000000000, 0.000000000000000000, 5.500000000000005329 ) ) ;
#3 = EDGE_CURVE ( 'NONE', #164, #232, #114, .T. ) ;
#4 = PRODUCT_DEFINITION_SHAPE ( 'NONE', 'NONE',  #155 ) ;
#5 = CARTESIAN_POINT ( 'NONE',  ( 2.250000000000000000, 2.755455298081544285E-16, 0.000000000000000000 ) ) ;
#6 = CC_DESIGN_SECURITY_CLASSIFICATION ( #29, ( #41 ) ) ;
#7 = ORIENTED_EDGE ( 'NONE', *, *, #86, .F. ) ;
#8 = FACE_OUTER_BOUND ( 'NONE', #113, .T. ) ;
#9 = EDGE_CURVE ( 'NONE', #285, #375, #76, .T. ) ;
#10 = FACE_OUTER_BOUND ( 'NONE', #84, .T. ) ;
#11 = CYLINDRICAL_SURFACE ( 'NONE', #72, 4.000000000000000000 ) ;
#12 = LOCAL_TIME ( 11, 11, 26.00000000000000000, #184 ) ;
#13 = VERTEX_POINT ( 'NONE', #290 ) ;
#14 = CIRCLE ( 'NONE', #360, 2.250000000000000000 ) ;
#15 = DIRECTION ( 'NONE',  ( 0.000000000000000000, 0.000000000000000000, 1.000000000000000000 ) ) ;
#16 = CYLINDRICAL_SURFACE ( 'NONE', #153, 2.250000000000000000 ) ;
#17 = EDGE_CURVE ( 'NONE', #80, #139, #340, .T. ) ;
#18 = DIRECTION ( 'NONE',  ( 1.000000000000000000, 0.000000000000000000, 0.000000000000000000 ) ) ;
#19 = LINE ( 'NONE', #69, #260 ) ;
#20 = ORIENTED_EDGE ( 'NONE', *, *, #276, .F. ) ;
#21 = CARTESIAN_POINT ( 'NONE',  ( 0.000000000000000000, 0.000000000000000000, 0.000000000000000000 ) ) ;
#22 = LOCAL_TIME ( 11, 11, 26.00000000000000000, #39 ) ;
#23 = ORIENTED_EDGE ( 'NONE', *, *, #115, .T. ) ;
#24 = DIRECTION ( 'NONE',  ( -0.000000000000000000, -0.000000000000000000, -1.000000000000000000 ) ) ;
#25 = ORIENTED_EDGE ( 'NONE', *, *, #9, .T. ) ;
#26 = CARTESIAN_POINT ( 'NONE',  ( 0.000000000000000000, 0.000000000000000000, 130.0000000000000000 ) ) ;
#27 = APPROVAL_STATUS ( 'not_yet_approved' ) ;
#28 = ORIENTED_EDGE ( 'NONE', *, *, #142, .T. ) ;
#29 = SECURITY_CLASSIFICATION ( '', '', #341 ) ;
#30 = AXIS2_PLACEMENT_3D ( 'NONE', #188, #191, #157 ) ;
#31 = PERSON_AND_ORGANIZATION ( #97, #186 ) ;
#32 = DIRECTION ( 'NONE',  ( -0.000000000000000000, -0.000000000000000000, -1.000000000000000000 ) ) ;
#33 = DATE_AND_TIME ( #210, #12 ) ;
#34 = APPROVAL ( #239, 'NEURÈENÝ' ) ;
#35 = DIRECTION ( 'NONE',  ( 1.000000000000000000, 0.000000000000000000, 0.000000000000000000 ) ) ;
#36 = CARTESIAN_POINT ( 'NONE',  ( 4.500000000000000888, 0.000000000000000000, 5.500000000000005329 ) ) ;
#37 = CIRCLE ( 'NONE', #266, 2.250000000000000000 ) ;
#38 = EDGE_CURVE ( 'NONE', #110, #13, #150, .T. ) ;
#39 = COORDINATED_UNIVERSAL_TIME_OFFSET ( 1, 0, .AHEAD. ) ;
#40 = ORIENTED_EDGE ( 'NONE', *, *, #218, .T. ) ;
#41 = PRODUCT_DEFINITION_FORMATION_WITH_SPECIFIED_SOURCE ( 'LIBOVOLNÝ', '', #66, .NOT_KNOWN. ) ;
#42 = EDGE_CURVE ( 'NONE', #13, #110, #37, .T. ) ;
#43 = CARTESIAN_POINT ( 'NONE',  ( 0.000000000000000000, 0.000000000000000000, 130.0000000000000000 ) ) ;
#44 = CARTESIAN_POINT ( 'NONE',  ( 0.000000000000000000, 0.000000000000000000, 5.000000000000000000 ) ) ;
#45 = CARTESIAN_POINT ( 'NONE',  ( 0.000000000000000000, 0.000000000000000000, 130.0000000000000000 ) ) ;
#46 =( GEOMETRIC_REPRESENTATION_CONTEXT ( 3 ) GLOBAL_UNCERTAINTY_ASSIGNED_CONTEXT ( ( #366 ) ) GLOBAL_UNIT_ASSIGNED_CONTEXT ( ( #288, #85, #231 ) ) REPRESENTATION_CONTEXT ( 'NONE', 'WORKASPACE' ) );
#47 = DIRECTION ( 'NONE',  ( -0.000000000000000000, -0.000000000000000000, -1.000000000000000000 ) ) ;
#48 = ORIENTED_EDGE ( 'NONE', *, *, #64, .F. ) ;
#49 = ADVANCED_FACE ( 'NONE', ( #92 ), #212, .F. ) ;
#50 = DIRECTION ( 'NONE',  ( 0.000000000000000000, 0.000000000000000000, 1.000000000000000000 ) ) ;
#51 = ORIENTED_EDGE ( 'NONE', *, *, #105, .F. ) ;
#52 = PERSON_AND_ORGANIZATION ( #97, #186 ) ;
#53 = ORIENTED_EDGE ( 'NONE', *, *, #343, .F. ) ;
#54 = DATE_AND_TIME ( #286, #267 ) ;
#55 = MANIFOLD_SOLID_BREP ( 'Odebrat vysunutím3', #317 ) ;
#56 = ORIENTED_EDGE ( 'NONE', *, *, #359, .T. ) ;
#57 = CIRCLE ( 'NONE', #355, 4.000000000000000000 ) ;
#58 = DIRECTION ( 'NONE',  ( 1.000000000000000000, 0.000000000000000000, 0.000000000000000000 ) ) ;
#59 = CARTESIAN_POINT ( 'NONE',  ( 7.000000000000000000, 8.572527594031473190E-16, 5.000000000000000000 ) ) ;
#60 = VERTEX_POINT ( 'NONE', #328 ) ;
#61 = PERSON_AND_ORGANIZATION ( #97, #186 ) ;
#62 = CIRCLE ( 'NONE', #279, 7.000000000000000000 ) ;
#63 = AXIS2_PLACEMENT_3D ( 'NONE', #250, #50, #253 ) ;
#64 = EDGE_CURVE ( 'NONE', #167, #60, #251, .T. ) ;
#65 = CARTESIAN_POINT ( 'NONE',  ( -4.000000000000000000, 0.000000000000000000, 5.500000000000005329 ) ) ;
#66 = PRODUCT ( 'db56', 'db56', '', ( #316 ) ) ;
#67 = AXIS2_PLACEMENT_3D ( 'NONE', #36, #152, #326 ) ;
#68 = DIRECTION ( 'NONE',  ( -1.000000000000000000, 1.224646799147351482E-16, 0.000000000000000000 ) ) ;
#69 = CARTESIAN_POINT ( 'NONE',  ( -2.250000000000000000, 0.000000000000000000, 130.0000000000000000 ) ) ;
#70 = DIRECTION ( 'NONE',  ( 0.000000000000000000, 0.000000000000000000, 1.000000000000000000 ) ) ;
#71 = LINE ( 'NONE', #129, #245 ) ;
#72 = AXIS2_PLACEMENT_3D ( 'NONE', #43, #190, #74 ) ;
#73 = DIRECTION ( 'NONE',  ( 0.000000000000000000, 0.000000000000000000, 1.000000000000000000 ) ) ;
#74 = DIRECTION ( 'NONE',  ( -1.000000000000000000, 0.000000000000000000, 0.000000000000000000 ) ) ;
#75 = DIRECTION ( 'NONE',  ( 0.000000000000000000, 0.000000000000000000, 1.000000000000000000 ) ) ;
#76 = CIRCLE ( 'NONE', #185, 2.250000000000000000 ) ;
#77 = DIRECTION ( 'NONE',  ( 0.000000000000000000, 0.000000000000000000, 1.000000000000000000 ) ) ;
#78 = ORIENTED_EDGE ( 'NONE', *, *, #315, .T. ) ;
#79 = APPROVAL_STATUS ( 'not_yet_approved' ) ;
#80 = VERTEX_POINT ( 'NONE', #65 ) ;
#81 = DIRECTION ( 'NONE',  ( 1.000000000000000000, 0.000000000000000000, -0.000000000000000000 ) ) ;
#82 = CIRCLE ( 'NONE', #297, 4.000000000000000000 ) ;
#83 = AXIS2_PLACEMENT_3D ( 'NONE', #45, #73, #336 ) ;
#84 = EDGE_LOOP ( 'NONE', ( #361, #95, #202, #345 ) ) ;
#85 =( NAMED_UNIT ( * ) PLANE_ANGLE_UNIT ( ) SI_UNIT ( $, .RADIAN. ) );
#86 = EDGE_CURVE ( 'NONE', #139, #80, #82, .T. ) ;
#87 = VERTEX_POINT ( 'NONE', #209 ) ;
#88 = APPROVAL_ROLE ( '' ) ;
#89 = EDGE_LOOP ( 'NONE', ( #53, #173, #377, #56 ) ) ;
#90 = EDGE_CURVE ( 'NONE', #139, #167, #233, .T. ) ;
#91 = CARTESIAN_POINT ( 'NONE',  ( -7.000000000000000000, 0.000000000000000000, 5.000000000000000000 ) ) ;
#92 = FACE_OUTER_BOUND ( 'NONE', #318, .T. ) ;
#93 = DIRECTION ( 'NONE',  ( 1.000000000000000000, 0.000000000000000000, 0.000000000000000000 ) ) ;
#94 = AXIS2_PLACEMENT_3D ( 'NONE', #257, #304, #106 ) ;
#95 = ORIENTED_EDGE ( 'NONE', *, *, #207, .F. ) ;
#96 = CC_DESIGN_DATE_AND_TIME_ASSIGNMENT ( #327, #215, ( #29 ) ) ;
#97 = PERSON ( 'NEURÈENÝ', 'NEURÈENÝ', 'NEURÈENÝ', ('NEURÈENÝ'), ('NEURÈENÝ'), ('NEURÈENÝ') ) ;
#98 = DIRECTION ( 'NONE',  ( 1.000000000000000000, 0.000000000000000000, 0.000000000000000000 ) ) ;
#99 = DIRECTION ( 'NONE',  ( 1.000000000000000000, 0.000000000000000000, 0.000000000000000000 ) ) ;
#100 = ORIENTED_EDGE ( 'NONE', *, *, #276, .T. ) ;
#101 = AXIS2_PLACEMENT_3D ( 'NONE', #278, #367, #81 ) ;
#102 = CARTESIAN_POINT ( 'NONE',  ( 0.000000000000000000, 0.000000000000000000, 130.0000000000000000 ) ) ;
#103 = EDGE_LOOP ( 'NONE', ( #119, #51 ) ) ;
#104 = APPLICATION_CONTEXT ( 'configuration controlled 3d designs of mechanical parts and assemblies' ) ;
#105 = EDGE_CURVE ( 'NONE', #87, #232, #62, .T. ) ;
#106 = DIRECTION ( 'NONE',  ( -1.000000000000000000, 0.000000000000000000, 0.000000000000000000 ) ) ;
#107 = ORIENTED_EDGE ( 'NONE', *, *, #134, .F. ) ;
#108 = CARTESIAN_POINT ( 'NONE',  ( 0.000000000000000000, 0.000000000000000000, 5.000000000000000000 ) ) ;
#109 = CARTESIAN_POINT ( 'NONE',  ( 4.000000000000000000, 4.898587196589412829E-16, 130.0000000000000000 ) ) ;
#110 = VERTEX_POINT ( 'NONE', #5 ) ;
#111 = VECTOR ( 'NONE', #373, 1000.000000000000000 ) ;
#112 = APPROVAL_DATE_TIME ( #351, #126 ) ;
#113 = EDGE_LOOP ( 'NONE', ( #287, #199, #311, #261 ) ) ;
#114 = LINE ( 'NONE', #138, #111 ) ;
#115 = EDGE_CURVE ( 'NONE', #255, #342, #57, .T. ) ;
#116 = COORDINATED_UNIVERSAL_TIME_OFFSET ( 1, 0, .AHEAD. ) ;
#117 = VERTEX_POINT ( 'NONE', #131 ) ;
#118 = DIRECTION ( 'NONE',  ( 0.000000000000000000, 0.000000000000000000, 1.000000000000000000 ) ) ;
#119 = ORIENTED_EDGE ( 'NONE', *, *, #359, .F. ) ;
#120 = PERSON_AND_ORGANIZATION_ROLE ( 'design_owner' ) ;
#121 = DIRECTION ( 'NONE',  ( 0.000000000000000000, 0.000000000000000000, 1.000000000000000000 ) ) ;
#122 = PERSON_AND_ORGANIZATION ( #97, #186 ) ;
#123 = APPLICATION_CONTEXT ( 'configuration controlled 3d designs of mechanical parts and assemblies' ) ;
#124 = DIRECTION ( 'NONE',  ( 1.000000000000000000, 0.000000000000000000, 0.000000000000000000 ) ) ;
#125 = CARTESIAN_POINT ( 'NONE',  ( 4.000000000000000000, 4.898587196589412829E-16, 5.500000000000005329 ) ) ;
#126 = APPROVAL ( #27, 'NEURÈENÝ' ) ;
#127 = FACE_OUTER_BOUND ( 'NONE', #347, .T. ) ;
#128 = DIRECTION ( 'NONE',  ( -1.000000000000000000, 0.000000000000000000, 0.000000000000000000 ) ) ;
#129 = CARTESIAN_POINT ( 'NONE',  ( 2.250000000000000000, 2.755455298081544285E-16, 130.0000000000000000 ) ) ;
#130 = FACE_OUTER_BOUND ( 'NONE', #103, .T. ) ;
#131 = CARTESIAN_POINT ( 'NONE',  ( 7.000000000000000000, 8.572527594031473190E-16, 5.000000000000000000 ) ) ;
#132 = DIRECTION ( 'NONE',  ( 0.000000000000000000, 0.000000000000000000, -1.000000000000000000 ) ) ;
#133 = FACE_OUTER_BOUND ( 'NONE', #365, .T. ) ;
#134 = EDGE_CURVE ( 'NONE', #285, #13, #19, .T. ) ;
#135 = EDGE_LOOP ( 'NONE', ( #322, #194, #292, #350 ) ) ;
#136 = APPROVAL_PERSON_ORGANIZATION ( #313, #126, #268 ) ;
#137 = PRODUCT_RELATED_PRODUCT_CATEGORY ( 'detail', '', ( #66 ) ) ;
#138 = CARTESIAN_POINT ( 'NONE',  ( -7.000000000000000000, 0.000000000000000000, 5.000000000000000000 ) ) ;
#139 = VERTEX_POINT ( 'NONE', #125 ) ;
#140 = LINE ( 'NONE', #169, #151 ) ;
#141 = ORIENTED_EDGE ( 'NONE', *, *, #218, .F. ) ;
#142 = EDGE_CURVE ( 'NONE', #80, #60, #299, .T. ) ;
#143 = CC_DESIGN_APPROVAL ( #34, ( #29 ) ) ;
#144 = ORIENTED_EDGE ( 'NONE', *, *, #38, .F. ) ;
#145 = PERSON_AND_ORGANIZATION_ROLE ( 'design_supplier' ) ;
#146 = DIRECTION ( 'NONE',  ( 1.000000000000000000, 0.000000000000000000, 0.000000000000000000 ) ) ;
#147 = CALENDAR_DATE ( 2022, 10, 7 ) ;
#148 = EDGE_CURVE ( 'NONE', #342, #80, #300, .T. ) ;
#149 = CARTESIAN_POINT ( 'NONE',  ( 0.000000000000000000, 0.000000000000000000, 0.000000000000000000 ) ) ;
#150 = CIRCLE ( 'NONE', #362, 2.250000000000000000 ) ;
#151 = VECTOR ( 'NONE', #24, 1000.000000000000000 ) ;
#152 = DIRECTION ( 'NONE',  ( 0.000000000000000000, -1.000000000000000000, 0.000000000000000000 ) ) ;
#153 = AXIS2_PLACEMENT_3D ( 'NONE', #338, #132, #333 ) ;
#154 = SHAPE_DEFINITION_REPRESENTATION ( #4, #357 ) ;
#155 = PRODUCT_DEFINITION ( 'NEZNÁMÝ', '', #41, #222 ) ;
#156 = AXIS2_PLACEMENT_3D ( 'NONE', #44, #15, #303 ) ;
#157 = DIRECTION ( 'NONE',  ( -1.000000000000000000, 0.000000000000000000, 0.000000000000000000 ) ) ;
#158 = DIRECTION ( 'NONE',  ( 1.000000000000000000, 0.000000000000000000, 0.000000000000000000 ) ) ;
#159 = FACE_BOUND ( 'NONE', #269, .T. ) ;
#160 = PLANE ( 'NONE',  #101 ) ;
#161 = ORIENTED_EDGE ( 'NONE', *, *, #42, .F. ) ;
#162 = APPROVAL_PERSON_ORGANIZATION ( #122, #34, #273 ) ;
#163 = DIRECTION ( 'NONE',  ( 1.000000000000000000, 0.000000000000000000, 0.000000000000000000 ) ) ;
#164 = VERTEX_POINT ( 'NONE', #91 ) ;
#165 = ADVANCED_FACE ( 'NONE', ( #195 ), #264, .T. ) ;
#166 = CYLINDRICAL_SURFACE ( 'NONE', #94, 4.000000000000000000 ) ;
#167 = VERTEX_POINT ( 'NONE', #224 ) ;
#168 = CC_DESIGN_PERSON_AND_ORGANIZATION_ASSIGNMENT ( #180, #295, ( #29 ) ) ;
#169 = CARTESIAN_POINT ( 'NONE',  ( 4.000000000000000000, 4.898587196589412829E-16, 130.0000000000000000 ) ) ;
#170 = ORIENTED_EDGE ( 'NONE', *, *, #38, .T. ) ;
#171 = AXIS2_PLACEMENT_3D ( 'NONE', #270, #118, #374 ) ;
#172 = CALENDAR_DATE ( 2022, 10, 7 ) ;
#173 = ORIENTED_EDGE ( 'NONE', *, *, #315, .F. ) ;
#174 = ORIENTED_EDGE ( 'NONE', *, *, #17, .F. ) ;
#175 = DIRECTION ( 'NONE',  ( 1.000000000000000000, 0.000000000000000000, 0.000000000000000000 ) ) ;
#176 = ORIENTED_EDGE ( 'NONE', *, *, #226, .T. ) ;
#177 = PERSON_AND_ORGANIZATION_ROLE ( 'creator' ) ;
#178 = AXIS2_PLACEMENT_3D ( 'NONE', #330, #294, #35 ) ;
#179 = CC_DESIGN_APPROVAL ( #301, ( #155 ) ) ;
#180 = PERSON_AND_ORGANIZATION ( #97, #186 ) ;
#181 = ADVANCED_FACE ( 'NONE', ( #256 ), #16, .F. ) ;
#182 = ADVANCED_FACE ( 'NONE', ( #339 ), #337, .F. ) ;
#183 = CARTESIAN_POINT ( 'NONE',  ( 0.000000000000000000, 0.000000000000000000, 5.000000000000000000 ) ) ;
#184 = COORDINATED_UNIVERSAL_TIME_OFFSET ( 1, 0, .AHEAD. ) ;
#185 = AXIS2_PLACEMENT_3D ( 'NONE', #26, #121, #58 ) ;
#186 = ORGANIZATION ( 'NEURÈENÝ', 'NEURÈENÝ', '' ) ;
#187 = CIRCLE ( 'NONE', #308, 4.000000000000000000 ) ;
#188 = CARTESIAN_POINT ( 'NONE',  ( 0.000000000000000000, 0.000000000000000000, 5.000000000000000000 ) ) ;
#189 = LOCAL_TIME ( 11, 11, 26.00000000000000000, #380 ) ;
#190 = DIRECTION ( 'NONE',  ( -0.000000000000000000, -0.000000000000000000, -1.000000000000000000 ) ) ;
#191 = DIRECTION ( 'NONE',  ( -0.000000000000000000, -0.000000000000000000, -1.000000000000000000 ) ) ;
#192 = FACE_BOUND ( 'NONE', #265, .T. ) ;
#193 = CARTESIAN_POINT ( 'NONE',  ( -2.250000000000000000, 0.000000000000000000, 130.0000000000000000 ) ) ;
#194 = ORIENTED_EDGE ( 'NONE', *, *, #343, .T. ) ;
#195 = FACE_OUTER_BOUND ( 'NONE', #89, .T. ) ;
#196 = CC_DESIGN_DATE_AND_TIME_ASSIGNMENT ( #200, #321, ( #155 ) ) ;
#197 = EDGE_LOOP ( 'NONE', ( #78, #230 ) ) ;
#198 = PERSON_AND_ORGANIZATION_ROLE ( 'creator' ) ;
#199 = ORIENTED_EDGE ( 'NONE', *, *, #349, .T. ) ;
#200 = DATE_AND_TIME ( #172, #307 ) ;
#201 = ADVANCED_FACE ( 'NONE', ( #254 ), #225, .T. ) ;
#202 = ORIENTED_EDGE ( 'NONE', *, *, #148, .T. ) ;
#203 = APPLICATION_PROTOCOL_DEFINITION ( 'international standard', 'config_control_design', 1994, #104 ) ;
#204 = ORIENTED_EDGE ( 'NONE', *, *, #134, .T. ) ;
#205 = DIRECTION ( 'NONE',  ( 0.000000000000000000, 0.000000000000000000, 1.000000000000000000 ) ) ;
#206 = DIRECTION ( 'NONE',  ( 0.000000000000000000, 0.000000000000000000, 1.000000000000000000 ) ) ;
#207 = EDGE_CURVE ( 'NONE', #342, #255, #187, .T. ) ;
#208 = CC_DESIGN_PERSON_AND_ORGANIZATION_ASSIGNMENT ( #31, #145, ( #41 ) ) ;
#209 = CARTESIAN_POINT ( 'NONE',  ( 7.000000000000000000, 8.572527594031473190E-16, 0.000000000000000000 ) ) ;
#210 = CALENDAR_DATE ( 2022, 10, 7 ) ;
#211 = DIRECTION ( 'NONE',  ( 1.224646799147353207E-16, 1.000000000000000000, -0.000000000000000000 ) ) ;
#212 = TOROIDAL_SURFACE ( 'NONE', #178, 4.500000000000000888, 0.5000000000000000000 ) ;
#213 = CIRCLE ( 'NONE', #156, 7.000000000000000000 ) ;
#214 = AXIS2_PLACEMENT_3D ( 'NONE', #244, #211, #68 ) ;
#215 = DATE_TIME_ROLE ( 'classification_date' ) ;
#216 = CARTESIAN_POINT ( 'NONE',  ( 0.000000000000000000, 0.000000000000000000, 130.0000000000000000 ) ) ;
#217 = PLANE ( 'NONE',  #83 ) ;
#218 = EDGE_CURVE ( 'NONE', #375, #285, #14, .T. ) ;
#219 = DIRECTION ( 'NONE',  ( 0.000000000000000000, 0.000000000000000000, -1.000000000000000000 ) ) ;
#220 = CC_DESIGN_APPROVAL ( #126, ( #41 ) ) ;
#221 = DIRECTION ( 'NONE',  ( 1.000000000000000000, 0.000000000000000000, -0.000000000000000000 ) ) ;
#222 = DESIGN_CONTEXT ( 'detailed design', #104, 'design' ) ;
#223 = DIRECTION ( 'NONE',  ( 0.000000000000000000, 0.000000000000000000, 1.000000000000000000 ) ) ;
#224 = CARTESIAN_POINT ( 'NONE',  ( 4.500000000000000888, 0.000000000000000000, 5.000000000000002665 ) ) ;
#225 = CYLINDRICAL_SURFACE ( 'NONE', #30, 7.000000000000000000 ) ;
#226 = EDGE_CURVE ( 'NONE', #375, #110, #71, .T. ) ;
#227 = AXIS2_PLACEMENT_3D ( 'NONE', #183, #356, #124 ) ;
#228 = ORIENTED_EDGE ( 'NONE', *, *, #90, .F. ) ;
#229 = CARTESIAN_POINT ( 'NONE',  ( 2.250000000000000000, 2.755455298081544285E-16, 130.0000000000000000 ) ) ;
#230 = ORIENTED_EDGE ( 'NONE', *, *, #293, .T. ) ;
#231 =( NAMED_UNIT ( * ) SI_UNIT ( $, .STERADIAN. ) SOLID_ANGLE_UNIT ( ) );
#232 = VERTEX_POINT ( 'NONE', #281 ) ;
#233 = CIRCLE ( 'NONE', #67, 0.5000000000000004441 ) ;
#234 = APPLICATION_PROTOCOL_DEFINITION ( 'international standard', 'config_control_design', 1994, #123 ) ;
#235 = ORIENTED_EDGE ( 'NONE', *, *, #142, .F. ) ;
#236 = CALENDAR_DATE ( 2022, 10, 7 ) ;
#237 = ADVANCED_FACE ( 'NONE', ( #8 ), #166, .T. ) ;
#238 = DIRECTION ( 'NONE',  ( 0.000000000000000000, 0.000000000000000000, 1.000000000000000000 ) ) ;
#239 = APPROVAL_STATUS ( 'not_yet_approved' ) ;
#240 = DIRECTION ( 'NONE',  ( -0.000000000000000000, -0.000000000000000000, -1.000000000000000000 ) ) ;
#241 = CC_DESIGN_PERSON_AND_ORGANIZATION_ASSIGNMENT ( #61, #177, ( #41 ) ) ;
#242 = DIRECTION ( 'NONE',  ( 0.000000000000000000, 0.000000000000000000, 1.000000000000000000 ) ) ;
#243 = DIRECTION ( 'NONE',  ( 0.000000000000000000, 0.000000000000000000, -1.000000000000000000 ) ) ;
#244 = CARTESIAN_POINT ( 'NONE',  ( -4.500000000000000888, 5.510910596163089556E-16, 5.500000000000005329 ) ) ;
#245 = VECTOR ( 'NONE', #305, 1000.000000000000000 ) ;
#246 = ADVANCED_FACE ( 'NONE', ( #127 ), #363, .F. ) ;
#247 = DIRECTION ( 'NONE',  ( 1.000000000000000000, 0.000000000000000000, 0.000000000000000000 ) ) ;
#248 = ORIENTED_EDGE ( 'NONE', *, *, #226, .F. ) ;
#249 = ADVANCED_FACE ( 'NONE', ( #192, #130 ), #368, .F. ) ;
#250 = CARTESIAN_POINT ( 'NONE',  ( 0.000000000000000000, 0.000000000000000000, 5.500000000000005329 ) ) ;
#251 = CIRCLE ( 'NONE', #227, 4.500000000000000888 ) ;
#252 = AXIS2_PLACEMENT_3D ( 'NONE', #306, #47, #98 ) ;
#253 = DIRECTION ( 'NONE',  ( 1.000000000000000000, 0.000000000000000000, 0.000000000000000000 ) ) ;
#254 = FACE_OUTER_BOUND ( 'NONE', #135, .T. ) ;
#255 = VERTEX_POINT ( 'NONE', #109 ) ;
#256 = FACE_OUTER_BOUND ( 'NONE', #324, .T. ) ;
#257 = CARTESIAN_POINT ( 'NONE',  ( 0.000000000000000000, 0.000000000000000000, 130.0000000000000000 ) ) ;
#258 = ORIENTED_EDGE ( 'NONE', *, *, #90, .T. ) ;
#259 = AXIS2_PLACEMENT_3D ( 'NONE', #352, #238, #146 ) ;
#260 = VECTOR ( 'NONE', #243, 1000.000000000000000 ) ;
#261 = ORIENTED_EDGE ( 'NONE', *, *, #148, .F. ) ;
#262 = PERSON_AND_ORGANIZATION ( #97, #186 ) ;
#263 = ORIENTED_EDGE ( 'NONE', *, *, #9, .F. ) ;
#264 = CYLINDRICAL_SURFACE ( 'NONE', #320, 7.000000000000000000 ) ;
#265 = EDGE_LOOP ( 'NONE', ( #161, #144 ) ) ;
#266 = AXIS2_PLACEMENT_3D ( 'NONE', #149, #354, #296 ) ;
#267 = LOCAL_TIME ( 11, 11, 26.00000000000000000, #291 ) ;
#268 = APPROVAL_ROLE ( '' ) ;
#269 = EDGE_LOOP ( 'NONE', ( #282, #100 ) ) ;
#270 = CARTESIAN_POINT ( 'NONE',  ( 0.000000000000000000, 0.000000000000000000, 0.000000000000000000 ) ) ;
#271 = CC_DESIGN_PERSON_AND_ORGANIZATION_ASSIGNMENT ( #262, #198, ( #155 ) ) ;
#272 = DIRECTION ( 'NONE',  ( 1.000000000000000000, 0.000000000000000000, 0.000000000000000000 ) ) ;
#273 = APPROVAL_ROLE ( '' ) ;
#274 = CARTESIAN_POINT ( 'NONE',  ( 0.000000000000000000, 0.000000000000000000, 0.000000000000000000 ) ) ;
#275 = CARTESIAN_POINT ( 'NONE',  ( 0.000000000000000000, 0.000000000000000000, 130.0000000000000000 ) ) ;
#276 = EDGE_CURVE ( 'NONE', #60, #167, #319, .T. ) ;
#277 = FACE_OUTER_BOUND ( 'NONE', #197, .T. ) ;
#278 = CARTESIAN_POINT ( 'NONE',  ( 0.000000000000000000, 0.000000000000000000, 5.000000000000000000 ) ) ;
#279 = AXIS2_PLACEMENT_3D ( 'NONE', #274, #206, #99 ) ;
#280 = VECTOR ( 'NONE', #240, 1000.000000000000000 ) ;
#281 = CARTESIAN_POINT ( 'NONE',  ( -7.000000000000000000, 0.000000000000000000, 0.000000000000000000 ) ) ;
#282 = ORIENTED_EDGE ( 'NONE', *, *, #64, .T. ) ;
#283 = DIRECTION ( 'NONE',  ( -0.000000000000000000, -0.000000000000000000, -1.000000000000000000 ) ) ;
#284 = FACE_BOUND ( 'NONE', #314, .T. ) ;
#285 = VERTEX_POINT ( 'NONE', #193 ) ;
#286 = CALENDAR_DATE ( 2022, 10, 7 ) ;
#287 = ORIENTED_EDGE ( 'NONE', *, *, #115, .F. ) ;
#288 =( LENGTH_UNIT ( ) NAMED_UNIT ( * ) SI_UNIT ( .MILLI., .METRE. ) );
#289 = ORIENTED_EDGE ( 'NONE', *, *, #207, .T. ) ;
#290 = CARTESIAN_POINT ( 'NONE',  ( -2.250000000000000000, 0.000000000000000000, 0.000000000000000000 ) ) ;
#291 = COORDINATED_UNIVERSAL_TIME_OFFSET ( 1, 0, .AHEAD. ) ;
#292 = ORIENTED_EDGE ( 'NONE', *, *, #105, .T. ) ;
#293 = EDGE_CURVE ( 'NONE', #117, #164, #348, .T. ) ;
#294 = DIRECTION ( 'NONE',  ( 0.000000000000000000, 0.000000000000000000, 1.000000000000000000 ) ) ;
#295 = PERSON_AND_ORGANIZATION_ROLE ( 'classification_officer' ) ;
#296 = DIRECTION ( 'NONE',  ( 1.000000000000000000, 0.000000000000000000, 0.000000000000000000 ) ) ;
#297 = AXIS2_PLACEMENT_3D ( 'NONE', #2, #242, #93 ) ;
#298 = CIRCLE ( 'NONE', #171, 7.000000000000000000 ) ;
#299 = CIRCLE ( 'NONE', #214, 0.5000000000000004441 ) ;
#300 = LINE ( 'NONE', #353, #280 ) ;
#301 = APPROVAL ( #79, 'NEURÈENÝ' ) ;
#302 = APPROVAL_PERSON_ORGANIZATION ( #52, #301, #88 ) ;
#303 = DIRECTION ( 'NONE',  ( 1.000000000000000000, 0.000000000000000000, 0.000000000000000000 ) ) ;
#304 = DIRECTION ( 'NONE',  ( -0.000000000000000000, -0.000000000000000000, -1.000000000000000000 ) ) ;
#305 = DIRECTION ( 'NONE',  ( 0.000000000000000000, 0.000000000000000000, -1.000000000000000000 ) ) ;
#306 = CARTESIAN_POINT ( 'NONE',  ( 0.000000000000000000, 0.000000000000000000, 5.000000000000000000 ) ) ;
#307 = LOCAL_TIME ( 11, 11, 26.00000000000000000, #116 ) ;
#308 = AXIS2_PLACEMENT_3D ( 'NONE', #275, #75, #247 ) ;
#309 = DIRECTION ( 'NONE',  ( -1.000000000000000000, 0.000000000000000000, 0.000000000000000000 ) ) ;
#310 = DIRECTION ( 'NONE',  ( 0.000000000000000000, 0.000000000000000000, 1.000000000000000000 ) ) ;
#311 = ORIENTED_EDGE ( 'NONE', *, *, #86, .T. ) ;
#312 = ADVANCED_FACE ( 'NONE', ( #284, #133 ), #217, .T. ) ;
#313 = PERSON_AND_ORGANIZATION ( #97, #186 ) ;
#314 = EDGE_LOOP ( 'NONE', ( #263, #141 ) ) ;
#315 = EDGE_CURVE ( 'NONE', #164, #117, #213, .T. ) ;
#316 = MECHANICAL_CONTEXT ( 'NONE', #123, 'mechanical' ) ;
#317 = CLOSED_SHELL ( 'NONE', ( #182, #246, #237, #201, #165, #332, #249, #329, #312, #49, #181 ) ) ;
#318 = EDGE_LOOP ( 'NONE', ( #235, #7, #258, #20 ) ) ;
#319 = CIRCLE ( 'NONE', #252, 4.500000000000000888 ) ;
#320 = AXIS2_PLACEMENT_3D ( 'NONE', #108, #283, #309 ) ;
#321 = DATE_TIME_ROLE ( 'creation_date' ) ;
#322 = ORIENTED_EDGE ( 'NONE', *, *, #293, .F. ) ;
#323 = CARTESIAN_POINT ( 'NONE',  ( -4.000000000000000000, 0.000000000000000000, 130.0000000000000000 ) ) ;
#324 = EDGE_LOOP ( 'NONE', ( #248, #40, #204, #381 ) ) ;
#325 = APPROVAL_DATE_TIME ( #54, #301 ) ;
#326 = DIRECTION ( 'NONE',  ( 0.000000000000000000, 0.000000000000000000, -1.000000000000000000 ) ) ;
#327 = DATE_AND_TIME ( #147, #22 ) ;
#328 = CARTESIAN_POINT ( 'NONE',  ( -4.500000000000000888, 5.510910596163088569E-16, 5.000000000000002665 ) ) ;
#329 = ADVANCED_FACE ( 'NONE', ( #10 ), #11, .T. ) ;
#330 = CARTESIAN_POINT ( 'NONE',  ( 0.000000000000000000, 0.000000000000000000, 5.500000000000005329 ) ) ;
#331 = APPROVAL_DATE_TIME ( #33, #34 ) ;
#332 = ADVANCED_FACE ( 'NONE', ( #159, #277 ), #160, .T. ) ;
#333 = DIRECTION ( 'NONE',  ( -1.000000000000000000, 0.000000000000000000, 0.000000000000000000 ) ) ;
#334 = AXIS2_PLACEMENT_3D ( 'NONE', #369, #223, #221 ) ;
#335 = CARTESIAN_POINT ( 'NONE',  ( 0.000000000000000000, 0.000000000000000000, 5.000000000000000000 ) ) ;
#336 = DIRECTION ( 'NONE',  ( 1.000000000000000000, 0.000000000000000000, -0.000000000000000000 ) ) ;
#337 = CYLINDRICAL_SURFACE ( 'NONE', #379, 2.250000000000000000 ) ;
#338 = CARTESIAN_POINT ( 'NONE',  ( 0.000000000000000000, 0.000000000000000000, 130.0000000000000000 ) ) ;
#339 = FACE_OUTER_BOUND ( 'NONE', #372, .T. ) ;
#340 = CIRCLE ( 'NONE', #259, 4.000000000000000000 ) ;
#341 = SECURITY_CLASSIFICATION_LEVEL ( 'unclassified' ) ;
#342 = VERTEX_POINT ( 'NONE', #323 ) ;
#343 = EDGE_CURVE ( 'NONE', #117, #87, #346, .T. ) ;
#344 = PERSON_AND_ORGANIZATION ( #97, #186 ) ;
#345 = ORIENTED_EDGE ( 'NONE', *, *, #17, .T. ) ;
#346 = LINE ( 'NONE', #59, #378 ) ;
#347 = EDGE_LOOP ( 'NONE', ( #174, #28, #48, #228 ) ) ;
#348 = CIRCLE ( 'NONE', #358, 7.000000000000000000 ) ;
#349 = EDGE_CURVE ( 'NONE', #255, #139, #140, .T. ) ;
#350 = ORIENTED_EDGE ( 'NONE', *, *, #3, .F. ) ;
#351 = DATE_AND_TIME ( #236, #189 ) ;
#352 = CARTESIAN_POINT ( 'NONE',  ( 0.000000000000000000, 0.000000000000000000, 5.500000000000005329 ) ) ;
#353 = CARTESIAN_POINT ( 'NONE',  ( -4.000000000000000000, 0.000000000000000000, 130.0000000000000000 ) ) ;
#354 = DIRECTION ( 'NONE',  ( -0.000000000000000000, -0.000000000000000000, -1.000000000000000000 ) ) ;
#355 = AXIS2_PLACEMENT_3D ( 'NONE', #216, #70, #158 ) ;
#356 = DIRECTION ( 'NONE',  ( -0.000000000000000000, -0.000000000000000000, -1.000000000000000000 ) ) ;
#357 = ADVANCED_BREP_SHAPE_REPRESENTATION ( 'db56', ( #55, #370 ), #46 ) ;
#358 = AXIS2_PLACEMENT_3D ( 'NONE', #335, #310, #163 ) ;
#359 = EDGE_CURVE ( 'NONE', #232, #87, #298, .T. ) ;
#360 = AXIS2_PLACEMENT_3D ( 'NONE', #102, #77, #18 ) ;
#361 = ORIENTED_EDGE ( 'NONE', *, *, #349, .F. ) ;
#362 = AXIS2_PLACEMENT_3D ( 'NONE', #1, #32, #272 ) ;
#363 = TOROIDAL_SURFACE ( 'NONE', #63, 4.500000000000000888, 0.5000000000000000000 ) ;
#364 = CARTESIAN_POINT ( 'NONE',  ( 0.000000000000000000, 0.000000000000000000, 130.0000000000000000 ) ) ;
#365 = EDGE_LOOP ( 'NONE', ( #289, #23 ) ) ;
#366 = UNCERTAINTY_MEASURE_WITH_UNIT (LENGTH_MEASURE( 1.000000000000000082E-05 ), #288, 'distance_accuracy_value', 'NONE');
#367 = DIRECTION ( 'NONE',  ( 0.000000000000000000, 0.000000000000000000, 1.000000000000000000 ) ) ;
#368 = PLANE ( 'NONE',  #334 ) ;
#369 = CARTESIAN_POINT ( 'NONE',  ( 0.000000000000000000, 0.000000000000000000, 0.000000000000000000 ) ) ;
#370 = AXIS2_PLACEMENT_3D ( 'NONE', #21, #205, #175 ) ;
#371 = CC_DESIGN_PERSON_AND_ORGANIZATION_ASSIGNMENT ( #344, #120, ( #66 ) ) ;
#372 = EDGE_LOOP ( 'NONE', ( #25, #176, #170, #107 ) ) ;
#373 = DIRECTION ( 'NONE',  ( -0.000000000000000000, -0.000000000000000000, -1.000000000000000000 ) ) ;
#374 = DIRECTION ( 'NONE',  ( 1.000000000000000000, 0.000000000000000000, 0.000000000000000000 ) ) ;
#375 = VERTEX_POINT ( 'NONE', #229 ) ;
#376 = DIRECTION ( 'NONE',  ( -0.000000000000000000, -0.000000000000000000, -1.000000000000000000 ) ) ;
#377 = ORIENTED_EDGE ( 'NONE', *, *, #3, .T. ) ;
#378 = VECTOR ( 'NONE', #376, 1000.000000000000000 ) ;
#379 = AXIS2_PLACEMENT_3D ( 'NONE', #364, #219, #128 ) ;
#380 = COORDINATED_UNIVERSAL_TIME_OFFSET ( 1, 0, .AHEAD. ) ;
#381 = ORIENTED_EDGE ( 'NONE', *, *, #42, .T. ) ;
ENDSEC;
END-ISO-10303-21;
