ISO-10303-21;
HEADER;
FILE_DESCRIPTION (( 'STEP AP203' ),
    '1' );
FILE_NAME ('181c.STEP',
    '2022-07-10T09:04:11',
    ( '' ),
    ( '' ),
    'SwSTEP 2.0',
    'SolidWorks 2019',
    '' );
FILE_SCHEMA (( 'CONFIG_CONTROL_DESIGN' ));
ENDSEC;

DATA;
#1 = ORIENTED_EDGE ( 'NONE', *, *, #153, .T. ) ;
#2 = ORIENTED_EDGE ( 'NONE', *, *, #33, .F. ) ;
#3 = CIRCLE ( 'NONE', #162, 0.7000000000000000666 ) ;
#4 = FACE_OUTER_BOUND ( 'NONE', #43, .T. ) ;
#5 = VERTEX_POINT ( 'NONE', #67 ) ;
#6 = EDGE_LOOP ( 'NONE', ( #291, #310, #70, #150 ) ) ;
#7 = CALENDAR_DATE ( 2022, 10, 7 ) ;
#8 = DIRECTION ( 'NONE',  ( 1.000000000000000000, 0.000000000000000000, 0.000000000000000000 ) ) ;
#9 = ORIENTED_EDGE ( 'NONE', *, *, #368, .F. ) ;
#10 = CIRCLE ( 'NONE', #276, 4.000000000000000000 ) ;
#11 = APPROVAL_STATUS ( 'not_yet_approved' ) ;
#12 = DIRECTION ( 'NONE',  ( 0.000000000000000000, 0.000000000000000000, -1.000000000000000000 ) ) ;
#13 = DESIGN_CONTEXT ( 'detailed design', #361, 'design' ) ;
#14 = LINE ( 'NONE', #194, #54 ) ;
#15 = APPROVAL_STATUS ( 'not_yet_approved' ) ;
#16 = AXIS2_PLACEMENT_3D ( 'NONE', #278, #138, #220 ) ;
#17 = DIRECTION ( 'NONE',  ( 1.000000000000000000, 0.000000000000000000, 0.000000000000000000 ) ) ;
#18 = EDGE_CURVE ( 'NONE', #252, #60, #302, .T. ) ;
#19 = CARTESIAN_POINT ( 'NONE',  ( 0.000000000000000000, 0.000000000000000000, 7.700000000000012612 ) ) ;
#20 = CARTESIAN_POINT ( 'NONE',  ( 0.000000000000000000, 0.000000000000000000, 7.000000000000000000 ) ) ;
#21 = ADVANCED_FACE ( 'NONE', ( #38 ), #155, .F. ) ;
#22 = DIRECTION ( 'NONE',  ( 0.000000000000000000, 0.000000000000000000, 1.000000000000000000 ) ) ;
#23 = APPROVAL_PERSON_ORGANIZATION ( #233, #212, #298 ) ;
#24 = VERTEX_POINT ( 'NONE', #360 ) ;
#25 = FACE_OUTER_BOUND ( 'NONE', #74, .T. ) ;
#26 = VERTEX_POINT ( 'NONE', #357 ) ;
#27 = CARTESIAN_POINT ( 'NONE',  ( 0.000000000000000000, 0.000000000000000000, 7.000000000000000000 ) ) ;
#28 = ORIENTED_EDGE ( 'NONE', *, *, #129, .F. ) ;
#29 = LOCAL_TIME ( 11, 4, 11.00000000000000000, #219 ) ;
#30 = CYLINDRICAL_SURFACE ( 'NONE', #307, 4.000000000000000000 ) ;
#31 = EDGE_LOOP ( 'NONE', ( #147, #283, #346, #318 ) ) ;
#32 = DIRECTION ( 'NONE',  ( -0.000000000000000000, -0.000000000000000000, -1.000000000000000000 ) ) ;
#33 = EDGE_CURVE ( 'NONE', #206, #252, #177, .T. ) ;
#34 = DIRECTION ( 'NONE',  ( 0.000000000000000000, 0.000000000000000000, 1.000000000000000000 ) ) ;
#35 = CIRCLE ( 'NONE', #156, 4.000000000000000000 ) ;
#36 = CARTESIAN_POINT ( 'NONE',  ( 0.000000000000000000, 0.000000000000000000, 157.0000000000000000 ) ) ;
#37 = APPROVAL_STATUS ( 'not_yet_approved' ) ;
#38 = FACE_OUTER_BOUND ( 'NONE', #107, .T. ) ;
#39 = CARTESIAN_POINT ( 'NONE',  ( 0.000000000000000000, 0.000000000000000000, 7.700000000000012612 ) ) ;
#40 = DIRECTION ( 'NONE',  ( 1.000000000000000000, 0.000000000000000000, 0.000000000000000000 ) ) ;
#41 = AXIS2_PLACEMENT_3D ( 'NONE', #263, #294, #325 ) ;
#42 = AXIS2_PLACEMENT_3D ( 'NONE', #217, #191, #222 ) ;
#43 = EDGE_LOOP ( 'NONE', ( #320, #350, #55, #226 ) ) ;
#44 = CALENDAR_DATE ( 2022, 10, 7 ) ;
#45 = DIRECTION ( 'NONE',  ( -1.000000000000000000, 1.224646799147353454E-16, 0.000000000000000000 ) ) ;
#46 = ADVANCED_FACE ( 'NONE', ( #211 ), #127, .T. ) ;
#47 = DIRECTION ( 'NONE',  ( -0.000000000000000000, -0.000000000000000000, -1.000000000000000000 ) ) ;
#48 = CIRCLE ( 'NONE', #227, 6.700000000000001066 ) ;
#49 = PERSON_AND_ORGANIZATION ( #66, #378 ) ;
#50 = DIRECTION ( 'NONE',  ( 0.000000000000000000, -1.000000000000000000, 0.000000000000000000 ) ) ;
#51 = ADVANCED_FACE ( 'NONE', ( #330 ), #292, .T. ) ;
#52 = LINE ( 'NONE', #110, #149 ) ;
#53 = FACE_BOUND ( 'NONE', #185, .T. ) ;
#54 = VECTOR ( 'NONE', #47, 1000.000000000000000 ) ;
#55 = ORIENTED_EDGE ( 'NONE', *, *, #332, .T. ) ;
#56 = CARTESIAN_POINT ( 'NONE',  ( 0.000000000000000000, 0.000000000000000000, 0.000000000000000000 ) ) ;
#57 = ORIENTED_EDGE ( 'NONE', *, *, #92, .T. ) ;
#58 = ADVANCED_FACE ( 'NONE', ( #161 ), #237, .T. ) ;
#59 = PLANE ( 'NONE',  #347 ) ;
#60 = VERTEX_POINT ( 'NONE', #363 ) ;
#61 = ORIENTED_EDGE ( 'NONE', *, *, #358, .F. ) ;
#62 = AXIS2_PLACEMENT_3D ( 'NONE', #342, #315, #144 ) ;
#63 = CARTESIAN_POINT ( 'NONE',  ( 0.000000000000000000, 0.000000000000000000, 157.0000000000000000 ) ) ;
#64 = CC_DESIGN_PERSON_AND_ORGANIZATION_ASSIGNMENT ( #329, #71, ( #157 ) ) ;
#65 = LINE ( 'NONE', #123, #133 ) ;
#66 = PERSON ( 'NEURÈENÝ', 'NEURÈENÝ', 'NEURÈENÝ', ('NEURÈENÝ'), ('NEURÈENÝ'), ('NEURÈENÝ') ) ;
#67 = CARTESIAN_POINT ( 'NONE',  ( 6.700000000000001066, 0.000000000000000000, 7.000000000000006217 ) ) ;
#68 = AXIS2_PLACEMENT_3D ( 'NONE', #165, #168, #213 ) ;
#69 = PERSON_AND_ORGANIZATION_ROLE ( 'design_owner' ) ;
#70 = ORIENTED_EDGE ( 'NONE', *, *, #117, .F. ) ;
#71 = PERSON_AND_ORGANIZATION_ROLE ( 'creator' ) ;
#72 = EDGE_CURVE ( 'NONE', #24, #91, #65, .T. ) ;
#73 = DIRECTION ( 'NONE',  ( 0.000000000000000000, 0.000000000000000000, 1.000000000000000000 ) ) ;
#74 = EDGE_LOOP ( 'NONE', ( #312, #116, #174, #186 ) ) ;
#75 = CC_DESIGN_APPROVAL ( #188, ( #80 ) ) ;
#76 = PERSON_AND_ORGANIZATION_ROLE ( 'creator' ) ;
#77 = PRODUCT_RELATED_PRODUCT_CATEGORY ( 'detail', '', ( #268 ) ) ;
#78 = CARTESIAN_POINT ( 'NONE',  ( 0.000000000000000000, 0.000000000000000000, 7.000000000000000000 ) ) ;
#79 = CLOSED_SHELL ( 'NONE', ( #260, #199, #58, #51, #88, #273, #284, #46, #351, #21, #218 ) ) ;
#80 = SECURITY_CLASSIFICATION ( '', '', #305 ) ;
#81 = LINE ( 'NONE', #196, #104 ) ;
#82 = DIRECTION ( 'NONE',  ( 0.000000000000000000, 0.000000000000000000, 1.000000000000000000 ) ) ;
#83 = CC_DESIGN_PERSON_AND_ORGANIZATION_ASSIGNMENT ( #333, #76, ( #202 ) ) ;
#84 = CYLINDRICAL_SURFACE ( 'NONE', #62, 4.000000000000000000 ) ;
#85 = VERTEX_POINT ( 'NONE', #356 ) ;
#86 = AXIS2_PLACEMENT_3D ( 'NONE', #122, #97, #95 ) ;
#87 = ORIENTED_EDGE ( 'NONE', *, *, #72, .T. ) ;
#88 = ADVANCED_FACE ( 'NONE', ( #4 ), #182, .T. ) ;
#89 = EDGE_LOOP ( 'NONE', ( #253, #261 ) ) ;
#90 = DIRECTION ( 'NONE',  ( -0.000000000000000000, -0.000000000000000000, -1.000000000000000000 ) ) ;
#91 = VERTEX_POINT ( 'NONE', #297 ) ;
#92 = EDGE_CURVE ( 'NONE', #143, #24, #207, .T. ) ;
#93 = CIRCLE ( 'NONE', #86, 6.000000000000000888 ) ;
#94 = DIRECTION ( 'NONE',  ( 0.000000000000000000, 0.000000000000000000, 1.000000000000000000 ) ) ;
#95 = DIRECTION ( 'NONE',  ( 1.000000000000000000, 0.000000000000000000, 0.000000000000000000 ) ) ;
#96 = CARTESIAN_POINT ( 'NONE',  ( 0.000000000000000000, 0.000000000000000000, 7.700000000000012612 ) ) ;
#97 = DIRECTION ( 'NONE',  ( 0.000000000000000000, 0.000000000000000000, 1.000000000000000000 ) ) ;
#98 = VECTOR ( 'NONE', #275, 1000.000000000000000 ) ;
#99 = EDGE_CURVE ( 'NONE', #143, #259, #14, .T. ) ;
#100 = PERSON_AND_ORGANIZATION ( #66, #378 ) ;
#101 = CARTESIAN_POINT ( 'NONE',  ( 0.000000000000000000, 0.000000000000000000, 157.0000000000000000 ) ) ;
#102 = DATE_AND_TIME ( #362, #304 ) ;
#103 = EDGE_CURVE ( 'NONE', #60, #170, #179, .T. ) ;
#104 = VECTOR ( 'NONE', #336, 1000.000000000000000 ) ;
#105 = CARTESIAN_POINT ( 'NONE',  ( 0.000000000000000000, 0.000000000000000000, 157.0000000000000000 ) ) ;
#106 = DIRECTION ( 'NONE',  ( 1.000000000000000000, 0.000000000000000000, 0.000000000000000000 ) ) ;
#107 = EDGE_LOOP ( 'NONE', ( #197, #9, #1, #229 ) ) ;
#108 = AXIS2_PLACEMENT_3D ( 'NONE', #296, #265, #180 ) ;
#109 = CARTESIAN_POINT ( 'NONE',  ( 0.000000000000000000, 0.000000000000000000, 157.0000000000000000 ) ) ;
#110 = CARTESIAN_POINT ( 'NONE',  ( -10.00000000000000000, 0.000000000000000000, 7.000000000000000000 ) ) ;
#111 = EDGE_CURVE ( 'NONE', #259, #285, #3, .T. ) ;
#112 = ORIENTED_EDGE ( 'NONE', *, *, #326, .F. ) ;
#113 = DIRECTION ( 'NONE',  ( -1.000000000000000000, 0.000000000000000000, 0.000000000000000000 ) ) ;
#114 = AXIS2_PLACEMENT_3D ( 'NONE', #39, #236, #119 ) ;
#115 = EDGE_LOOP ( 'NONE', ( #375, #377 ) ) ;
#116 = ORIENTED_EDGE ( 'NONE', *, *, #129, .T. ) ;
#117 = EDGE_CURVE ( 'NONE', #5, #285, #48, .T. ) ;
#118 = ORIENTED_EDGE ( 'NONE', *, *, #18, .T. ) ;
#119 = DIRECTION ( 'NONE',  ( 1.000000000000000000, 0.000000000000000000, 0.000000000000000000 ) ) ;
#120 = CARTESIAN_POINT ( 'NONE',  ( 0.000000000000000000, 0.000000000000000000, 157.0000000000000000 ) ) ;
#121 =( GEOMETRIC_REPRESENTATION_CONTEXT ( 3 ) GLOBAL_UNCERTAINTY_ASSIGNED_CONTEXT ( ( #238 ) ) GLOBAL_UNIT_ASSIGNED_CONTEXT ( ( #355, #293, #324 ) ) REPRESENTATION_CONTEXT ( 'NONE', 'WORKASPACE' ) );
#122 = CARTESIAN_POINT ( 'NONE',  ( 0.000000000000000000, 0.000000000000000000, 157.0000000000000000 ) ) ;
#123 = CARTESIAN_POINT ( 'NONE',  ( 6.000000000000000888, 7.347880794884120722E-16, 157.0000000000000000 ) ) ;
#124 = DIRECTION ( 'NONE',  ( 1.000000000000000000, 0.000000000000000000, -0.000000000000000000 ) ) ;
#125 = EDGE_CURVE ( 'NONE', #259, #91, #257, .T. ) ;
#126 = DATE_AND_TIME ( #7, #321 ) ;
#127 = CYLINDRICAL_SURFACE ( 'NONE', #295, 6.000000000000000888 ) ;
#128 = AXIS2_PLACEMENT_3D ( 'NONE', #200, #34, #124 ) ;
#129 = EDGE_CURVE ( 'NONE', #206, #170, #139, .T. ) ;
#130 = CARTESIAN_POINT ( 'NONE',  ( 6.700000000000001066, 0.000000000000000000, 7.700000000000012612 ) ) ;
#131 = APPROVAL_ROLE ( '' ) ;
#132 = DIRECTION ( 'NONE',  ( 0.000000000000000000, 0.000000000000000000, -1.000000000000000000 ) ) ;
#133 = VECTOR ( 'NONE', #235, 1000.000000000000000 ) ;
#134 = APPROVAL_PERSON_ORGANIZATION ( #49, #299, #135 ) ;
#135 = APPROVAL_ROLE ( '' ) ;
#136 = CARTESIAN_POINT ( 'NONE',  ( 4.000000000000000000, 4.898587196589412829E-16, 157.0000000000000000 ) ) ;
#137 = DATE_TIME_ROLE ( 'classification_date' ) ;
#138 = DIRECTION ( 'NONE',  ( -0.000000000000000000, -0.000000000000000000, -1.000000000000000000 ) ) ;
#139 = LINE ( 'NONE', #136, #98 ) ;
#140 = ORIENTED_EDGE ( 'NONE', *, *, #368, .T. ) ;
#141 = AXIS2_PLACEMENT_3D ( 'NONE', #36, #167, #106 ) ;
#142 = CARTESIAN_POINT ( 'NONE',  ( -6.000000000000000888, 0.000000000000000000, 7.700000000000012612 ) ) ;
#143 = VERTEX_POINT ( 'NONE', #367 ) ;
#144 = DIRECTION ( 'NONE',  ( -1.000000000000000000, 0.000000000000000000, 0.000000000000000000 ) ) ;
#145 = ORIENTED_EDGE ( 'NONE', *, *, #92, .F. ) ;
#146 = CARTESIAN_POINT ( 'NONE',  ( 0.000000000000000000, 0.000000000000000000, 0.000000000000000000 ) ) ;
#147 = ORIENTED_EDGE ( 'NONE', *, *, #183, .F. ) ;
#148 = FACE_BOUND ( 'NONE', #341, .T. ) ;
#149 = VECTOR ( 'NONE', #169, 1000.000000000000000 ) ;
#150 = ORIENTED_EDGE ( 'NONE', *, *, #153, .F. ) ;
#151 = ADVANCED_BREP_SHAPE_REPRESENTATION ( '181c', ( #256, #108 ), #121 ) ;
#152 = ORIENTED_EDGE ( 'NONE', *, *, #99, .F. ) ;
#153 = EDGE_CURVE ( 'NONE', #91, #5, #195, .T. ) ;
#154 = DIRECTION ( 'NONE',  ( -1.000000000000000000, 0.000000000000000000, 0.000000000000000000 ) ) ;
#155 = TOROIDAL_SURFACE ( 'NONE', #244, 6.700000000000001066, 0.6999999999999999556 ) ;
#156 = AXIS2_PLACEMENT_3D ( 'NONE', #105, #334, #370 ) ;
#157 = PRODUCT_DEFINITION ( 'NEZNÁMÝ', '', #202, #13 ) ;
#158 = CARTESIAN_POINT ( 'NONE',  ( -4.000000000000000000, 0.000000000000000000, 157.0000000000000000 ) ) ;
#159 = PRODUCT_DEFINITION_SHAPE ( 'NONE', 'NONE',  #157 ) ;
#160 = APPLICATION_PROTOCOL_DEFINITION ( 'international standard', 'config_control_design', 1994, #301 ) ;
#161 = FACE_OUTER_BOUND ( 'NONE', #348, .T. ) ;
#162 = AXIS2_PLACEMENT_3D ( 'NONE', #246, #279, #45 ) ;
#163 = CALENDAR_DATE ( 2022, 10, 7 ) ;
#164 = FACE_OUTER_BOUND ( 'NONE', #353, .T. ) ;
#165 = CARTESIAN_POINT ( 'NONE',  ( 0.000000000000000000, 0.000000000000000000, 7.700000000000012612 ) ) ;
#166 = AXIS2_PLACEMENT_3D ( 'NONE', #146, #282, #228 ) ;
#167 = DIRECTION ( 'NONE',  ( 0.000000000000000000, 0.000000000000000000, 1.000000000000000000 ) ) ;
#168 = DIRECTION ( 'NONE',  ( 0.000000000000000000, 0.000000000000000000, 1.000000000000000000 ) ) ;
#169 = DIRECTION ( 'NONE',  ( -0.000000000000000000, -0.000000000000000000, -1.000000000000000000 ) ) ;
#170 = VERTEX_POINT ( 'NONE', #366 ) ;
#171 = EDGE_CURVE ( 'NONE', #252, #206, #35, .T. ) ;
#172 = AXIS2_PLACEMENT_3D ( 'NONE', #19, #248, #371 ) ;
#173 = FACE_OUTER_BOUND ( 'NONE', #316, .T. ) ;
#174 = ORIENTED_EDGE ( 'NONE', *, *, #225, .T. ) ;
#175 = DIRECTION ( 'NONE',  ( 1.000000000000000000, 0.000000000000000000, 0.000000000000000000 ) ) ;
#176 = ORIENTED_EDGE ( 'NONE', *, *, #99, .T. ) ;
#177 = CIRCLE ( 'NONE', #288, 4.000000000000000000 ) ;
#178 = CARTESIAN_POINT ( 'NONE',  ( 0.000000000000000000, 0.000000000000000000, 0.000000000000000000 ) ) ;
#179 = CIRCLE ( 'NONE', #16, 4.000000000000000000 ) ;
#180 = DIRECTION ( 'NONE',  ( 1.000000000000000000, 0.000000000000000000, 0.000000000000000000 ) ) ;
#181 = DIRECTION ( 'NONE',  ( -1.000000000000000000, 0.000000000000000000, 0.000000000000000000 ) ) ;
#182 = CYLINDRICAL_SURFACE ( 'NONE', #41, 10.00000000000000000 ) ;
#183 = EDGE_CURVE ( 'NONE', #85, #344, #215, .T. ) ;
#184 = APPLICATION_PROTOCOL_DEFINITION ( 'international standard', 'config_control_design', 1994, #361 ) ;
#185 = EDGE_LOOP ( 'NONE', ( #267, #2 ) ) ;
#186 = ORIENTED_EDGE ( 'NONE', *, *, #18, .F. ) ;
#187 = CARTESIAN_POINT ( 'NONE',  ( 0.000000000000000000, 0.000000000000000000, 7.000000000000000000 ) ) ;
#188 = APPROVAL ( #15, 'NEURÈENÝ' ) ;
#189 = DIRECTION ( 'NONE',  ( 1.000000000000000000, 0.000000000000000000, 0.000000000000000000 ) ) ;
#190 = LOCAL_TIME ( 11, 4, 11.00000000000000000, #331 ) ;
#191 = DIRECTION ( 'NONE',  ( 0.000000000000000000, 0.000000000000000000, 1.000000000000000000 ) ) ;
#192 = EDGE_CURVE ( 'NONE', #85, #26, #81, .T. ) ;
#193 = PERSON_AND_ORGANIZATION ( #66, #378 ) ;
#194 = CARTESIAN_POINT ( 'NONE',  ( -6.000000000000000888, 0.000000000000000000, 157.0000000000000000 ) ) ;
#195 = CIRCLE ( 'NONE', #262, 0.7000000000000000666 ) ;
#196 = CARTESIAN_POINT ( 'NONE',  ( 10.00000000000000000, 1.224646799147353256E-15, 7.000000000000000000 ) ) ;
#197 = ORIENTED_EDGE ( 'NONE', *, *, #111, .F. ) ;
#198 = DIRECTION ( 'NONE',  ( 0.000000000000000000, 0.000000000000000000, 1.000000000000000000 ) ) ;
#199 = ADVANCED_FACE ( 'NONE', ( #309 ), #289, .F. ) ;
#200 = CARTESIAN_POINT ( 'NONE',  ( 0.000000000000000000, 0.000000000000000000, 157.0000000000000000 ) ) ;
#201 = ORIENTED_EDGE ( 'NONE', *, *, #243, .F. ) ;
#202 = PRODUCT_DEFINITION_FORMATION_WITH_SPECIFIED_SOURCE ( 'LIBOVOLNÝ', '', #268, .NOT_KNOWN. ) ;
#203 = ORIENTED_EDGE ( 'NONE', *, *, #125, .T. ) ;
#204 = DIRECTION ( 'NONE',  ( 1.000000000000000000, 0.000000000000000000, 0.000000000000000000 ) ) ;
#205 = EDGE_CURVE ( 'NONE', #344, #85, #354, .T. ) ;
#206 = VERTEX_POINT ( 'NONE', #303 ) ;
#207 = CIRCLE ( 'NONE', #141, 6.000000000000000888 ) ;
#208 = AXIS2_PLACEMENT_3D ( 'NONE', #286, #376, #204 ) ;
#209 = ORIENTED_EDGE ( 'NONE', *, *, #103, .T. ) ;
#210 = APPROVAL_DATE_TIME ( #126, #212 ) ;
#211 = FACE_OUTER_BOUND ( 'NONE', #272, .T. ) ;
#212 = APPROVAL ( #37, 'NEURÈENÝ' ) ;
#213 = DIRECTION ( 'NONE',  ( 1.000000000000000000, 0.000000000000000000, 0.000000000000000000 ) ) ;
#214 = APPROVAL_DATE_TIME ( #241, #299 ) ;
#215 = CIRCLE ( 'NONE', #42, 10.00000000000000000 ) ;
#216 = DATE_AND_TIME ( #242, #190 ) ;
#217 = CARTESIAN_POINT ( 'NONE',  ( 0.000000000000000000, 0.000000000000000000, 7.000000000000000000 ) ) ;
#218 = ADVANCED_FACE ( 'NONE', ( #164 ), #30, .F. ) ;
#219 = COORDINATED_UNIVERSAL_TIME_OFFSET ( 1, 0, .AHEAD. ) ;
#220 = DIRECTION ( 'NONE',  ( 1.000000000000000000, 0.000000000000000000, 0.000000000000000000 ) ) ;
#221 = PERSON_AND_ORGANIZATION_ROLE ( 'classification_officer' ) ;
#222 = DIRECTION ( 'NONE',  ( 1.000000000000000000, 0.000000000000000000, 0.000000000000000000 ) ) ;
#223 = AXIS2_PLACEMENT_3D ( 'NONE', #101, #32, #154 ) ;
#224 = CIRCLE ( 'NONE', #166, 10.00000000000000000 ) ;
#225 = EDGE_CURVE ( 'NONE', #170, #60, #10, .T. ) ;
#226 = ORIENTED_EDGE ( 'NONE', *, *, #326, .T. ) ;
#227 = AXIS2_PLACEMENT_3D ( 'NONE', #78, #306, #17 ) ;
#228 = DIRECTION ( 'NONE',  ( 1.000000000000000000, 0.000000000000000000, 0.000000000000000000 ) ) ;
#229 = ORIENTED_EDGE ( 'NONE', *, *, #255, .F. ) ;
#230 = CC_DESIGN_PERSON_AND_ORGANIZATION_ASSIGNMENT ( #274, #221, ( #80 ) ) ;
#231 = CARTESIAN_POINT ( 'NONE',  ( -6.700000000000001066, 8.205133554287267548E-16, 7.000000000000006217 ) ) ;
#232 = EDGE_LOOP ( 'NONE', ( #57, #380 ) ) ;
#233 = PERSON_AND_ORGANIZATION ( #66, #378 ) ;
#234 = CC_DESIGN_PERSON_AND_ORGANIZATION_ASSIGNMENT ( #100, #69, ( #268 ) ) ;
#235 = DIRECTION ( 'NONE',  ( -0.000000000000000000, -0.000000000000000000, -1.000000000000000000 ) ) ;
#236 = DIRECTION ( 'NONE',  ( 0.000000000000000000, 0.000000000000000000, 1.000000000000000000 ) ) ;
#237 = CYLINDRICAL_SURFACE ( 'NONE', #223, 6.000000000000000888 ) ;
#238 = UNCERTAINTY_MEASURE_WITH_UNIT (LENGTH_MEASURE( 1.000000000000000082E-05 ), #355, 'distance_accuracy_value', 'NONE');
#239 = COORDINATED_UNIVERSAL_TIME_OFFSET ( 1, 0, .AHEAD. ) ;
#240 = DIRECTION ( 'NONE',  ( -1.000000000000000000, 0.000000000000000000, 0.000000000000000000 ) ) ;
#241 = DATE_AND_TIME ( #44, #29 ) ;
#242 = CALENDAR_DATE ( 2022, 10, 7 ) ;
#243 = EDGE_CURVE ( 'NONE', #26, #280, #224, .T. ) ;
#244 = AXIS2_PLACEMENT_3D ( 'NONE', #96, #94, #40 ) ;
#245 = CIRCLE ( 'NONE', #114, 6.000000000000000888 ) ;
#246 = CARTESIAN_POINT ( 'NONE',  ( -6.700000000000001066, 8.205133554287267548E-16, 7.700000000000012612 ) ) ;
#247 = COORDINATED_UNIVERSAL_TIME_OFFSET ( 1, 0, .AHEAD. ) ;
#248 = DIRECTION ( 'NONE',  ( 0.000000000000000000, 0.000000000000000000, 1.000000000000000000 ) ) ;
#249 = ORIENTED_EDGE ( 'NONE', *, *, #103, .F. ) ;
#250 = LOCAL_TIME ( 11, 4, 11.00000000000000000, #247 ) ;
#251 = FACE_OUTER_BOUND ( 'NONE', #232, .T. ) ;
#252 = VERTEX_POINT ( 'NONE', #319 ) ;
#253 = ORIENTED_EDGE ( 'NONE', *, *, #117, .T. ) ;
#254 = CARTESIAN_POINT ( 'NONE',  ( 0.000000000000000000, 0.000000000000000000, 0.000000000000000000 ) ) ;
#255 = EDGE_CURVE ( 'NONE', #285, #5, #314, .T. ) ;
#256 = MANIFOLD_SOLID_BREP ( 'Odebrat vysunutím3', #79 ) ;
#257 = CIRCLE ( 'NONE', #172, 6.000000000000000888 ) ;
#258 = PLANE ( 'NONE',  #271 ) ;
#259 = VERTEX_POINT ( 'NONE', #142 ) ;
#260 = ADVANCED_FACE ( 'NONE', ( #25 ), #84, .F. ) ;
#261 = ORIENTED_EDGE ( 'NONE', *, *, #255, .T. ) ;
#262 = AXIS2_PLACEMENT_3D ( 'NONE', #130, #50, #132 ) ;
#263 = CARTESIAN_POINT ( 'NONE',  ( 0.000000000000000000, 0.000000000000000000, 7.000000000000000000 ) ) ;
#264 = MECHANICAL_CONTEXT ( 'NONE', #301, 'mechanical' ) ;
#265 = DIRECTION ( 'NONE',  ( 0.000000000000000000, 0.000000000000000000, 1.000000000000000000 ) ) ;
#266 = DIRECTION ( 'NONE',  ( 0.000000000000000000, 0.000000000000000000, 1.000000000000000000 ) ) ;
#267 = ORIENTED_EDGE ( 'NONE', *, *, #171, .F. ) ;
#268 = PRODUCT ( '181c', '181c', '', ( #264 ) ) ;
#269 = DATE_TIME_ROLE ( 'creation_date' ) ;
#270 = VECTOR ( 'NONE', #12, 1000.000000000000000 ) ;
#271 = AXIS2_PLACEMENT_3D ( 'NONE', #178, #82, #379 ) ;
#272 = EDGE_LOOP ( 'NONE', ( #328, #145, #176, #203 ) ) ;
#273 = ADVANCED_FACE ( 'NONE', ( #317, #345 ), #59, .T. ) ;
#274 = PERSON_AND_ORGANIZATION ( #66, #378 ) ;
#275 = DIRECTION ( 'NONE',  ( 0.000000000000000000, 0.000000000000000000, -1.000000000000000000 ) ) ;
#276 = AXIS2_PLACEMENT_3D ( 'NONE', #254, #90, #175 ) ;
#277 = PERSON_AND_ORGANIZATION_ROLE ( 'design_supplier' ) ;
#278 = CARTESIAN_POINT ( 'NONE',  ( 0.000000000000000000, 0.000000000000000000, 0.000000000000000000 ) ) ;
#279 = DIRECTION ( 'NONE',  ( 1.224646799147353207E-16, 1.000000000000000000, -0.000000000000000000 ) ) ;
#280 = VERTEX_POINT ( 'NONE', #349 ) ;
#281 = CC_DESIGN_SECURITY_CLASSIFICATION ( #80, ( #202 ) ) ;
#282 = DIRECTION ( 'NONE',  ( 0.000000000000000000, 0.000000000000000000, 1.000000000000000000 ) ) ;
#283 = ORIENTED_EDGE ( 'NONE', *, *, #192, .T. ) ;
#284 = ADVANCED_FACE ( 'NONE', ( #148, #173 ), #258, .F. ) ;
#285 = VERTEX_POINT ( 'NONE', #231 ) ;
#286 = CARTESIAN_POINT ( 'NONE',  ( 0.000000000000000000, 0.000000000000000000, 7.000000000000000000 ) ) ;
#287 = ORIENTED_EDGE ( 'NONE', *, *, #225, .F. ) ;
#288 = AXIS2_PLACEMENT_3D ( 'NONE', #120, #266, #8 ) ;
#289 = TOROIDAL_SURFACE ( 'NONE', #68, 6.700000000000001066, 0.6999999999999999556 ) ;
#290 = DIRECTION ( 'NONE',  ( 1.000000000000000000, 0.000000000000000000, 0.000000000000000000 ) ) ;
#291 = ORIENTED_EDGE ( 'NONE', *, *, #125, .F. ) ;
#292 = CYLINDRICAL_SURFACE ( 'NONE', #327, 10.00000000000000000 ) ;
#293 =( NAMED_UNIT ( * ) PLANE_ANGLE_UNIT ( ) SI_UNIT ( $, .RADIAN. ) );
#294 = DIRECTION ( 'NONE',  ( -0.000000000000000000, -0.000000000000000000, -1.000000000000000000 ) ) ;
#295 = AXIS2_PLACEMENT_3D ( 'NONE', #63, #322, #181 ) ;
#296 = CARTESIAN_POINT ( 'NONE',  ( 0.000000000000000000, 0.000000000000000000, 0.000000000000000000 ) ) ;
#297 = CARTESIAN_POINT ( 'NONE',  ( 6.000000000000000888, 7.347880794884120722E-16, 7.700000000000012612 ) ) ;
#298 = APPROVAL_ROLE ( '' ) ;
#299 = APPROVAL ( #11, 'NEURÈENÝ' ) ;
#300 = ORIENTED_EDGE ( 'NONE', *, *, #33, .T. ) ;
#301 = APPLICATION_CONTEXT ( 'configuration controlled 3d designs of mechanical parts and assemblies' ) ;
#302 = LINE ( 'NONE', #158, #270 ) ;
#303 = CARTESIAN_POINT ( 'NONE',  ( 4.000000000000000000, 4.898587196589412829E-16, 157.0000000000000000 ) ) ;
#304 = LOCAL_TIME ( 11, 4, 11.00000000000000000, #239 ) ;
#305 = SECURITY_CLASSIFICATION_LEVEL ( 'unclassified' ) ;
#306 = DIRECTION ( 'NONE',  ( -0.000000000000000000, -0.000000000000000000, -1.000000000000000000 ) ) ;
#307 = AXIS2_PLACEMENT_3D ( 'NONE', #109, #374, #113 ) ;
#308 = PERSON_AND_ORGANIZATION ( #66, #378 ) ;
#309 = FACE_OUTER_BOUND ( 'NONE', #6, .T. ) ;
#310 = ORIENTED_EDGE ( 'NONE', *, *, #111, .T. ) ;
#311 = CARTESIAN_POINT ( 'NONE',  ( -10.00000000000000000, 0.000000000000000000, 7.000000000000000000 ) ) ;
#312 = ORIENTED_EDGE ( 'NONE', *, *, #171, .T. ) ;
#313 = CIRCLE ( 'NONE', #365, 10.00000000000000000 ) ;
#314 = CIRCLE ( 'NONE', #208, 6.700000000000001066 ) ;
#315 = DIRECTION ( 'NONE',  ( 0.000000000000000000, 0.000000000000000000, -1.000000000000000000 ) ) ;
#316 = EDGE_LOOP ( 'NONE', ( #112, #201 ) ) ;
#317 = FACE_BOUND ( 'NONE', #89, .T. ) ;
#318 = ORIENTED_EDGE ( 'NONE', *, *, #332, .F. ) ;
#319 = CARTESIAN_POINT ( 'NONE',  ( -4.000000000000000000, 0.000000000000000000, 157.0000000000000000 ) ) ;
#320 = ORIENTED_EDGE ( 'NONE', *, *, #192, .F. ) ;
#321 = LOCAL_TIME ( 11, 4, 11.00000000000000000, #352 ) ;
#322 = DIRECTION ( 'NONE',  ( -0.000000000000000000, -0.000000000000000000, -1.000000000000000000 ) ) ;
#323 = DIRECTION ( 'NONE',  ( -0.000000000000000000, -0.000000000000000000, -1.000000000000000000 ) ) ;
#324 =( NAMED_UNIT ( * ) SI_UNIT ( $, .STERADIAN. ) SOLID_ANGLE_UNIT ( ) );
#325 = DIRECTION ( 'NONE',  ( -1.000000000000000000, 0.000000000000000000, 0.000000000000000000 ) ) ;
#326 = EDGE_CURVE ( 'NONE', #280, #26, #313, .T. ) ;
#327 = AXIS2_PLACEMENT_3D ( 'NONE', #187, #323, #240 ) ;
#328 = ORIENTED_EDGE ( 'NONE', *, *, #72, .F. ) ;
#329 = PERSON_AND_ORGANIZATION ( #66, #378 ) ;
#330 = FACE_OUTER_BOUND ( 'NONE', #31, .T. ) ;
#331 = COORDINATED_UNIVERSAL_TIME_OFFSET ( 1, 0, .AHEAD. ) ;
#332 = EDGE_CURVE ( 'NONE', #344, #280, #52, .T. ) ;
#333 = PERSON_AND_ORGANIZATION ( #66, #378 ) ;
#334 = DIRECTION ( 'NONE',  ( 0.000000000000000000, 0.000000000000000000, 1.000000000000000000 ) ) ;
#335 = CC_DESIGN_APPROVAL ( #299, ( #202 ) ) ;
#336 = DIRECTION ( 'NONE',  ( -0.000000000000000000, -0.000000000000000000, -1.000000000000000000 ) ) ;
#337 = DATE_AND_TIME ( #163, #250 ) ;
#338 = CC_DESIGN_DATE_AND_TIME_ASSIGNMENT ( #337, #269, ( #157 ) ) ;
#339 = APPROVAL_PERSON_ORGANIZATION ( #308, #188, #131 ) ;
#340 = DIRECTION ( 'NONE',  ( 1.000000000000000000, 0.000000000000000000, -0.000000000000000000 ) ) ;
#341 = EDGE_LOOP ( 'NONE', ( #249, #287 ) ) ;
#342 = CARTESIAN_POINT ( 'NONE',  ( 0.000000000000000000, 0.000000000000000000, 157.0000000000000000 ) ) ;
#343 = CC_DESIGN_PERSON_AND_ORGANIZATION_ASSIGNMENT ( #193, #277, ( #202 ) ) ;
#344 = VERTEX_POINT ( 'NONE', #311 ) ;
#345 = FACE_OUTER_BOUND ( 'NONE', #115, .T. ) ;
#346 = ORIENTED_EDGE ( 'NONE', *, *, #243, .T. ) ;
#347 = AXIS2_PLACEMENT_3D ( 'NONE', #27, #22, #340 ) ;
#348 = EDGE_LOOP ( 'NONE', ( #61, #87, #140, #152 ) ) ;
#349 = CARTESIAN_POINT ( 'NONE',  ( -10.00000000000000000, 0.000000000000000000, 0.000000000000000000 ) ) ;
#350 = ORIENTED_EDGE ( 'NONE', *, *, #205, .F. ) ;
#351 = ADVANCED_FACE ( 'NONE', ( #53, #251 ), #373, .T. ) ;
#352 = COORDINATED_UNIVERSAL_TIME_OFFSET ( 1, 0, .AHEAD. ) ;
#353 = EDGE_LOOP ( 'NONE', ( #28, #300, #118, #209 ) ) ;
#354 = CIRCLE ( 'NONE', #372, 10.00000000000000000 ) ;
#355 =( LENGTH_UNIT ( ) NAMED_UNIT ( * ) SI_UNIT ( .MILLI., .METRE. ) );
#356 = CARTESIAN_POINT ( 'NONE',  ( 10.00000000000000000, 1.224646799147353256E-15, 7.000000000000000000 ) ) ;
#357 = CARTESIAN_POINT ( 'NONE',  ( 10.00000000000000000, 1.224646799147353256E-15, 0.000000000000000000 ) ) ;
#358 = EDGE_CURVE ( 'NONE', #24, #143, #93, .T. ) ;
#359 = CC_DESIGN_APPROVAL ( #212, ( #157 ) ) ;
#360 = CARTESIAN_POINT ( 'NONE',  ( 6.000000000000000888, 7.347880794884120722E-16, 157.0000000000000000 ) ) ;
#361 = APPLICATION_CONTEXT ( 'configuration controlled 3d designs of mechanical parts and assemblies' ) ;
#362 = CALENDAR_DATE ( 2022, 10, 7 ) ;
#363 = CARTESIAN_POINT ( 'NONE',  ( -4.000000000000000000, 0.000000000000000000, 0.000000000000000000 ) ) ;
#364 = SHAPE_DEFINITION_REPRESENTATION ( #159, #151 ) ;
#365 = AXIS2_PLACEMENT_3D ( 'NONE', #56, #198, #290 ) ;
#366 = CARTESIAN_POINT ( 'NONE',  ( 4.000000000000000000, 4.898587196589412829E-16, 0.000000000000000000 ) ) ;
#367 = CARTESIAN_POINT ( 'NONE',  ( -6.000000000000000888, 0.000000000000000000, 157.0000000000000000 ) ) ;
#368 = EDGE_CURVE ( 'NONE', #91, #259, #245, .T. ) ;
#369 = APPROVAL_DATE_TIME ( #216, #188 ) ;
#370 = DIRECTION ( 'NONE',  ( 1.000000000000000000, 0.000000000000000000, 0.000000000000000000 ) ) ;
#371 = DIRECTION ( 'NONE',  ( 1.000000000000000000, 0.000000000000000000, 0.000000000000000000 ) ) ;
#372 = AXIS2_PLACEMENT_3D ( 'NONE', #20, #73, #189 ) ;
#373 = PLANE ( 'NONE',  #128 ) ;
#374 = DIRECTION ( 'NONE',  ( 0.000000000000000000, 0.000000000000000000, -1.000000000000000000 ) ) ;
#375 = ORIENTED_EDGE ( 'NONE', *, *, #205, .T. ) ;
#376 = DIRECTION ( 'NONE',  ( -0.000000000000000000, -0.000000000000000000, -1.000000000000000000 ) ) ;
#377 = ORIENTED_EDGE ( 'NONE', *, *, #183, .T. ) ;
#378 = ORGANIZATION ( 'NEURÈENÝ', 'NEURÈENÝ', '' ) ;
#379 = DIRECTION ( 'NONE',  ( 1.000000000000000000, 0.000000000000000000, -0.000000000000000000 ) ) ;
#380 = ORIENTED_EDGE ( 'NONE', *, *, #358, .T. ) ;
#381 = CC_DESIGN_DATE_AND_TIME_ASSIGNMENT ( #102, #137, ( #80 ) ) ;
ENDSEC;
END-ISO-10303-21;
