ISO-10303-21;
HEADER;
FILE_DESCRIPTION (( 'STEP AP203' ),
    '1' );
FILE_NAME ('0431.STEP',
    '2022-07-10T09:07:36',
    ( '' ),
    ( '' ),
    'SwSTEP 2.0',
    'SolidWorks 2019',
    '' );
FILE_SCHEMA (( 'CONFIG_CONTROL_DESIGN' ));
ENDSEC;

DATA;
#1 = CLOSED_SHELL ( 'NONE', ( #291, #24, #114, #365, #300, #345, #245, #174, #218, #350, #70 ) ) ;
#2 = CARTESIAN_POINT ( 'NONE',  ( 8.000000000000000000, 9.797174393178825657E-16, 5.000000000000000000 ) ) ;
#3 = DATE_TIME_ROLE ( 'creation_date' ) ;
#4 = AXIS2_PLACEMENT_3D ( 'NONE', #126, #12, #213 ) ;
#5 = EDGE_CURVE ( 'NONE', #49, #258, #286, .T. ) ;
#6 = PERSON_AND_ORGANIZATION_ROLE ( 'creator' ) ;
#7 = EDGE_LOOP ( 'NONE', ( #352, #359 ) ) ;
#8 = DIRECTION ( 'NONE',  ( -0.000000000000000000, -0.000000000000000000, -1.000000000000000000 ) ) ;
#9 = APPLICATION_CONTEXT ( 'configuration controlled 3d designs of mechanical parts and assemblies' ) ;
#10 = DIRECTION ( 'NONE',  ( -0.000000000000000000, -0.000000000000000000, -1.000000000000000000 ) ) ;
#11 = EDGE_CURVE ( 'NONE', #287, #292, #265, .T. ) ;
#12 = DIRECTION ( 'NONE',  ( -0.000000000000000000, -0.000000000000000000, -1.000000000000000000 ) ) ;
#13 = COORDINATED_UNIVERSAL_TIME_OFFSET ( 1, 0, .AHEAD. ) ;
#14 = FACE_OUTER_BOUND ( 'NONE', #164, .T. ) ;
#15 = APPROVAL_PERSON_ORGANIZATION ( #208, #231, #74 ) ;
#16 = CARTESIAN_POINT ( 'NONE',  ( -3.000000000000000444, 0.000000000000000000, 80.00000000000000000 ) ) ;
#17 = DIRECTION ( 'NONE',  ( -0.000000000000000000, -0.000000000000000000, -1.000000000000000000 ) ) ;
#18 = DIRECTION ( 'NONE',  ( -1.000000000000000000, 0.000000000000000000, 0.000000000000000000 ) ) ;
#19 = EDGE_CURVE ( 'NONE', #258, #71, #238, .T. ) ;
#20 = ORIENTED_EDGE ( 'NONE', *, *, #19, .T. ) ;
#21 = APPROVAL_PERSON_ORGANIZATION ( #173, #361, #335 ) ;
#22 = CYLINDRICAL_SURFACE ( 'NONE', #289, 8.000000000000000000 ) ;
#23 = ORIENTED_EDGE ( 'NONE', *, *, #52, .F. ) ;
#24 = ADVANCED_FACE ( 'NONE', ( #261 ), #295, .F. ) ;
#25 = FACE_OUTER_BOUND ( 'NONE', #186, .T. ) ;
#26 = ORIENTED_EDGE ( 'NONE', *, *, #155, .T. ) ;
#27 = DIRECTION ( 'NONE',  ( 1.000000000000000000, 0.000000000000000000, 0.000000000000000000 ) ) ;
#28 =( NAMED_UNIT ( * ) SI_UNIT ( $, .STERADIAN. ) SOLID_ANGLE_UNIT ( ) );
#29 = EDGE_CURVE ( 'NONE', #195, #288, #168, .T. ) ;
#30 = ORIENTED_EDGE ( 'NONE', *, *, #341, .T. ) ;
#31 = CARTESIAN_POINT ( 'NONE',  ( 5.000000000000000000, 6.123233995736766282E-16, 80.00000000000000000 ) ) ;
#32 = CARTESIAN_POINT ( 'NONE',  ( 0.000000000000000000, 0.000000000000000000, 80.00000000000000000 ) ) ;
#33 = LOCAL_TIME ( 11, 7, 36.00000000000000000, #229 ) ;
#34 = PERSON_AND_ORGANIZATION ( #324, #144 ) ;
#35 = EDGE_CURVE ( 'NONE', #322, #145, #203, .T. ) ;
#36 = AXIS2_PLACEMENT_3D ( 'NONE', #255, #53, #138 ) ;
#37 = DIRECTION ( 'NONE',  ( 0.000000000000000000, 0.000000000000000000, -1.000000000000000000 ) ) ;
#38 = AXIS2_PLACEMENT_3D ( 'NONE', #314, #17, #151 ) ;
#39 = DIRECTION ( 'NONE',  ( 0.000000000000000000, 0.000000000000000000, 1.000000000000000000 ) ) ;
#40 = ORIENTED_EDGE ( 'NONE', *, *, #277, .T. ) ;
#41 = FACE_OUTER_BOUND ( 'NONE', #349, .T. ) ;
#42 = AXIS2_PLACEMENT_3D ( 'NONE', #366, #312, #43 ) ;
#43 = DIRECTION ( 'NONE',  ( -1.000000000000000000, 0.000000000000000000, 0.000000000000000000 ) ) ;
#44 = ORIENTED_EDGE ( 'NONE', *, *, #29, .T. ) ;
#45 = CARTESIAN_POINT ( 'NONE',  ( 5.500000000000000000, 0.000000000000000000, 5.000000000000002665 ) ) ;
#46 = CC_DESIGN_PERSON_AND_ORGANIZATION_ASSIGNMENT ( #163, #206, ( #94 ) ) ;
#47 = DIRECTION ( 'NONE',  ( 1.000000000000000000, 0.000000000000000000, 0.000000000000000000 ) ) ;
#48 = DIRECTION ( 'NONE',  ( 0.000000000000000000, 0.000000000000000000, 1.000000000000000000 ) ) ;
#49 = VERTEX_POINT ( 'NONE', #172 ) ;
#50 = AXIS2_PLACEMENT_3D ( 'NONE', #273, #101, #344 ) ;
#51 = ORIENTED_EDGE ( 'NONE', *, *, #372, .T. ) ;
#52 = EDGE_CURVE ( 'NONE', #292, #49, #303, .T. ) ;
#53 = DIRECTION ( 'NONE',  ( 0.000000000000000000, 0.000000000000000000, 1.000000000000000000 ) ) ;
#54 = FACE_OUTER_BOUND ( 'NONE', #99, .T. ) ;
#55 = ORIENTED_EDGE ( 'NONE', *, *, #76, .F. ) ;
#56 = ORIENTED_EDGE ( 'NONE', *, *, #76, .T. ) ;
#57 = LOCAL_TIME ( 11, 7, 36.00000000000000000, #297 ) ;
#58 = APPLICATION_PROTOCOL_DEFINITION ( 'international standard', 'config_control_design', 1994, #9 ) ;
#59 = DIRECTION ( 'NONE',  ( -1.000000000000000000, 0.000000000000000000, 0.000000000000000000 ) ) ;
#60 = CC_DESIGN_APPROVAL ( #231, ( #241 ) ) ;
#61 = EDGE_CURVE ( 'NONE', #292, #287, #73, .T. ) ;
#62 = VERTEX_POINT ( 'NONE', #95 ) ;
#63 = PERSON_AND_ORGANIZATION ( #324, #144 ) ;
#64 = DIRECTION ( 'NONE',  ( 1.000000000000000000, 0.000000000000000000, 0.000000000000000000 ) ) ;
#65 = COORDINATED_UNIVERSAL_TIME_OFFSET ( 1, 0, .AHEAD. ) ;
#66 = CARTESIAN_POINT ( 'NONE',  ( -5.500000000000000000, 6.735557395310442023E-16, 5.500000000000005329 ) ) ;
#67 = CIRCLE ( 'NONE', #103, 5.500000000000000000 ) ;
#68 = DATE_AND_TIME ( #270, #301 ) ;
#69 = CARTESIAN_POINT ( 'NONE',  ( 0.000000000000000000, 0.000000000000000000, 80.00000000000000000 ) ) ;
#70 = ADVANCED_FACE ( 'NONE', ( #235 ), #360, .F. ) ;
#71 = VERTEX_POINT ( 'NONE', #45 ) ;
#72 = PLANE ( 'NONE',  #214 ) ;
#73 = CIRCLE ( 'NONE', #140, 5.000000000000000000 ) ;
#74 = APPROVAL_ROLE ( '' ) ;
#75 = FACE_BOUND ( 'NONE', #329, .T. ) ;
#76 = EDGE_CURVE ( 'NONE', #310, #288, #244, .T. ) ;
#77 = CIRCLE ( 'NONE', #225, 3.000000000000000444 ) ;
#78 = CARTESIAN_POINT ( 'NONE',  ( 0.000000000000000000, 0.000000000000000000, 5.000000000000000000 ) ) ;
#79 = CARTESIAN_POINT ( 'NONE',  ( 0.000000000000000000, 0.000000000000000000, 0.000000000000000000 ) ) ;
#80 = CARTESIAN_POINT ( 'NONE',  ( 8.000000000000000000, 9.797174393178825657E-16, 0.000000000000000000 ) ) ;
#81 = AXIS2_PLACEMENT_3D ( 'NONE', #188, #379, #194 ) ;
#82 = FACE_OUTER_BOUND ( 'NONE', #252, .T. ) ;
#83 = ORIENTED_EDGE ( 'NONE', *, *, #61, .F. ) ;
#84 = CARTESIAN_POINT ( 'NONE',  ( 0.000000000000000000, 0.000000000000000000, 5.000000000000000000 ) ) ;
#85 = ORIENTED_EDGE ( 'NONE', *, *, #125, .T. ) ;
#86 = DIRECTION ( 'NONE',  ( 1.000000000000000000, 0.000000000000000000, -0.000000000000000000 ) ) ;
#87 = ORIENTED_EDGE ( 'NONE', *, *, #215, .F. ) ;
#88 = DATE_AND_TIME ( #357, #378 ) ;
#89 = AXIS2_PLACEMENT_3D ( 'NONE', #121, #239, #47 ) ;
#90 = ORIENTED_EDGE ( 'NONE', *, *, #5, .F. ) ;
#91 = APPROVAL ( #167, 'NEURÈENÝ' ) ;
#92 = APPLICATION_CONTEXT ( 'configuration controlled 3d designs of mechanical parts and assemblies' ) ;
#93 = DIRECTION ( 'NONE',  ( 0.000000000000000000, 0.000000000000000000, 1.000000000000000000 ) ) ;
#94 = PRODUCT ( '0431', '0431', '', ( #198 ) ) ;
#95 = CARTESIAN_POINT ( 'NONE',  ( -3.000000000000000444, 0.000000000000000000, 0.000000000000000000 ) ) ;
#96 = CARTESIAN_POINT ( 'NONE',  ( 0.000000000000000000, 0.000000000000000000, 0.000000000000000000 ) ) ;
#97 = DIRECTION ( 'NONE',  ( -0.000000000000000000, -0.000000000000000000, -1.000000000000000000 ) ) ;
#98 = DIRECTION ( 'NONE',  ( 1.000000000000000000, 0.000000000000000000, 0.000000000000000000 ) ) ;
#99 = EDGE_LOOP ( 'NONE', ( #162, #44, #367, #223 ) ) ;
#100 = AXIS2_PLACEMENT_3D ( 'NONE', #177, #39, #98 ) ;
#101 = DIRECTION ( 'NONE',  ( -0.000000000000000000, -0.000000000000000000, -1.000000000000000000 ) ) ;
#102 = DIRECTION ( 'NONE',  ( 0.000000000000000000, 0.000000000000000000, 1.000000000000000000 ) ) ;
#103 = AXIS2_PLACEMENT_3D ( 'NONE', #78, #180, #337 ) ;
#104 = DIRECTION ( 'NONE',  ( -0.000000000000000000, -0.000000000000000000, -1.000000000000000000 ) ) ;
#105 = CARTESIAN_POINT ( 'NONE',  ( 5.500000000000000000, 0.000000000000000000, 5.500000000000005329 ) ) ;
#106 = LINE ( 'NONE', #283, #282 ) ;
#107 = ORIENTED_EDGE ( 'NONE', *, *, #125, .F. ) ;
#108 = CARTESIAN_POINT ( 'NONE',  ( 0.000000000000000000, 0.000000000000000000, 5.000000000000000000 ) ) ;
#109 = FACE_BOUND ( 'NONE', #7, .T. ) ;
#110 = EDGE_CURVE ( 'NONE', #71, #228, #250, .T. ) ;
#111 = ORIENTED_EDGE ( 'NONE', *, *, #149, .T. ) ;
#112 = CALENDAR_DATE ( 2022, 10, 7 ) ;
#113 = TOROIDAL_SURFACE ( 'NONE', #338, 5.500000000000000000, 0.5000000000000000000 ) ;
#114 = ADVANCED_FACE ( 'NONE', ( #14 ), #237, .T. ) ;
#115 = APPROVAL_ROLE ( '' ) ;
#116 = LINE ( 'NONE', #31, #320 ) ;
#117 = VECTOR ( 'NONE', #259, 1000.000000000000000 ) ;
#118 = DIRECTION ( 'NONE',  ( 0.000000000000000000, 0.000000000000000000, 1.000000000000000000 ) ) ;
#119 = AXIS2_PLACEMENT_3D ( 'NONE', #108, #351, #191 ) ;
#120 = CYLINDRICAL_SURFACE ( 'NONE', #50, 5.000000000000000000 ) ;
#121 = CARTESIAN_POINT ( 'NONE',  ( 0.000000000000000000, 0.000000000000000000, 0.000000000000000000 ) ) ;
#122 = ORIENTED_EDGE ( 'NONE', *, *, #5, .T. ) ;
#123 = ADVANCED_BREP_SHAPE_REPRESENTATION ( '0431', ( #247, #343 ), #305 ) ;
#124 = CIRCLE ( 'NONE', #150, 3.000000000000000444 ) ;
#125 = EDGE_CURVE ( 'NONE', #189, #195, #158, .T. ) ;
#126 = CARTESIAN_POINT ( 'NONE',  ( 0.000000000000000000, 0.000000000000000000, 0.000000000000000000 ) ) ;
#127 = CARTESIAN_POINT ( 'NONE',  ( 0.000000000000000000, 0.000000000000000000, 5.000000000000000000 ) ) ;
#128 = VECTOR ( 'NONE', #294, 1000.000000000000000 ) ;
#129 = FACE_OUTER_BOUND ( 'NONE', #192, .T. ) ;
#130 = AXIS2_PLACEMENT_3D ( 'NONE', #284, #133, #279 ) ;
#131 = DIRECTION ( 'NONE',  ( -0.000000000000000000, -0.000000000000000000, -1.000000000000000000 ) ) ;
#132 = EDGE_LOOP ( 'NONE', ( #236, #154 ) ) ;
#133 = DIRECTION ( 'NONE',  ( 0.000000000000000000, 0.000000000000000000, -1.000000000000000000 ) ) ;
#134 = AXIS2_PLACEMENT_3D ( 'NONE', #330, #199, #59 ) ;
#135 = CARTESIAN_POINT ( 'NONE',  ( -8.000000000000000000, 0.000000000000000000, 0.000000000000000000 ) ) ;
#136 = EDGE_CURVE ( 'NONE', #152, #322, #77, .T. ) ;
#137 = DIRECTION ( 'NONE',  ( 1.000000000000000000, 0.000000000000000000, 0.000000000000000000 ) ) ;
#138 = DIRECTION ( 'NONE',  ( 1.000000000000000000, 0.000000000000000000, 0.000000000000000000 ) ) ;
#139 = ORIENTED_EDGE ( 'NONE', *, *, #325, .F. ) ;
#140 = AXIS2_PLACEMENT_3D ( 'NONE', #32, #118, #267 ) ;
#141 = CALENDAR_DATE ( 2022, 10, 7 ) ;
#142 = CARTESIAN_POINT ( 'NONE',  ( 3.000000000000000444, 3.673940397442060361E-16, 80.00000000000000000 ) ) ;
#143 =( NAMED_UNIT ( * ) PLANE_ANGLE_UNIT ( ) SI_UNIT ( $, .RADIAN. ) );
#144 = ORGANIZATION ( 'NEURÈENÝ', 'NEURÈENÝ', '' ) ;
#145 = VERTEX_POINT ( 'NONE', #368 ) ;
#146 = PERSON_AND_ORGANIZATION_ROLE ( 'design_supplier' ) ;
#147 = DIRECTION ( 'NONE',  ( 0.000000000000000000, 0.000000000000000000, 1.000000000000000000 ) ) ;
#148 = DATE_TIME_ROLE ( 'classification_date' ) ;
#149 = EDGE_CURVE ( 'NONE', #145, #62, #234, .T. ) ;
#150 = AXIS2_PLACEMENT_3D ( 'NONE', #157, #104, #319 ) ;
#151 = DIRECTION ( 'NONE',  ( -1.000000000000000000, 0.000000000000000000, 0.000000000000000000 ) ) ;
#152 = VERTEX_POINT ( 'NONE', #183 ) ;
#153 = LINE ( 'NONE', #16, #209 ) ;
#154 = ORIENTED_EDGE ( 'NONE', *, *, #11, .T. ) ;
#155 = EDGE_CURVE ( 'NONE', #152, #62, #153, .T. ) ;
#156 = DIRECTION ( 'NONE',  ( 0.000000000000000000, 0.000000000000000000, 1.000000000000000000 ) ) ;
#157 = CARTESIAN_POINT ( 'NONE',  ( 0.000000000000000000, 0.000000000000000000, 0.000000000000000000 ) ) ;
#158 = CIRCLE ( 'NONE', #171, 8.000000000000000000 ) ;
#159 = CARTESIAN_POINT ( 'NONE',  ( 5.000000000000000000, 6.123233995736766282E-16, 80.00000000000000000 ) ) ;
#160 = DIRECTION ( 'NONE',  ( 0.000000000000000000, -1.000000000000000000, 0.000000000000000000 ) ) ;
#161 = EDGE_CURVE ( 'NONE', #288, #310, #196, .T. ) ;
#162 = ORIENTED_EDGE ( 'NONE', *, *, #341, .F. ) ;
#163 = PERSON_AND_ORGANIZATION ( #324, #144 ) ;
#164 = EDGE_LOOP ( 'NONE', ( #317, #51, #211, #23 ) ) ;
#165 = DIRECTION ( 'NONE',  ( 0.000000000000000000, 0.000000000000000000, 1.000000000000000000 ) ) ;
#166 = ORIENTED_EDGE ( 'NONE', *, *, #372, .F. ) ;
#167 = APPROVAL_STATUS ( 'not_yet_approved' ) ;
#168 = LINE ( 'NONE', #2, #128 ) ;
#169 = PRODUCT_RELATED_PRODUCT_CATEGORY ( 'detail', '', ( #94 ) ) ;
#170 = APPLICATION_PROTOCOL_DEFINITION ( 'international standard', 'config_control_design', 1994, #92 ) ;
#171 = AXIS2_PLACEMENT_3D ( 'NONE', #127, #102, #243 ) ;
#172 = CARTESIAN_POINT ( 'NONE',  ( -5.000000000000000000, 0.000000000000000000, 5.500000000000005329 ) ) ;
#173 = PERSON_AND_ORGANIZATION ( #324, #144 ) ;
#174 = ADVANCED_FACE ( 'NONE', ( #41 ), #120, .T. ) ;
#175 = APPROVAL_STATUS ( 'not_yet_approved' ) ;
#176 = VECTOR ( 'NONE', #8, 1000.000000000000000 ) ;
#177 = CARTESIAN_POINT ( 'NONE',  ( 0.000000000000000000, 0.000000000000000000, 5.500000000000005329 ) ) ;
#178 = DATE_AND_TIME ( #181, #220 ) ;
#179 = EDGE_CURVE ( 'NONE', #49, #228, #354, .T. ) ;
#180 = DIRECTION ( 'NONE',  ( -0.000000000000000000, -0.000000000000000000, -1.000000000000000000 ) ) ;
#181 = CALENDAR_DATE ( 2022, 10, 7 ) ;
#182 = CARTESIAN_POINT ( 'NONE',  ( 0.000000000000000000, 0.000000000000000000, 80.00000000000000000 ) ) ;
#183 = CARTESIAN_POINT ( 'NONE',  ( -3.000000000000000444, 0.000000000000000000, 80.00000000000000000 ) ) ;
#184 = ORIENTED_EDGE ( 'NONE', *, *, #136, .T. ) ;
#185 = DIRECTION ( 'NONE',  ( -0.000000000000000000, -0.000000000000000000, -1.000000000000000000 ) ) ;
#186 = EDGE_LOOP ( 'NONE', ( #184, #326, #111, #232 ) ) ;
#187 = APPROVAL_PERSON_ORGANIZATION ( #204, #91, #115 ) ;
#188 = CARTESIAN_POINT ( 'NONE',  ( 0.000000000000000000, 0.000000000000000000, 80.00000000000000000 ) ) ;
#189 = VERTEX_POINT ( 'NONE', #212 ) ;
#190 = CC_DESIGN_DATE_AND_TIME_ASSIGNMENT ( #68, #148, ( #241 ) ) ;
#191 = DIRECTION ( 'NONE',  ( 1.000000000000000000, 0.000000000000000000, -0.000000000000000000 ) ) ;
#192 = EDGE_LOOP ( 'NONE', ( #85, #30 ) ) ;
#193 = AXIS2_PLACEMENT_3D ( 'NONE', #380, #219, #137 ) ;
#194 = DIRECTION ( 'NONE',  ( 1.000000000000000000, 0.000000000000000000, 0.000000000000000000 ) ) ;
#195 = VERTEX_POINT ( 'NONE', #309 ) ;
#196 = CIRCLE ( 'NONE', #89, 8.000000000000000000 ) ;
#197 = ORIENTED_EDGE ( 'NONE', *, *, #110, .F. ) ;
#198 = MECHANICAL_CONTEXT ( 'NONE', #92, 'mechanical' ) ;
#199 = DIRECTION ( 'NONE',  ( -0.000000000000000000, -0.000000000000000000, -1.000000000000000000 ) ) ;
#200 = CC_DESIGN_PERSON_AND_ORGANIZATION_ASSIGNMENT ( #34, #146, ( #364 ) ) ;
#201 = AXIS2_PLACEMENT_3D ( 'NONE', #278, #242, #276 ) ;
#202 = PERSON_AND_ORGANIZATION ( #324, #144 ) ;
#203 = LINE ( 'NONE', #142, #117 ) ;
#204 = PERSON_AND_ORGANIZATION ( #324, #144 ) ;
#205 = EDGE_CURVE ( 'NONE', #228, #71, #67, .T. ) ;
#206 = PERSON_AND_ORGANIZATION_ROLE ( 'design_owner' ) ;
#207 = DIRECTION ( 'NONE',  ( 1.000000000000000000, 0.000000000000000000, 0.000000000000000000 ) ) ;
#208 = PERSON_AND_ORGANIZATION ( #324, #144 ) ;
#209 = VECTOR ( 'NONE', #271, 1000.000000000000000 ) ;
#210 = DIRECTION ( 'NONE',  ( 1.224646799147353207E-16, 1.000000000000000000, -0.000000000000000000 ) ) ;
#211 = ORIENTED_EDGE ( 'NONE', *, *, #215, .T. ) ;
#212 = CARTESIAN_POINT ( 'NONE',  ( -8.000000000000000000, 0.000000000000000000, 5.000000000000000000 ) ) ;
#213 = DIRECTION ( 'NONE',  ( 1.000000000000000000, 0.000000000000000000, 0.000000000000000000 ) ) ;
#214 = AXIS2_PLACEMENT_3D ( 'NONE', #182, #156, #86 ) ;
#215 = EDGE_CURVE ( 'NONE', #258, #49, #334, .T. ) ;
#216 = CARTESIAN_POINT ( 'NONE',  ( -5.000000000000000000, 0.000000000000000000, 80.00000000000000000 ) ) ;
#217 = ORIENTED_EDGE ( 'NONE', *, *, #277, .F. ) ;
#218 = ADVANCED_FACE ( 'NONE', ( #75, #340 ), #72, .T. ) ;
#219 = DIRECTION ( 'NONE',  ( 0.000000000000000000, 0.000000000000000000, 1.000000000000000000 ) ) ;
#220 = LOCAL_TIME ( 11, 7, 36.00000000000000000, #13 ) ;
#221 = DIRECTION ( 'NONE',  ( 1.000000000000000000, 0.000000000000000000, -0.000000000000000000 ) ) ;
#222 = CARTESIAN_POINT ( 'NONE',  ( 0.000000000000000000, 0.000000000000000000, 5.500000000000005329 ) ) ;
#223 = ORIENTED_EDGE ( 'NONE', *, *, #272, .F. ) ;
#224 = DESIGN_CONTEXT ( 'detailed design', #9, 'design' ) ;
#225 = AXIS2_PLACEMENT_3D ( 'NONE', #69, #269, #207 ) ;
#226 = EDGE_LOOP ( 'NONE', ( #55, #285 ) ) ;
#227 = APPROVAL_DATE_TIME ( #355, #91 ) ;
#228 = VERTEX_POINT ( 'NONE', #346 ) ;
#229 = COORDINATED_UNIVERSAL_TIME_OFFSET ( 1, 0, .AHEAD. ) ;
#230 = ORIENTED_EDGE ( 'NONE', *, *, #29, .F. ) ;
#231 = APPROVAL ( #175, 'NEURÈENÝ' ) ;
#232 = ORIENTED_EDGE ( 'NONE', *, *, #155, .F. ) ;
#233 = DIRECTION ( 'NONE',  ( 1.000000000000000000, 0.000000000000000000, 0.000000000000000000 ) ) ;
#234 = CIRCLE ( 'NONE', #4, 3.000000000000000444 ) ;
#235 = FACE_OUTER_BOUND ( 'NONE', #332, .T. ) ;
#236 = ORIENTED_EDGE ( 'NONE', *, *, #61, .T. ) ;
#237 = CYLINDRICAL_SURFACE ( 'NONE', #38, 5.000000000000000000 ) ;
#238 = CIRCLE ( 'NONE', #342, 0.5000000000000004441 ) ;
#239 = DIRECTION ( 'NONE',  ( 0.000000000000000000, 0.000000000000000000, 1.000000000000000000 ) ) ;
#240 = CC_DESIGN_PERSON_AND_ORGANIZATION_ASSIGNMENT ( #333, #302, ( #364 ) ) ;
#241 = SECURITY_CLASSIFICATION ( '', '', #263 ) ;
#242 = DIRECTION ( 'NONE',  ( 0.000000000000000000, 0.000000000000000000, 1.000000000000000000 ) ) ;
#243 = DIRECTION ( 'NONE',  ( 1.000000000000000000, 0.000000000000000000, 0.000000000000000000 ) ) ;
#244 = CIRCLE ( 'NONE', #201, 8.000000000000000000 ) ;
#245 = ADVANCED_FACE ( 'NONE', ( #323, #254 ), #348, .F. ) ;
#246 = CYLINDRICAL_SURFACE ( 'NONE', #130, 3.000000000000000444 ) ;
#247 = MANIFOLD_SOLID_BREP ( 'Odebrat vysunutím3', #1 ) ;
#248 = CARTESIAN_POINT ( 'NONE',  ( 3.000000000000000444, 3.673940397442060361E-16, 80.00000000000000000 ) ) ;
#249 = ORIENTED_EDGE ( 'NONE', *, *, #179, .F. ) ;
#250 = CIRCLE ( 'NONE', #280, 5.500000000000000000 ) ;
#251 = ORIENTED_EDGE ( 'NONE', *, *, #272, .T. ) ;
#252 = EDGE_LOOP ( 'NONE', ( #249, #87, #20, #296 ) ) ;
#253 = CC_DESIGN_APPROVAL ( #361, ( #377 ) ) ;
#254 = FACE_OUTER_BOUND ( 'NONE', #226, .T. ) ;
#255 = CARTESIAN_POINT ( 'NONE',  ( 0.000000000000000000, 0.000000000000000000, 80.00000000000000000 ) ) ;
#256 = APPROVAL_STATUS ( 'not_yet_approved' ) ;
#257 = EDGE_LOOP ( 'NONE', ( #90, #313, #197, #307 ) ) ;
#258 = VERTEX_POINT ( 'NONE', #376 ) ;
#259 = DIRECTION ( 'NONE',  ( 0.000000000000000000, 0.000000000000000000, -1.000000000000000000 ) ) ;
#260 = AXIS2_PLACEMENT_3D ( 'NONE', #84, #371, #373 ) ;
#261 = FACE_OUTER_BOUND ( 'NONE', #257, .T. ) ;
#262 = CC_DESIGN_PERSON_AND_ORGANIZATION_ASSIGNMENT ( #63, #304, ( #241 ) ) ;
#263 = SECURITY_CLASSIFICATION_LEVEL ( 'unclassified' ) ;
#264 = ORIENTED_EDGE ( 'NONE', *, *, #35, .F. ) ;
#265 = CIRCLE ( 'NONE', #36, 5.000000000000000000 ) ;
#266 = DATE_AND_TIME ( #141, #57 ) ;
#267 = DIRECTION ( 'NONE',  ( 1.000000000000000000, 0.000000000000000000, 0.000000000000000000 ) ) ;
#268 = CC_DESIGN_APPROVAL ( #91, ( #364 ) ) ;
#269 = DIRECTION ( 'NONE',  ( 0.000000000000000000, 0.000000000000000000, 1.000000000000000000 ) ) ;
#270 = CALENDAR_DATE ( 2022, 10, 7 ) ;
#271 = DIRECTION ( 'NONE',  ( 0.000000000000000000, 0.000000000000000000, -1.000000000000000000 ) ) ;
#272 = EDGE_CURVE ( 'NONE', #189, #310, #106, .T. ) ;
#273 = CARTESIAN_POINT ( 'NONE',  ( 0.000000000000000000, 0.000000000000000000, 80.00000000000000000 ) ) ;
#274 = APPROVAL_DATE_TIME ( #178, #231 ) ;
#275 = CC_DESIGN_SECURITY_CLASSIFICATION ( #241, ( #364 ) ) ;
#276 = DIRECTION ( 'NONE',  ( 1.000000000000000000, 0.000000000000000000, 0.000000000000000000 ) ) ;
#277 = EDGE_CURVE ( 'NONE', #62, #145, #124, .T. ) ;
#278 = CARTESIAN_POINT ( 'NONE',  ( 0.000000000000000000, 0.000000000000000000, 0.000000000000000000 ) ) ;
#279 = DIRECTION ( 'NONE',  ( -1.000000000000000000, 0.000000000000000000, 0.000000000000000000 ) ) ;
#280 = AXIS2_PLACEMENT_3D ( 'NONE', #339, #97, #306 ) ;
#281 = CARTESIAN_POINT ( 'NONE',  ( 0.000000000000000000, 0.000000000000000000, 5.000000000000000000 ) ) ;
#282 = VECTOR ( 'NONE', #185, 1000.000000000000000 ) ;
#283 = CARTESIAN_POINT ( 'NONE',  ( -8.000000000000000000, 0.000000000000000000, 5.000000000000000000 ) ) ;
#284 = CARTESIAN_POINT ( 'NONE',  ( 0.000000000000000000, 0.000000000000000000, 80.00000000000000000 ) ) ;
#285 = ORIENTED_EDGE ( 'NONE', *, *, #161, .F. ) ;
#286 = CIRCLE ( 'NONE', #193, 5.000000000000000000 ) ;
#287 = VERTEX_POINT ( 'NONE', #159 ) ;
#288 = VERTEX_POINT ( 'NONE', #80 ) ;
#289 = AXIS2_PLACEMENT_3D ( 'NONE', #281, #131, #18 ) ;
#290 = CYLINDRICAL_SURFACE ( 'NONE', #134, 8.000000000000000000 ) ;
#291 = ADVANCED_FACE ( 'NONE', ( #25 ), #246, .F. ) ;
#292 = VERTEX_POINT ( 'NONE', #216 ) ;
#293 =( LENGTH_UNIT ( ) NAMED_UNIT ( * ) SI_UNIT ( .MILLI., .METRE. ) );
#294 = DIRECTION ( 'NONE',  ( -0.000000000000000000, -0.000000000000000000, -1.000000000000000000 ) ) ;
#295 = TOROIDAL_SURFACE ( 'NONE', #331, 5.500000000000000000, 0.5000000000000000000 ) ;
#296 = ORIENTED_EDGE ( 'NONE', *, *, #205, .F. ) ;
#297 = COORDINATED_UNIVERSAL_TIME_OFFSET ( 1, 0, .AHEAD. ) ;
#298 = UNCERTAINTY_MEASURE_WITH_UNIT (LENGTH_MEASURE( 1.000000000000000082E-05 ), #293, 'distance_accuracy_value', 'NONE');
#299 = PRODUCT_DEFINITION_SHAPE ( 'NONE', 'NONE',  #377 ) ;
#300 = ADVANCED_FACE ( 'NONE', ( #316 ), #22, .T. ) ;
#301 = LOCAL_TIME ( 11, 7, 36.00000000000000000, #65 ) ;
#302 = PERSON_AND_ORGANIZATION_ROLE ( 'creator' ) ;
#303 = LINE ( 'NONE', #336, #176 ) ;
#304 = PERSON_AND_ORGANIZATION_ROLE ( 'classification_officer' ) ;
#305 =( GEOMETRIC_REPRESENTATION_CONTEXT ( 3 ) GLOBAL_UNCERTAINTY_ASSIGNED_CONTEXT ( ( #298 ) ) GLOBAL_UNIT_ASSIGNED_CONTEXT ( ( #293, #143, #28 ) ) REPRESENTATION_CONTEXT ( 'NONE', 'WORKASPACE' ) );
#306 = DIRECTION ( 'NONE',  ( 1.000000000000000000, 0.000000000000000000, 0.000000000000000000 ) ) ;
#307 = ORIENTED_EDGE ( 'NONE', *, *, #19, .F. ) ;
#308 = SHAPE_DEFINITION_REPRESENTATION ( #299, #123 ) ;
#309 = CARTESIAN_POINT ( 'NONE',  ( 8.000000000000000000, 9.797174393178825657E-16, 5.000000000000000000 ) ) ;
#310 = VERTEX_POINT ( 'NONE', #135 ) ;
#311 = CC_DESIGN_DATE_AND_TIME_ASSIGNMENT ( #88, #3, ( #377 ) ) ;
#312 = DIRECTION ( 'NONE',  ( 0.000000000000000000, 0.000000000000000000, -1.000000000000000000 ) ) ;
#313 = ORIENTED_EDGE ( 'NONE', *, *, #179, .T. ) ;
#314 = CARTESIAN_POINT ( 'NONE',  ( 0.000000000000000000, 0.000000000000000000, 80.00000000000000000 ) ) ;
#315 = EDGE_LOOP ( 'NONE', ( #230, #107, #251, #56 ) ) ;
#316 = FACE_OUTER_BOUND ( 'NONE', #315, .T. ) ;
#317 = ORIENTED_EDGE ( 'NONE', *, *, #11, .F. ) ;
#318 = ORIENTED_EDGE ( 'NONE', *, *, #136, .F. ) ;
#319 = DIRECTION ( 'NONE',  ( 1.000000000000000000, 0.000000000000000000, 0.000000000000000000 ) ) ;
#320 = VECTOR ( 'NONE', #10, 1000.000000000000000 ) ;
#321 = CC_DESIGN_PERSON_AND_ORGANIZATION_ASSIGNMENT ( #202, #6, ( #377 ) ) ;
#322 = VERTEX_POINT ( 'NONE', #248 ) ;
#323 = FACE_BOUND ( 'NONE', #356, .T. ) ;
#324 = PERSON ( 'NEURÈENÝ', 'NEURÈENÝ', 'NEURÈENÝ', ('NEURÈENÝ'), ('NEURÈENÝ'), ('NEURÈENÝ') ) ;
#325 = EDGE_CURVE ( 'NONE', #322, #152, #370, .T. ) ;
#326 = ORIENTED_EDGE ( 'NONE', *, *, #35, .T. ) ;
#327 = CIRCLE ( 'NONE', #260, 8.000000000000000000 ) ;
#328 = CARTESIAN_POINT ( 'NONE',  ( 0.000000000000000000, 0.000000000000000000, 5.500000000000005329 ) ) ;
#329 = EDGE_LOOP ( 'NONE', ( #318, #139 ) ) ;
#330 = CARTESIAN_POINT ( 'NONE',  ( 0.000000000000000000, 0.000000000000000000, 5.000000000000000000 ) ) ;
#331 = AXIS2_PLACEMENT_3D ( 'NONE', #328, #147, #64 ) ;
#332 = EDGE_LOOP ( 'NONE', ( #264, #363, #26, #40 ) ) ;
#333 = PERSON_AND_ORGANIZATION ( #324, #144 ) ;
#334 = CIRCLE ( 'NONE', #100, 5.000000000000000000 ) ;
#335 = APPROVAL_ROLE ( '' ) ;
#336 = CARTESIAN_POINT ( 'NONE',  ( -5.000000000000000000, 0.000000000000000000, 80.00000000000000000 ) ) ;
#337 = DIRECTION ( 'NONE',  ( 1.000000000000000000, 0.000000000000000000, 0.000000000000000000 ) ) ;
#338 = AXIS2_PLACEMENT_3D ( 'NONE', #222, #165, #233 ) ;
#339 = CARTESIAN_POINT ( 'NONE',  ( 0.000000000000000000, 0.000000000000000000, 5.000000000000000000 ) ) ;
#340 = FACE_OUTER_BOUND ( 'NONE', #132, .T. ) ;
#341 = EDGE_CURVE ( 'NONE', #195, #189, #327, .T. ) ;
#342 = AXIS2_PLACEMENT_3D ( 'NONE', #105, #160, #37 ) ;
#343 = AXIS2_PLACEMENT_3D ( 'NONE', #96, #93, #27 ) ;
#344 = DIRECTION ( 'NONE',  ( -1.000000000000000000, 0.000000000000000000, 0.000000000000000000 ) ) ;
#345 = ADVANCED_FACE ( 'NONE', ( #109, #129 ), #374, .T. ) ;
#346 = CARTESIAN_POINT ( 'NONE',  ( -5.500000000000000000, 6.735557395310442023E-16, 5.000000000000002665 ) ) ;
#347 = AXIS2_PLACEMENT_3D ( 'NONE', #66, #210, #362 ) ;
#348 = PLANE ( 'NONE',  #358 ) ;
#349 = EDGE_LOOP ( 'NONE', ( #166, #83, #369, #122 ) ) ;
#350 = ADVANCED_FACE ( 'NONE', ( #82 ), #113, .F. ) ;
#351 = DIRECTION ( 'NONE',  ( 0.000000000000000000, 0.000000000000000000, 1.000000000000000000 ) ) ;
#352 = ORIENTED_EDGE ( 'NONE', *, *, #110, .T. ) ;
#353 = COORDINATED_UNIVERSAL_TIME_OFFSET ( 1, 0, .AHEAD. ) ;
#354 = CIRCLE ( 'NONE', #347, 0.5000000000000004441 ) ;
#355 = DATE_AND_TIME ( #112, #33 ) ;
#356 = EDGE_LOOP ( 'NONE', ( #217, #375 ) ) ;
#357 = CALENDAR_DATE ( 2022, 10, 7 ) ;
#358 = AXIS2_PLACEMENT_3D ( 'NONE', #79, #48, #221 ) ;
#359 = ORIENTED_EDGE ( 'NONE', *, *, #205, .T. ) ;
#360 = CYLINDRICAL_SURFACE ( 'NONE', #42, 3.000000000000000444 ) ;
#361 = APPROVAL ( #256, 'NEURÈENÝ' ) ;
#362 = DIRECTION ( 'NONE',  ( -1.000000000000000000, 1.224646799147351482E-16, 0.000000000000000000 ) ) ;
#363 = ORIENTED_EDGE ( 'NONE', *, *, #325, .T. ) ;
#364 = PRODUCT_DEFINITION_FORMATION_WITH_SPECIFIED_SOURCE ( 'LIBOVOLNÝ', '', #94, .NOT_KNOWN. ) ;
#365 = ADVANCED_FACE ( 'NONE', ( #54 ), #290, .T. ) ;
#366 = CARTESIAN_POINT ( 'NONE',  ( 0.000000000000000000, 0.000000000000000000, 80.00000000000000000 ) ) ;
#367 = ORIENTED_EDGE ( 'NONE', *, *, #161, .T. ) ;
#368 = CARTESIAN_POINT ( 'NONE',  ( 3.000000000000000444, 3.673940397442060361E-16, 0.000000000000000000 ) ) ;
#369 = ORIENTED_EDGE ( 'NONE', *, *, #52, .T. ) ;
#370 = CIRCLE ( 'NONE', #81, 3.000000000000000444 ) ;
#371 = DIRECTION ( 'NONE',  ( 0.000000000000000000, 0.000000000000000000, 1.000000000000000000 ) ) ;
#372 = EDGE_CURVE ( 'NONE', #287, #258, #116, .T. ) ;
#373 = DIRECTION ( 'NONE',  ( 1.000000000000000000, 0.000000000000000000, 0.000000000000000000 ) ) ;
#374 = PLANE ( 'NONE',  #119 ) ;
#375 = ORIENTED_EDGE ( 'NONE', *, *, #149, .F. ) ;
#376 = CARTESIAN_POINT ( 'NONE',  ( 5.000000000000000000, 6.123233995736766282E-16, 5.500000000000005329 ) ) ;
#377 = PRODUCT_DEFINITION ( 'NEZNÁMÝ', '', #364, #224 ) ;
#378 = LOCAL_TIME ( 11, 7, 36.00000000000000000, #353 ) ;
#379 = DIRECTION ( 'NONE',  ( 0.000000000000000000, 0.000000000000000000, 1.000000000000000000 ) ) ;
#380 = CARTESIAN_POINT ( 'NONE',  ( 0.000000000000000000, 0.000000000000000000, 5.500000000000005329 ) ) ;
#381 = APPROVAL_DATE_TIME ( #266, #361 ) ;
ENDSEC;
END-ISO-10303-21;
