ISO-10303-21;
HEADER;
FILE_DESCRIPTION (( 'STEP AP203' ),
    '1' );
FILE_NAME ('bc90.STEP',
    '2022-07-10T09:12:52',
    ( '' ),
    ( '' ),
    'SwSTEP 2.0',
    'SolidWorks 2019',
    '' );
FILE_SCHEMA (( 'CONFIG_CONTROL_DESIGN' ));
ENDSEC;

DATA;
#1 = DIRECTION ( 'NONE',  ( 1.000000000000000000, 0.000000000000000000, 0.000000000000000000 ) ) ;
#2 = EDGE_LOOP ( 'NONE', ( #282, #58 ) ) ;
#3 = AXIS2_PLACEMENT_3D ( 'NONE', #219, #72, #334 ) ;
#4 = ADVANCED_BREP_SHAPE_REPRESENTATION ( 'bc90', ( #298, #289 ), #317 ) ;
#5 = CARTESIAN_POINT ( 'NONE',  ( 0.000000000000000000, 0.000000000000000000, 130.0000000000000000 ) ) ;
#6 = ORIENTED_EDGE ( 'NONE', *, *, #69, .F. ) ;
#7 = AXIS2_PLACEMENT_3D ( 'NONE', #372, #230, #345 ) ;
#8 = FACE_OUTER_BOUND ( 'NONE', #105, .T. ) ;
#9 = LOCAL_TIME ( 11, 12, 52.00000000000000000, #59 ) ;
#10 = CARTESIAN_POINT ( 'NONE',  ( 0.000000000000000000, 0.000000000000000000, 5.000000000000000000 ) ) ;
#11 = FACE_OUTER_BOUND ( 'NONE', #180, .T. ) ;
#12 =( LENGTH_UNIT ( ) NAMED_UNIT ( * ) SI_UNIT ( .MILLI., .METRE. ) );
#13 = ADVANCED_FACE ( 'NONE', ( #79 ), #329, .T. ) ;
#14 = PLANE ( 'NONE',  #127 ) ;
#15 = DIRECTION ( 'NONE',  ( 1.000000000000000000, 0.000000000000000000, 0.000000000000000000 ) ) ;
#16 = DIRECTION ( 'NONE',  ( 0.000000000000000000, -1.000000000000000000, 0.000000000000000000 ) ) ;
#17 = DATE_AND_TIME ( #80, #271 ) ;
#18 = ORIENTED_EDGE ( 'NONE', *, *, #245, .T. ) ;
#19 = CC_DESIGN_PERSON_AND_ORGANIZATION_ASSIGNMENT ( #283, #308, ( #364 ) ) ;
#20 = CALENDAR_DATE ( 2022, 10, 7 ) ;
#21 = DIRECTION ( 'NONE',  ( 1.000000000000000000, 0.000000000000000000, 0.000000000000000000 ) ) ;
#22 = ORIENTED_EDGE ( 'NONE', *, *, #347, .F. ) ;
#23 = DIRECTION ( 'NONE',  ( -1.000000000000000000, 0.000000000000000000, 0.000000000000000000 ) ) ;
#24 = VECTOR ( 'NONE', #367, 1000.000000000000000 ) ;
#25 = DATE_AND_TIME ( #119, #106 ) ;
#26 = EDGE_CURVE ( 'NONE', #146, #212, #301, .T. ) ;
#27 = AXIS2_PLACEMENT_3D ( 'NONE', #71, #216, #221 ) ;
#28 = ORIENTED_EDGE ( 'NONE', *, *, #245, .F. ) ;
#29 = PERSON_AND_ORGANIZATION ( #44, #249 ) ;
#30 = APPROVAL ( #51, 'NEURÈENÝ' ) ;
#31 = DIRECTION ( 'NONE',  ( -1.000000000000000000, 0.000000000000000000, 0.000000000000000000 ) ) ;
#32 = VERTEX_POINT ( 'NONE', #365 ) ;
#33 = AXIS2_PLACEMENT_3D ( 'NONE', #196, #225, #21 ) ;
#34 = CARTESIAN_POINT ( 'NONE',  ( 0.000000000000000000, 0.000000000000000000, 130.0000000000000000 ) ) ;
#35 = ORIENTED_EDGE ( 'NONE', *, *, #125, .F. ) ;
#36 = SECURITY_CLASSIFICATION ( '', '', #47 ) ;
#37 = CC_DESIGN_APPROVAL ( #358, ( #364 ) ) ;
#38 = AXIS2_PLACEMENT_3D ( 'NONE', #315, #375, #174 ) ;
#39 = CARTESIAN_POINT ( 'NONE',  ( -7.000000000000000000, 0.000000000000000000, 5.000000000000000000 ) ) ;
#40 = ORIENTED_EDGE ( 'NONE', *, *, #178, .T. ) ;
#41 = EDGE_CURVE ( 'NONE', #158, #323, #220, .T. ) ;
#42 = CARTESIAN_POINT ( 'NONE',  ( 4.500000000000000888, 0.000000000000000000, 5.500000000000005329 ) ) ;
#43 = UNCERTAINTY_MEASURE_WITH_UNIT (LENGTH_MEASURE( 1.000000000000000082E-05 ), #12, 'distance_accuracy_value', 'NONE');
#44 = PERSON ( 'NEURÈENÝ', 'NEURÈENÝ', 'NEURÈENÝ', ('NEURÈENÝ'), ('NEURÈENÝ'), ('NEURÈENÝ') ) ;
#45 = CYLINDRICAL_SURFACE ( 'NONE', #338, 7.000000000000000000 ) ;
#46 = EDGE_CURVE ( 'NONE', #182, #146, #369, .T. ) ;
#47 = SECURITY_CLASSIFICATION_LEVEL ( 'unclassified' ) ;
#48 = VECTOR ( 'NONE', #353, 1000.000000000000000 ) ;
#49 = DIRECTION ( 'NONE',  ( -1.000000000000000000, 0.000000000000000000, 0.000000000000000000 ) ) ;
#50 = CC_DESIGN_DATE_AND_TIME_ASSIGNMENT ( #25, #176, ( #159 ) ) ;
#51 = APPROVAL_STATUS ( 'not_yet_approved' ) ;
#52 = FACE_OUTER_BOUND ( 'NONE', #65, .T. ) ;
#53 = DATE_TIME_ROLE ( 'classification_date' ) ;
#54 = DIRECTION ( 'NONE',  ( 1.000000000000000000, 0.000000000000000000, 0.000000000000000000 ) ) ;
#55 = EDGE_LOOP ( 'NONE', ( #355, #294 ) ) ;
#56 = COORDINATED_UNIVERSAL_TIME_OFFSET ( 1, 0, .AHEAD. ) ;
#57 = AXIS2_PLACEMENT_3D ( 'NONE', #270, #134, #244 ) ;
#58 = ORIENTED_EDGE ( 'NONE', *, *, #168, .T. ) ;
#59 = COORDINATED_UNIVERSAL_TIME_OFFSET ( 1, 0, .AHEAD. ) ;
#60 = EDGE_CURVE ( 'NONE', #320, #311, #336, .T. ) ;
#61 = FACE_OUTER_BOUND ( 'NONE', #227, .T. ) ;
#62 = LOCAL_TIME ( 11, 12, 52.00000000000000000, #351 ) ;
#63 = PRODUCT_RELATED_PRODUCT_CATEGORY ( 'detail', '', ( #368 ) ) ;
#64 = DIRECTION ( 'NONE',  ( 1.000000000000000000, 0.000000000000000000, 0.000000000000000000 ) ) ;
#65 = EDGE_LOOP ( 'NONE', ( #86, #316 ) ) ;
#66 = DIRECTION ( 'NONE',  ( -1.000000000000000000, 1.224646799147351482E-16, 0.000000000000000000 ) ) ;
#67 = ORIENTED_EDGE ( 'NONE', *, *, #366, .T. ) ;
#68 = CARTESIAN_POINT ( 'NONE',  ( 2.100000000000000089, 2.571758278209441957E-16, 130.0000000000000000 ) ) ;
#69 = EDGE_CURVE ( 'NONE', #320, #32, #335, .T. ) ;
#70 = FACE_OUTER_BOUND ( 'NONE', #379, .T. ) ;
#71 = CARTESIAN_POINT ( 'NONE',  ( 0.000000000000000000, 0.000000000000000000, 0.000000000000000000 ) ) ;
#72 = DIRECTION ( 'NONE',  ( 0.000000000000000000, 0.000000000000000000, 1.000000000000000000 ) ) ;
#73 = CARTESIAN_POINT ( 'NONE',  ( 0.000000000000000000, 0.000000000000000000, 5.500000000000005329 ) ) ;
#74 = ADVANCED_FACE ( 'NONE', ( #243 ), #45, .T. ) ;
#75 = AXIS2_PLACEMENT_3D ( 'NONE', #189, #360, #337 ) ;
#76 =( NAMED_UNIT ( * ) PLANE_ANGLE_UNIT ( ) SI_UNIT ( $, .RADIAN. ) );
#77 = APPLICATION_PROTOCOL_DEFINITION ( 'international standard', 'config_control_design', 1994, #252 ) ;
#78 = VECTOR ( 'NONE', #137, 1000.000000000000000 ) ;
#79 = FACE_OUTER_BOUND ( 'NONE', #172, .T. ) ;
#80 = CALENDAR_DATE ( 2022, 10, 7 ) ;
#81 = ORIENTED_EDGE ( 'NONE', *, *, #138, .F. ) ;
#82 = CARTESIAN_POINT ( 'NONE',  ( 0.000000000000000000, 0.000000000000000000, 5.000000000000000000 ) ) ;
#83 = ADVANCED_FACE ( 'NONE', ( #246, #363 ), #14, .F. ) ;
#84 = APPROVAL_DATE_TIME ( #192, #30 ) ;
#85 = LOCAL_TIME ( 11, 12, 52.00000000000000000, #314 ) ;
#86 = ORIENTED_EDGE ( 'NONE', *, *, #60, .T. ) ;
#87 = LINE ( 'NONE', #203, #223 ) ;
#88 = CC_DESIGN_PERSON_AND_ORGANIZATION_ASSIGNMENT ( #275, #177, ( #364 ) ) ;
#89 = VERTEX_POINT ( 'NONE', #279 ) ;
#90 = CARTESIAN_POINT ( 'NONE',  ( 0.000000000000000000, 0.000000000000000000, 130.0000000000000000 ) ) ;
#91 = CALENDAR_DATE ( 2022, 10, 7 ) ;
#92 = AXIS2_PLACEMENT_3D ( 'NONE', #265, #179, #262 ) ;
#93 = CARTESIAN_POINT ( 'NONE',  ( 7.000000000000000000, 8.572527594031473190E-16, 5.000000000000000000 ) ) ;
#94 = PRODUCT_DEFINITION_SHAPE ( 'NONE', 'NONE',  #159 ) ;
#95 = ORIENTED_EDGE ( 'NONE', *, *, #202, .F. ) ;
#96 = DIRECTION ( 'NONE',  ( 1.000000000000000000, 0.000000000000000000, 0.000000000000000000 ) ) ;
#97 = EDGE_LOOP ( 'NONE', ( #113, #126, #217, #6 ) ) ;
#98 = ADVANCED_FACE ( 'NONE', ( #256, #52 ), #116, .T. ) ;
#99 = DIRECTION ( 'NONE',  ( 0.000000000000000000, 0.000000000000000000, 1.000000000000000000 ) ) ;
#100 = CIRCLE ( 'NONE', #130, 7.000000000000000000 ) ;
#101 = LINE ( 'NONE', #103, #24 ) ;
#102 = APPLICATION_CONTEXT ( 'configuration controlled 3d designs of mechanical parts and assemblies' ) ;
#103 = CARTESIAN_POINT ( 'NONE',  ( -4.000000000000000000, 0.000000000000000000, 130.0000000000000000 ) ) ;
#104 = EDGE_CURVE ( 'NONE', #122, #146, #87, .T. ) ;
#105 = EDGE_LOOP ( 'NONE', ( #269, #198, #292, #344 ) ) ;
#106 = LOCAL_TIME ( 11, 12, 52.00000000000000000, #170 ) ;
#107 = DIRECTION ( 'NONE',  ( 1.000000000000000000, 0.000000000000000000, 0.000000000000000000 ) ) ;
#108 = DIRECTION ( 'NONE',  ( 1.000000000000000000, 0.000000000000000000, 0.000000000000000000 ) ) ;
#109 = ADVANCED_FACE ( 'NONE', ( #61 ), #286, .T. ) ;
#110 = CALENDAR_DATE ( 2022, 10, 7 ) ;
#111 = CIRCLE ( 'NONE', #218, 7.000000000000000000 ) ;
#112 = DIRECTION ( 'NONE',  ( -0.000000000000000000, -0.000000000000000000, -1.000000000000000000 ) ) ;
#113 = ORIENTED_EDGE ( 'NONE', *, *, #193, .F. ) ;
#114 = APPROVAL_ROLE ( '' ) ;
#115 = EDGE_CURVE ( 'NONE', #175, #32, #268, .T. ) ;
#116 = PLANE ( 'NONE',  #7 ) ;
#117 = ORIENTED_EDGE ( 'NONE', *, *, #145, .F. ) ;
#118 = CC_DESIGN_PERSON_AND_ORGANIZATION_ASSIGNMENT ( #199, #169, ( #159 ) ) ;
#119 = CALENDAR_DATE ( 2022, 10, 7 ) ;
#120 = DIRECTION ( 'NONE',  ( -0.000000000000000000, -0.000000000000000000, -1.000000000000000000 ) ) ;
#121 = CIRCLE ( 'NONE', #208, 0.5000000000000004441 ) ;
#122 = VERTEX_POINT ( 'NONE', #340 ) ;
#123 = CIRCLE ( 'NONE', #341, 4.500000000000000888 ) ;
#124 = ORIENTED_EDGE ( 'NONE', *, *, #26, .F. ) ;
#125 = EDGE_CURVE ( 'NONE', #212, #89, #163, .T. ) ;
#126 = ORIENTED_EDGE ( 'NONE', *, *, #229, .T. ) ;
#127 = AXIS2_PLACEMENT_3D ( 'NONE', #307, #201, #171 ) ;
#128 = CYLINDRICAL_SURFACE ( 'NONE', #149, 2.100000000000000089 ) ;
#129 = ORIENTED_EDGE ( 'NONE', *, *, #41, .T. ) ;
#130 = AXIS2_PLACEMENT_3D ( 'NONE', #238, #211, #207 ) ;
#131 = APPROVAL ( #376, 'NEURÈENÝ' ) ;
#132 = DIRECTION ( 'NONE',  ( -1.000000000000000000, 0.000000000000000000, 0.000000000000000000 ) ) ;
#133 = DIRECTION ( 'NONE',  ( 0.000000000000000000, 0.000000000000000000, 1.000000000000000000 ) ) ;
#134 = DIRECTION ( 'NONE',  ( 0.000000000000000000, 0.000000000000000000, 1.000000000000000000 ) ) ;
#135 = DIRECTION ( 'NONE',  ( 0.000000000000000000, 0.000000000000000000, -1.000000000000000000 ) ) ;
#136 = DIRECTION ( 'NONE',  ( 0.000000000000000000, 0.000000000000000000, -1.000000000000000000 ) ) ;
#137 = DIRECTION ( 'NONE',  ( -0.000000000000000000, -0.000000000000000000, -1.000000000000000000 ) ) ;
#138 = EDGE_CURVE ( 'NONE', #146, #182, #318, .T. ) ;
#139 = DESIGN_CONTEXT ( 'detailed design', #102, 'design' ) ;
#140 = PERSON_AND_ORGANIZATION ( #44, #249 ) ;
#141 = VECTOR ( 'NONE', #136, 1000.000000000000000 ) ;
#142 = DATE_AND_TIME ( #20, #85 ) ;
#143 = APPROVAL_ROLE ( '' ) ;
#144 = CIRCLE ( 'NONE', #373, 2.100000000000000089 ) ;
#145 = EDGE_CURVE ( 'NONE', #182, #89, #121, .T. ) ;
#146 = VERTEX_POINT ( 'NONE', #378 ) ;
#147 = PERSON_AND_ORGANIZATION_ROLE ( 'design_owner' ) ;
#148 = EDGE_LOOP ( 'NONE', ( #117, #81, #156, #28 ) ) ;
#149 = AXIS2_PLACEMENT_3D ( 'NONE', #160, #135, #132 ) ;
#150 = CARTESIAN_POINT ( 'NONE',  ( 0.000000000000000000, 0.000000000000000000, 0.000000000000000000 ) ) ;
#151 = CARTESIAN_POINT ( 'NONE',  ( -2.100000000000000089, 0.000000000000000000, 130.0000000000000000 ) ) ;
#152 = ORIENTED_EDGE ( 'NONE', *, *, #145, .T. ) ;
#153 = EDGE_CURVE ( 'NONE', #356, #122, #253, .T. ) ;
#154 = DIRECTION ( 'NONE',  ( 0.000000000000000000, 0.000000000000000000, -1.000000000000000000 ) ) ;
#155 = AXIS2_PLACEMENT_3D ( 'NONE', #90, #99, #1 ) ;
#156 = ORIENTED_EDGE ( 'NONE', *, *, #26, .T. ) ;
#157 = MECHANICAL_CONTEXT ( 'NONE', #252, 'mechanical' ) ;
#158 = VERTEX_POINT ( 'NONE', #151 ) ;
#159 = PRODUCT_DEFINITION ( 'NEZNÁMÝ', '', #364, #139 ) ;
#160 = CARTESIAN_POINT ( 'NONE',  ( 0.000000000000000000, 0.000000000000000000, 130.0000000000000000 ) ) ;
#161 = DIRECTION ( 'NONE',  ( 1.000000000000000000, 0.000000000000000000, 0.000000000000000000 ) ) ;
#162 = CC_DESIGN_APPROVAL ( #131, ( #36 ) ) ;
#163 = CIRCLE ( 'NONE', #374, 4.500000000000000888 ) ;
#164 = DIRECTION ( 'NONE',  ( -1.000000000000000000, 0.000000000000000000, 0.000000000000000000 ) ) ;
#165 = CARTESIAN_POINT ( 'NONE',  ( 0.000000000000000000, 0.000000000000000000, 0.000000000000000000 ) ) ;
#166 = CARTESIAN_POINT ( 'NONE',  ( 0.000000000000000000, 0.000000000000000000, 130.0000000000000000 ) ) ;
#167 = CARTESIAN_POINT ( 'NONE',  ( -4.000000000000000000, 0.000000000000000000, 130.0000000000000000 ) ) ;
#168 = EDGE_CURVE ( 'NONE', #122, #356, #352, .T. ) ;
#169 = PERSON_AND_ORGANIZATION_ROLE ( 'creator' ) ;
#170 = COORDINATED_UNIVERSAL_TIME_OFFSET ( 1, 0, .AHEAD. ) ;
#171 = DIRECTION ( 'NONE',  ( 1.000000000000000000, 0.000000000000000000, -0.000000000000000000 ) ) ;
#172 = EDGE_LOOP ( 'NONE', ( #300, #287, #67, #342 ) ) ;
#173 = EDGE_CURVE ( 'NONE', #32, #175, #111, .T. ) ;
#174 = DIRECTION ( 'NONE',  ( 1.000000000000000000, 0.000000000000000000, 0.000000000000000000 ) ) ;
#175 = VERTEX_POINT ( 'NONE', #213 ) ;
#176 = DATE_TIME_ROLE ( 'creation_date' ) ;
#177 = PERSON_AND_ORGANIZATION_ROLE ( 'creator' ) ;
#178 = EDGE_CURVE ( 'NONE', #323, #242, #144, .T. ) ;
#179 = DIRECTION ( 'NONE',  ( 0.000000000000000000, 0.000000000000000000, 1.000000000000000000 ) ) ;
#180 = EDGE_LOOP ( 'NONE', ( #257, #152, #35, #124 ) ) ;
#181 = DIRECTION ( 'NONE',  ( -0.000000000000000000, -0.000000000000000000, -1.000000000000000000 ) ) ;
#182 = VERTEX_POINT ( 'NONE', #349 ) ;
#183 = DIRECTION ( 'NONE',  ( -1.000000000000000000, 0.000000000000000000, 0.000000000000000000 ) ) ;
#184 = CC_DESIGN_PERSON_AND_ORGANIZATION_ASSIGNMENT ( #197, #147, ( #368 ) ) ;
#185 = CARTESIAN_POINT ( 'NONE',  ( -2.100000000000000089, 0.000000000000000000, 130.0000000000000000 ) ) ;
#186 = CARTESIAN_POINT ( 'NONE',  ( 7.000000000000000000, 8.572527594031473190E-16, 5.000000000000000000 ) ) ;
#187 = AXIS2_PLACEMENT_3D ( 'NONE', #34, #154, #183 ) ;
#188 = CARTESIAN_POINT ( 'NONE',  ( 0.000000000000000000, 0.000000000000000000, 5.500000000000005329 ) ) ;
#189 = CARTESIAN_POINT ( 'NONE',  ( 0.000000000000000000, 0.000000000000000000, 5.500000000000005329 ) ) ;
#190 = DIRECTION ( 'NONE',  ( 0.000000000000000000, 0.000000000000000000, 1.000000000000000000 ) ) ;
#191 = AXIS2_PLACEMENT_3D ( 'NONE', #188, #362, #15 ) ;
#192 = DATE_AND_TIME ( #110, #9 ) ;
#193 = EDGE_CURVE ( 'NONE', #311, #320, #100, .T. ) ;
#194 = ORIENTED_EDGE ( 'NONE', *, *, #173, .F. ) ;
#195 = SHAPE_DEFINITION_REPRESENTATION ( #94, #4 ) ;
#196 = CARTESIAN_POINT ( 'NONE',  ( 0.000000000000000000, 0.000000000000000000, 0.000000000000000000 ) ) ;
#197 = PERSON_AND_ORGANIZATION ( #44, #249 ) ;
#198 = ORIENTED_EDGE ( 'NONE', *, *, #224, .T. ) ;
#199 = PERSON_AND_ORGANIZATION ( #44, #249 ) ;
#200 = CIRCLE ( 'NONE', #27, 2.100000000000000089 ) ;
#201 = DIRECTION ( 'NONE',  ( 0.000000000000000000, 0.000000000000000000, 1.000000000000000000 ) ) ;
#202 = EDGE_CURVE ( 'NONE', #158, #266, #258, .T. ) ;
#203 = CARTESIAN_POINT ( 'NONE',  ( 4.000000000000000000, 4.898587196589412829E-16, 130.0000000000000000 ) ) ;
#204 = ORIENTED_EDGE ( 'NONE', *, *, #115, .F. ) ;
#205 = CARTESIAN_POINT ( 'NONE',  ( 0.000000000000000000, 0.000000000000000000, 5.000000000000000000 ) ) ;
#206 = VECTOR ( 'NONE', #181, 1000.000000000000000 ) ;
#207 = DIRECTION ( 'NONE',  ( 1.000000000000000000, 0.000000000000000000, 0.000000000000000000 ) ) ;
#208 = AXIS2_PLACEMENT_3D ( 'NONE', #231, #261, #66 ) ;
#209 = CARTESIAN_POINT ( 'NONE',  ( 4.500000000000000888, 0.000000000000000000, 5.000000000000002665 ) ) ;
#210 = AXIS2_PLACEMENT_3D ( 'NONE', #42, #16, #274 ) ;
#211 = DIRECTION ( 'NONE',  ( 0.000000000000000000, 0.000000000000000000, 1.000000000000000000 ) ) ;
#212 = VERTEX_POINT ( 'NONE', #209 ) ;
#213 = CARTESIAN_POINT ( 'NONE',  ( 7.000000000000000000, 8.572527594031473190E-16, 0.000000000000000000 ) ) ;
#214 = CIRCLE ( 'NONE', #57, 2.100000000000000089 ) ;
#215 = ADVANCED_FACE ( 'NONE', ( #291 ), #299, .T. ) ;
#216 = DIRECTION ( 'NONE',  ( -0.000000000000000000, -0.000000000000000000, -1.000000000000000000 ) ) ;
#217 = ORIENTED_EDGE ( 'NONE', *, *, #115, .T. ) ;
#218 = AXIS2_PLACEMENT_3D ( 'NONE', #297, #380, #233 ) ;
#219 = CARTESIAN_POINT ( 'NONE',  ( 0.000000000000000000, 0.000000000000000000, 130.0000000000000000 ) ) ;
#220 = LINE ( 'NONE', #185, #141 ) ;
#221 = DIRECTION ( 'NONE',  ( 1.000000000000000000, 0.000000000000000000, 0.000000000000000000 ) ) ;
#222 = ORIENTED_EDGE ( 'NONE', *, *, #69, .T. ) ;
#223 = VECTOR ( 'NONE', #112, 1000.000000000000000 ) ;
#224 = EDGE_CURVE ( 'NONE', #266, #242, #236, .T. ) ;
#225 = DIRECTION ( 'NONE',  ( 0.000000000000000000, 0.000000000000000000, 1.000000000000000000 ) ) ;
#226 = APPROVAL_PERSON_ORGANIZATION ( #234, #358, #143 ) ;
#227 = EDGE_LOOP ( 'NONE', ( #290, #326, #222, #232 ) ) ;
#228 = CARTESIAN_POINT ( 'NONE',  ( 0.000000000000000000, 0.000000000000000000, 5.000000000000000000 ) ) ;
#229 = EDGE_CURVE ( 'NONE', #311, #175, #259, .T. ) ;
#230 = DIRECTION ( 'NONE',  ( 0.000000000000000000, 0.000000000000000000, 1.000000000000000000 ) ) ;
#231 = CARTESIAN_POINT ( 'NONE',  ( -4.500000000000000888, 5.510910596163089556E-16, 5.500000000000005329 ) ) ;
#232 = ORIENTED_EDGE ( 'NONE', *, *, #173, .T. ) ;
#233 = DIRECTION ( 'NONE',  ( 1.000000000000000000, 0.000000000000000000, 0.000000000000000000 ) ) ;
#234 = PERSON_AND_ORGANIZATION ( #44, #249 ) ;
#235 = APPROVAL_PERSON_ORGANIZATION ( #339, #30, #114 ) ;
#236 = LINE ( 'NONE', #68, #48 ) ;
#237 = ORIENTED_EDGE ( 'NONE', *, *, #347, .T. ) ;
#238 = CARTESIAN_POINT ( 'NONE',  ( 0.000000000000000000, 0.000000000000000000, 5.000000000000000000 ) ) ;
#239 = ADVANCED_FACE ( 'NONE', ( #70 ), #293, .F. ) ;
#240 = PLANE ( 'NONE',  #3 ) ;
#241 = TOROIDAL_SURFACE ( 'NONE', #75, 4.500000000000000888, 0.5000000000000000000 ) ;
#242 = VERTEX_POINT ( 'NONE', #348 ) ;
#243 = FACE_OUTER_BOUND ( 'NONE', #97, .T. ) ;
#244 = DIRECTION ( 'NONE',  ( 1.000000000000000000, 0.000000000000000000, 0.000000000000000000 ) ) ;
#245 = EDGE_CURVE ( 'NONE', #89, #212, #123, .T. ) ;
#246 = FACE_BOUND ( 'NONE', #55, .T. ) ;
#247 = DIRECTION ( 'NONE',  ( 1.000000000000000000, 0.000000000000000000, 0.000000000000000000 ) ) ;
#248 = APPROVAL_PERSON_ORGANIZATION ( #29, #131, #251 ) ;
#249 = ORGANIZATION ( 'NEURÈENÝ', 'NEURÈENÝ', '' ) ;
#250 = DIRECTION ( 'NONE',  ( 0.000000000000000000, 0.000000000000000000, 1.000000000000000000 ) ) ;
#251 = APPROVAL_ROLE ( '' ) ;
#252 = APPLICATION_CONTEXT ( 'configuration controlled 3d designs of mechanical parts and assemblies' ) ;
#253 = CIRCLE ( 'NONE', #92, 4.000000000000000000 ) ;
#254 = APPLICATION_PROTOCOL_DEFINITION ( 'international standard', 'config_control_design', 1994, #102 ) ;
#255 = APPROVAL_STATUS ( 'not_yet_approved' ) ;
#256 = FACE_BOUND ( 'NONE', #346, .T. ) ;
#257 = ORIENTED_EDGE ( 'NONE', *, *, #46, .F. ) ;
#258 = CIRCLE ( 'NONE', #309, 2.100000000000000089 ) ;
#259 = LINE ( 'NONE', #93, #206 ) ;
#260 = CC_DESIGN_DATE_AND_TIME_ASSIGNMENT ( #17, #53, ( #36 ) ) ;
#261 = DIRECTION ( 'NONE',  ( 1.224646799147353207E-16, 1.000000000000000000, -0.000000000000000000 ) ) ;
#262 = DIRECTION ( 'NONE',  ( 1.000000000000000000, 0.000000000000000000, 0.000000000000000000 ) ) ;
#263 = ORIENTED_EDGE ( 'NONE', *, *, #168, .F. ) ;
#264 = CC_DESIGN_APPROVAL ( #30, ( #159 ) ) ;
#265 = CARTESIAN_POINT ( 'NONE',  ( 0.000000000000000000, 0.000000000000000000, 130.0000000000000000 ) ) ;
#266 = VERTEX_POINT ( 'NONE', #331 ) ;
#267 = DIRECTION ( 'NONE',  ( -0.000000000000000000, -0.000000000000000000, -1.000000000000000000 ) ) ;
#268 = CIRCLE ( 'NONE', #33, 7.000000000000000000 ) ;
#269 = ORIENTED_EDGE ( 'NONE', *, *, #202, .T. ) ;
#270 = CARTESIAN_POINT ( 'NONE',  ( 0.000000000000000000, 0.000000000000000000, 130.0000000000000000 ) ) ;
#271 = LOCAL_TIME ( 11, 12, 52.00000000000000000, #56 ) ;
#272 = EDGE_LOOP ( 'NONE', ( #263, #280, #285, #381 ) ) ;
#273 = CARTESIAN_POINT ( 'NONE',  ( 0.000000000000000000, 0.000000000000000000, 5.000000000000000000 ) ) ;
#274 = DIRECTION ( 'NONE',  ( 0.000000000000000000, 0.000000000000000000, -1.000000000000000000 ) ) ;
#275 = PERSON_AND_ORGANIZATION ( #44, #249 ) ;
#276 = ORIENTED_EDGE ( 'NONE', *, *, #125, .T. ) ;
#277 = ADVANCED_FACE ( 'NONE', ( #8 ), #128, .F. ) ;
#278 = PERSON_AND_ORGANIZATION_ROLE ( 'classification_officer' ) ;
#279 = CARTESIAN_POINT ( 'NONE',  ( -4.500000000000000888, 5.510910596163088569E-16, 5.000000000000002665 ) ) ;
#280 = ORIENTED_EDGE ( 'NONE', *, *, #104, .T. ) ;
#281 = AXIS2_PLACEMENT_3D ( 'NONE', #5, #325, #31 ) ;
#282 = ORIENTED_EDGE ( 'NONE', *, *, #153, .T. ) ;
#283 = PERSON_AND_ORGANIZATION ( #44, #249 ) ;
#284 = AXIS2_PLACEMENT_3D ( 'NONE', #166, #304, #49 ) ;
#285 = ORIENTED_EDGE ( 'NONE', *, *, #138, .T. ) ;
#286 = CYLINDRICAL_SURFACE ( 'NONE', #324, 7.000000000000000000 ) ;
#287 = ORIENTED_EDGE ( 'NONE', *, *, #153, .F. ) ;
#288 = ADVANCED_FACE ( 'NONE', ( #302, #305 ), #240, .T. ) ;
#289 = AXIS2_PLACEMENT_3D ( 'NONE', #165, #250, #108 ) ;
#290 = ORIENTED_EDGE ( 'NONE', *, *, #229, .F. ) ;
#291 = FACE_OUTER_BOUND ( 'NONE', #272, .T. ) ;
#292 = ORIENTED_EDGE ( 'NONE', *, *, #377, .T. ) ;
#293 = CYLINDRICAL_SURFACE ( 'NONE', #187, 2.100000000000000089 ) ;
#294 = ORIENTED_EDGE ( 'NONE', *, *, #377, .F. ) ;
#295 = CC_DESIGN_SECURITY_CLASSIFICATION ( #36, ( #364 ) ) ;
#296 = ADVANCED_FACE ( 'NONE', ( #11 ), #241, .F. ) ;
#297 = CARTESIAN_POINT ( 'NONE',  ( 0.000000000000000000, 0.000000000000000000, 0.000000000000000000 ) ) ;
#298 = MANIFOLD_SOLID_BREP ( 'Odebrat vysunutím3', #321 ) ;
#299 = CYLINDRICAL_SURFACE ( 'NONE', #281, 4.000000000000000000 ) ;
#300 = ORIENTED_EDGE ( 'NONE', *, *, #104, .F. ) ;
#301 = CIRCLE ( 'NONE', #210, 0.5000000000000004441 ) ;
#302 = FACE_BOUND ( 'NONE', #313, .T. ) ;
#303 = FACE_OUTER_BOUND ( 'NONE', #148, .T. ) ;
#304 = DIRECTION ( 'NONE',  ( -0.000000000000000000, -0.000000000000000000, -1.000000000000000000 ) ) ;
#305 = FACE_OUTER_BOUND ( 'NONE', #2, .T. ) ;
#306 = CARTESIAN_POINT ( 'NONE',  ( -7.000000000000000000, 0.000000000000000000, 5.000000000000000000 ) ) ;
#307 = CARTESIAN_POINT ( 'NONE',  ( 0.000000000000000000, 0.000000000000000000, 0.000000000000000000 ) ) ;
#308 = PERSON_AND_ORGANIZATION_ROLE ( 'design_supplier' ) ;
#309 = AXIS2_PLACEMENT_3D ( 'NONE', #327, #322, #64 ) ;
#310 = APPROVAL_DATE_TIME ( #319, #358 ) ;
#311 = VERTEX_POINT ( 'NONE', #186 ) ;
#312 = DIRECTION ( 'NONE',  ( -0.000000000000000000, -0.000000000000000000, -1.000000000000000000 ) ) ;
#313 = EDGE_LOOP ( 'NONE', ( #95, #22 ) ) ;
#314 = COORDINATED_UNIVERSAL_TIME_OFFSET ( 1, 0, .AHEAD. ) ;
#315 = CARTESIAN_POINT ( 'NONE',  ( 0.000000000000000000, 0.000000000000000000, 5.500000000000005329 ) ) ;
#316 = ORIENTED_EDGE ( 'NONE', *, *, #193, .T. ) ;
#317 =( GEOMETRIC_REPRESENTATION_CONTEXT ( 3 ) GLOBAL_UNCERTAINTY_ASSIGNED_CONTEXT ( ( #43 ) ) GLOBAL_UNIT_ASSIGNED_CONTEXT ( ( #12, #76, #332 ) ) REPRESENTATION_CONTEXT ( 'NONE', 'WORKASPACE' ) );
#318 = CIRCLE ( 'NONE', #38, 4.000000000000000000 ) ;
#319 = DATE_AND_TIME ( #91, #62 ) ;
#320 = VERTEX_POINT ( 'NONE', #39 ) ;
#321 = CLOSED_SHELL ( 'NONE', ( #277, #296, #215, #74, #109, #98, #83, #13, #288, #354, #239 ) ) ;
#322 = DIRECTION ( 'NONE',  ( 0.000000000000000000, 0.000000000000000000, 1.000000000000000000 ) ) ;
#323 = VERTEX_POINT ( 'NONE', #359 ) ;
#324 = AXIS2_PLACEMENT_3D ( 'NONE', #82, #371, #23 ) ;
#325 = DIRECTION ( 'NONE',  ( -0.000000000000000000, -0.000000000000000000, -1.000000000000000000 ) ) ;
#326 = ORIENTED_EDGE ( 'NONE', *, *, #60, .F. ) ;
#327 = CARTESIAN_POINT ( 'NONE',  ( 0.000000000000000000, 0.000000000000000000, 130.0000000000000000 ) ) ;
#328 = CC_DESIGN_PERSON_AND_ORGANIZATION_ASSIGNMENT ( #140, #278, ( #36 ) ) ;
#329 = CYLINDRICAL_SURFACE ( 'NONE', #284, 4.000000000000000000 ) ;
#330 = AXIS2_PLACEMENT_3D ( 'NONE', #10, #133, #247 ) ;
#331 = CARTESIAN_POINT ( 'NONE',  ( 2.100000000000000089, 2.571758278209441957E-16, 130.0000000000000000 ) ) ;
#332 =( NAMED_UNIT ( * ) SI_UNIT ( $, .STERADIAN. ) SOLID_ANGLE_UNIT ( ) );
#333 = DIRECTION ( 'NONE',  ( -0.000000000000000000, -0.000000000000000000, -1.000000000000000000 ) ) ;
#334 = DIRECTION ( 'NONE',  ( 1.000000000000000000, 0.000000000000000000, -0.000000000000000000 ) ) ;
#335 = LINE ( 'NONE', #306, #78 ) ;
#336 = CIRCLE ( 'NONE', #330, 7.000000000000000000 ) ;
#337 = DIRECTION ( 'NONE',  ( 1.000000000000000000, 0.000000000000000000, 0.000000000000000000 ) ) ;
#338 = AXIS2_PLACEMENT_3D ( 'NONE', #273, #333, #164 ) ;
#339 = PERSON_AND_ORGANIZATION ( #44, #249 ) ;
#340 = CARTESIAN_POINT ( 'NONE',  ( 4.000000000000000000, 4.898587196589412829E-16, 130.0000000000000000 ) ) ;
#341 = AXIS2_PLACEMENT_3D ( 'NONE', #205, #267, #107 ) ;
#342 = ORIENTED_EDGE ( 'NONE', *, *, #46, .T. ) ;
#343 = EDGE_LOOP ( 'NONE', ( #194, #204 ) ) ;
#344 = ORIENTED_EDGE ( 'NONE', *, *, #41, .F. ) ;
#345 = DIRECTION ( 'NONE',  ( 1.000000000000000000, 0.000000000000000000, -0.000000000000000000 ) ) ;
#346 = EDGE_LOOP ( 'NONE', ( #276, #18 ) ) ;
#347 = EDGE_CURVE ( 'NONE', #266, #158, #214, .T. ) ;
#348 = CARTESIAN_POINT ( 'NONE',  ( 2.100000000000000089, 2.571758278209441957E-16, 0.000000000000000000 ) ) ;
#349 = CARTESIAN_POINT ( 'NONE',  ( -4.000000000000000000, 0.000000000000000000, 5.500000000000005329 ) ) ;
#350 = ORIENTED_EDGE ( 'NONE', *, *, #224, .F. ) ;
#351 = COORDINATED_UNIVERSAL_TIME_OFFSET ( 1, 0, .AHEAD. ) ;
#352 = CIRCLE ( 'NONE', #155, 4.000000000000000000 ) ;
#353 = DIRECTION ( 'NONE',  ( 0.000000000000000000, 0.000000000000000000, -1.000000000000000000 ) ) ;
#354 = ADVANCED_FACE ( 'NONE', ( #303 ), #357, .F. ) ;
#355 = ORIENTED_EDGE ( 'NONE', *, *, #178, .F. ) ;
#356 = VERTEX_POINT ( 'NONE', #167 ) ;
#357 = TOROIDAL_SURFACE ( 'NONE', #191, 4.500000000000000888, 0.5000000000000000000 ) ;
#358 = APPROVAL ( #255, 'NEURÈENÝ' ) ;
#359 = CARTESIAN_POINT ( 'NONE',  ( -2.100000000000000089, 0.000000000000000000, 0.000000000000000000 ) ) ;
#360 = DIRECTION ( 'NONE',  ( 0.000000000000000000, 0.000000000000000000, 1.000000000000000000 ) ) ;
#361 = AXIS2_PLACEMENT_3D ( 'NONE', #73, #190, #161 ) ;
#362 = DIRECTION ( 'NONE',  ( 0.000000000000000000, 0.000000000000000000, 1.000000000000000000 ) ) ;
#363 = FACE_OUTER_BOUND ( 'NONE', #343, .T. ) ;
#364 = PRODUCT_DEFINITION_FORMATION_WITH_SPECIFIED_SOURCE ( 'LIBOVOLNÝ', '', #368, .NOT_KNOWN. ) ;
#365 = CARTESIAN_POINT ( 'NONE',  ( -7.000000000000000000, 0.000000000000000000, 0.000000000000000000 ) ) ;
#366 = EDGE_CURVE ( 'NONE', #356, #182, #101, .T. ) ;
#367 = DIRECTION ( 'NONE',  ( -0.000000000000000000, -0.000000000000000000, -1.000000000000000000 ) ) ;
#368 = PRODUCT ( 'bc90', 'bc90', '', ( #157 ) ) ;
#369 = CIRCLE ( 'NONE', #361, 4.000000000000000000 ) ;
#370 = APPROVAL_DATE_TIME ( #142, #131 ) ;
#371 = DIRECTION ( 'NONE',  ( -0.000000000000000000, -0.000000000000000000, -1.000000000000000000 ) ) ;
#372 = CARTESIAN_POINT ( 'NONE',  ( 0.000000000000000000, 0.000000000000000000, 5.000000000000000000 ) ) ;
#373 = AXIS2_PLACEMENT_3D ( 'NONE', #150, #120, #96 ) ;
#374 = AXIS2_PLACEMENT_3D ( 'NONE', #228, #312, #54 ) ;
#375 = DIRECTION ( 'NONE',  ( 0.000000000000000000, 0.000000000000000000, 1.000000000000000000 ) ) ;
#376 = APPROVAL_STATUS ( 'not_yet_approved' ) ;
#377 = EDGE_CURVE ( 'NONE', #242, #323, #200, .T. ) ;
#378 = CARTESIAN_POINT ( 'NONE',  ( 4.000000000000000000, 4.898587196589412829E-16, 5.500000000000005329 ) ) ;
#379 = EDGE_LOOP ( 'NONE', ( #350, #237, #129, #40 ) ) ;
#380 = DIRECTION ( 'NONE',  ( 0.000000000000000000, 0.000000000000000000, 1.000000000000000000 ) ) ;
#381 = ORIENTED_EDGE ( 'NONE', *, *, #366, .F. ) ;
ENDSEC;
END-ISO-10303-21;
