ISO-10303-21;
HEADER;
FILE_DESCRIPTION (( 'STEP AP203' ),
    '1' );
FILE_NAME ('30fb.STEP',
    '2022-07-10T09:13:36',
    ( '' ),
    ( '' ),
    'SwSTEP 2.0',
    'SolidWorks 2019',
    '' );
FILE_SCHEMA (( 'CONFIG_CONTROL_DESIGN' ));
ENDSEC;

DATA;
#1 = CARTESIAN_POINT ( 'NONE',  ( 0.000000000000000000, 0.000000000000000000, 180.0000000000000000 ) ) ;
#2 = AXIS2_PLACEMENT_3D ( 'NONE', #229, #261, #323 ) ;
#3 = DIRECTION ( 'NONE',  ( 1.000000000000000000, 0.000000000000000000, 0.000000000000000000 ) ) ;
#4 = DIRECTION ( 'NONE',  ( -0.000000000000000000, -0.000000000000000000, -1.000000000000000000 ) ) ;
#5 = VERTEX_POINT ( 'NONE', #280 ) ;
#6 = ADVANCED_FACE ( 'NONE', ( #102 ), #237, .F. ) ;
#7 = DIRECTION ( 'NONE',  ( 1.000000000000000000, 0.000000000000000000, 0.000000000000000000 ) ) ;
#8 = VERTEX_POINT ( 'NONE', #219 ) ;
#9 = TOROIDAL_SURFACE ( 'NONE', #151, 3.500000000000000444, 0.5000000000000000000 ) ;
#10 = ADVANCED_FACE ( 'NONE', ( #47 ), #70, .T. ) ;
#11 = DIRECTION ( 'NONE',  ( 1.000000000000000000, 0.000000000000000000, 0.000000000000000000 ) ) ;
#12 = CARTESIAN_POINT ( 'NONE',  ( 0.000000000000000000, 0.000000000000000000, 5.000000000000000000 ) ) ;
#13 = CLOSED_SHELL ( 'NONE', ( #6, #117, #216, #331, #10, #379, #244, #28, #39, #300, #270 ) ) ;
#14 = MANIFOLD_SOLID_BREP ( 'Odebrat vysunutím3', #13 ) ;
#15 = APPROVAL_PERSON_ORGANIZATION ( #221, #297, #75 ) ;
#16 = EDGE_CURVE ( 'NONE', #128, #185, #345, .T. ) ;
#17 = EDGE_LOOP ( 'NONE', ( #76, #43, #312, #179 ) ) ;
#18 = VECTOR ( 'NONE', #278, 1000.000000000000000 ) ;
#19 = ORIENTED_EDGE ( 'NONE', *, *, #351, .T. ) ;
#20 = DIRECTION ( 'NONE',  ( -0.000000000000000000, -0.000000000000000000, -1.000000000000000000 ) ) ;
#21 = CC_DESIGN_APPROVAL ( #166, ( #353 ) ) ;
#22 = CALENDAR_DATE ( 2022, 10, 7 ) ;
#23 = EDGE_CURVE ( 'NONE', #198, #246, #333, .T. ) ;
#24 = DIRECTION ( 'NONE',  ( -1.000000000000000000, 0.000000000000000000, 0.000000000000000000 ) ) ;
#25 = PERSON_AND_ORGANIZATION_ROLE ( 'creator' ) ;
#26 = DIRECTION ( 'NONE',  ( 0.000000000000000000, 0.000000000000000000, 1.000000000000000000 ) ) ;
#27 = DIRECTION ( 'NONE',  ( -0.000000000000000000, -0.000000000000000000, -1.000000000000000000 ) ) ;
#28 = ADVANCED_FACE ( 'NONE', ( #245 ), #341, .T. ) ;
#29 = COORDINATED_UNIVERSAL_TIME_OFFSET ( 1, 0, .AHEAD. ) ;
#30 = LOCAL_TIME ( 11, 13, 36.00000000000000000, #77 ) ;
#31 = CARTESIAN_POINT ( 'NONE',  ( 0.000000000000000000, 0.000000000000000000, 180.0000000000000000 ) ) ;
#32 = EDGE_LOOP ( 'NONE', ( #205, #302, #19, #189 ) ) ;
#33 = PERSON_AND_ORGANIZATION ( #57, #344 ) ;
#34 = CARTESIAN_POINT ( 'NONE',  ( 0.000000000000000000, 0.000000000000000000, 5.000000000000000000 ) ) ;
#35 = CARTESIAN_POINT ( 'NONE',  ( -3.500000000000000444, 4.286263797015737088E-16, 5.000000000000002665 ) ) ;
#36 = AXIS2_PLACEMENT_3D ( 'NONE', #46, #276, #266 ) ;
#37 = CARTESIAN_POINT ( 'NONE',  ( 0.000000000000000000, 0.000000000000000000, 180.0000000000000000 ) ) ;
#38 =( NAMED_UNIT ( * ) SI_UNIT ( $, .STERADIAN. ) SOLID_ANGLE_UNIT ( ) );
#39 = ADVANCED_FACE ( 'NONE', ( #340, #303 ), #49, .T. ) ;
#40 = CARTESIAN_POINT ( 'NONE',  ( 2.000000000000000000, 2.449293598294705921E-16, 180.0000000000000000 ) ) ;
#41 = CIRCLE ( 'NONE', #324, 2.000000000000000000 ) ;
#42 = ORIENTED_EDGE ( 'NONE', *, *, #174, .T. ) ;
#43 = ORIENTED_EDGE ( 'NONE', *, *, #64, .T. ) ;
#44 = CIRCLE ( 'NONE', #50, 0.5000000000000004441 ) ;
#45 = ORIENTED_EDGE ( 'NONE', *, *, #351, .F. ) ;
#46 = CARTESIAN_POINT ( 'NONE',  ( 0.000000000000000000, 0.000000000000000000, 5.000000000000000000 ) ) ;
#47 = FACE_OUTER_BOUND ( 'NONE', #73, .T. ) ;
#48 = EDGE_CURVE ( 'NONE', #8, #359, #132, .T. ) ;
#49 = PLANE ( 'NONE',  #209 ) ;
#50 = AXIS2_PLACEMENT_3D ( 'NONE', #288, #285, #357 ) ;
#51 = UNCERTAINTY_MEASURE_WITH_UNIT (LENGTH_MEASURE( 1.000000000000000082E-05 ), #263, 'distance_accuracy_value', 'NONE');
#52 = CARTESIAN_POINT ( 'NONE',  ( 0.000000000000000000, 0.000000000000000000, 180.0000000000000000 ) ) ;
#53 = DIRECTION ( 'NONE',  ( 0.000000000000000000, 0.000000000000000000, 1.000000000000000000 ) ) ;
#54 = DATE_AND_TIME ( #313, #360 ) ;
#55 = CARTESIAN_POINT ( 'NONE',  ( 2.000000000000000000, 2.449293598294705921E-16, 180.0000000000000000 ) ) ;
#56 = PERSON_AND_ORGANIZATION ( #57, #344 ) ;
#57 = PERSON ( 'NEURÈENÝ', 'NEURÈENÝ', 'NEURÈENÝ', ('NEURÈENÝ'), ('NEURÈENÝ'), ('NEURÈENÝ') ) ;
#58 = DIRECTION ( 'NONE',  ( 0.000000000000000000, 0.000000000000000000, -1.000000000000000000 ) ) ;
#59 = DIRECTION ( 'NONE',  ( -1.000000000000000000, 0.000000000000000000, 0.000000000000000000 ) ) ;
#60 = CARTESIAN_POINT ( 'NONE',  ( -3.000000000000000444, 0.000000000000000000, 180.0000000000000000 ) ) ;
#61 = DIRECTION ( 'NONE',  ( 0.000000000000000000, 0.000000000000000000, 1.000000000000000000 ) ) ;
#62 = FACE_OUTER_BOUND ( 'NONE', #273, .T. ) ;
#63 = VERTEX_POINT ( 'NONE', #306 ) ;
#64 = EDGE_CURVE ( 'NONE', #362, #128, #97, .T. ) ;
#65 = DIRECTION ( 'NONE',  ( -0.000000000000000000, -0.000000000000000000, -1.000000000000000000 ) ) ;
#66 = ORIENTED_EDGE ( 'NONE', *, *, #222, .T. ) ;
#67 = DIRECTION ( 'NONE',  ( -0.000000000000000000, -0.000000000000000000, -1.000000000000000000 ) ) ;
#68 = ORIENTED_EDGE ( 'NONE', *, *, #178, .F. ) ;
#69 = ORIENTED_EDGE ( 'NONE', *, *, #283, .F. ) ;
#70 = CYLINDRICAL_SURFACE ( 'NONE', #122, 6.000000000000000888 ) ;
#71 = CC_DESIGN_SECURITY_CLASSIFICATION ( #353, ( #295 ) ) ;
#72 = DIRECTION ( 'NONE',  ( 1.000000000000000000, 0.000000000000000000, 0.000000000000000000 ) ) ;
#73 = EDGE_LOOP ( 'NONE', ( #298, #326, #126, #156 ) ) ;
#74 = EDGE_CURVE ( 'NONE', #362, #5, #319, .T. ) ;
#75 = APPROVAL_ROLE ( '' ) ;
#76 = ORIENTED_EDGE ( 'NONE', *, *, #74, .F. ) ;
#77 = COORDINATED_UNIVERSAL_TIME_OFFSET ( 1, 0, .AHEAD. ) ;
#78 = DIRECTION ( 'NONE',  ( 1.000000000000000000, 0.000000000000000000, 0.000000000000000000 ) ) ;
#79 = APPROVAL_STATUS ( 'not_yet_approved' ) ;
#80 = EDGE_LOOP ( 'NONE', ( #210, #112, #66, #269 ) ) ;
#81 = APPROVAL_ROLE ( '' ) ;
#82 = DIRECTION ( 'NONE',  ( 1.224646799147353207E-16, 1.000000000000000000, -0.000000000000000000 ) ) ;
#83 = CALENDAR_DATE ( 2022, 10, 7 ) ;
#84 = CARTESIAN_POINT ( 'NONE',  ( 3.000000000000000444, 3.673940397442060361E-16, 5.500000000000005329 ) ) ;
#85 = ORIENTED_EDGE ( 'NONE', *, *, #23, .F. ) ;
#86 = AXIS2_PLACEMENT_3D ( 'NONE', #358, #325, #176 ) ;
#87 = LINE ( 'NONE', #253, #328 ) ;
#88 = DIRECTION ( 'NONE',  ( -0.000000000000000000, -0.000000000000000000, -1.000000000000000000 ) ) ;
#89 = DIRECTION ( 'NONE',  ( 1.000000000000000000, 0.000000000000000000, 0.000000000000000000 ) ) ;
#90 =( GEOMETRIC_REPRESENTATION_CONTEXT ( 3 ) GLOBAL_UNCERTAINTY_ASSIGNED_CONTEXT ( ( #51 ) ) GLOBAL_UNIT_ASSIGNED_CONTEXT ( ( #263, #204, #38 ) ) REPRESENTATION_CONTEXT ( 'NONE', 'WORKASPACE' ) );
#91 = MECHANICAL_CONTEXT ( 'NONE', #304, 'mechanical' ) ;
#92 = ORIENTED_EDGE ( 'NONE', *, *, #343, .F. ) ;
#93 = DIRECTION ( 'NONE',  ( 0.000000000000000000, 0.000000000000000000, 1.000000000000000000 ) ) ;
#94 = VERTEX_POINT ( 'NONE', #225 ) ;
#95 = AXIS2_PLACEMENT_3D ( 'NONE', #1, #354, #196 ) ;
#96 = EDGE_LOOP ( 'NONE', ( #108, #85 ) ) ;
#97 = CIRCLE ( 'NONE', #309, 2.000000000000000000 ) ;
#98 = AXIS2_PLACEMENT_3D ( 'NONE', #215, #372, #104 ) ;
#99 = ORIENTED_EDGE ( 'NONE', *, *, #293, .T. ) ;
#100 = FACE_OUTER_BOUND ( 'NONE', #267, .T. ) ;
#101 = PRODUCT_RELATED_PRODUCT_CATEGORY ( 'detail', '', ( #242 ) ) ;
#102 = FACE_OUTER_BOUND ( 'NONE', #32, .T. ) ;
#103 = AXIS2_PLACEMENT_3D ( 'NONE', #31, #88, #116 ) ;
#104 = DIRECTION ( 'NONE',  ( -1.000000000000000000, 0.000000000000000000, 0.000000000000000000 ) ) ;
#105 = PERSON_AND_ORGANIZATION_ROLE ( 'design_owner' ) ;
#106 = DIRECTION ( 'NONE',  ( 0.000000000000000000, 0.000000000000000000, 1.000000000000000000 ) ) ;
#107 = PERSON_AND_ORGANIZATION_ROLE ( 'creator' ) ;
#108 = ORIENTED_EDGE ( 'NONE', *, *, #277, .F. ) ;
#109 = AXIS2_PLACEMENT_3D ( 'NONE', #200, #140, #250 ) ;
#110 = PERSON_AND_ORGANIZATION ( #57, #344 ) ;
#111 = LINE ( 'NONE', #60, #118 ) ;
#112 = ORIENTED_EDGE ( 'NONE', *, *, #374, .F. ) ;
#113 = PERSON_AND_ORGANIZATION_ROLE ( 'design_supplier' ) ;
#114 = CARTESIAN_POINT ( 'NONE',  ( -3.000000000000000444, 0.000000000000000000, 180.0000000000000000 ) ) ;
#115 = AXIS2_PLACEMENT_3D ( 'NONE', #377, #53, #350 ) ;
#116 = DIRECTION ( 'NONE',  ( -1.000000000000000000, 0.000000000000000000, 0.000000000000000000 ) ) ;
#117 = ADVANCED_FACE ( 'NONE', ( #194 ), #274, .F. ) ;
#118 = VECTOR ( 'NONE', #119, 1000.000000000000000 ) ;
#119 = DIRECTION ( 'NONE',  ( -0.000000000000000000, -0.000000000000000000, -1.000000000000000000 ) ) ;
#120 = CARTESIAN_POINT ( 'NONE',  ( 0.000000000000000000, 0.000000000000000000, 180.0000000000000000 ) ) ;
#121 = ORIENTED_EDGE ( 'NONE', *, *, #64, .F. ) ;
#122 = AXIS2_PLACEMENT_3D ( 'NONE', #308, #20, #138 ) ;
#123 = CC_DESIGN_PERSON_AND_ORGANIZATION_ASSIGNMENT ( #346, #107, ( #257 ) ) ;
#124 = ORIENTED_EDGE ( 'NONE', *, *, #174, .F. ) ;
#125 = EDGE_LOOP ( 'NONE', ( #230, #329 ) ) ;
#126 = ORIENTED_EDGE ( 'NONE', *, *, #356, .T. ) ;
#127 = AXIS2_PLACEMENT_3D ( 'NONE', #233, #265, #11 ) ;
#128 = VERTEX_POINT ( 'NONE', #147 ) ;
#129 = ORIENTED_EDGE ( 'NONE', *, *, #192, .T. ) ;
#130 = CARTESIAN_POINT ( 'NONE',  ( 0.000000000000000000, 0.000000000000000000, 5.500000000000005329 ) ) ;
#131 = EDGE_CURVE ( 'NONE', #63, #177, #87, .T. ) ;
#132 = CIRCLE ( 'NONE', #262, 6.000000000000000888 ) ;
#133 = DIRECTION ( 'NONE',  ( 1.000000000000000000, 0.000000000000000000, 0.000000000000000000 ) ) ;
#134 = DIRECTION ( 'NONE',  ( 1.000000000000000000, 0.000000000000000000, 0.000000000000000000 ) ) ;
#135 = AXIS2_PLACEMENT_3D ( 'NONE', #291, #165, #145 ) ;
#136 = APPROVAL_DATE_TIME ( #142, #207 ) ;
#137 = DIRECTION ( 'NONE',  ( 0.000000000000000000, 0.000000000000000000, 1.000000000000000000 ) ) ;
#138 = DIRECTION ( 'NONE',  ( -1.000000000000000000, 0.000000000000000000, 0.000000000000000000 ) ) ;
#139 = EDGE_CURVE ( 'NONE', #203, #162, #275, .T. ) ;
#140 = DIRECTION ( 'NONE',  ( 0.000000000000000000, 0.000000000000000000, 1.000000000000000000 ) ) ;
#141 = LOCAL_TIME ( 11, 13, 36.00000000000000000, #249 ) ;
#142 = DATE_AND_TIME ( #214, #141 ) ;
#143 = DIRECTION ( 'NONE',  ( 1.000000000000000000, 0.000000000000000000, 0.000000000000000000 ) ) ;
#144 = SECURITY_CLASSIFICATION_LEVEL ( 'unclassified' ) ;
#145 = DIRECTION ( 'NONE',  ( 1.000000000000000000, 0.000000000000000000, -0.000000000000000000 ) ) ;
#146 = CIRCLE ( 'NONE', #2, 3.000000000000000444 ) ;
#147 = CARTESIAN_POINT ( 'NONE',  ( -2.000000000000000000, 0.000000000000000000, 180.0000000000000000 ) ) ;
#148 = APPLICATION_PROTOCOL_DEFINITION ( 'international standard', 'config_control_design', 1994, #304 ) ;
#149 = CARTESIAN_POINT ( 'NONE',  ( 0.000000000000000000, 0.000000000000000000, 0.000000000000000000 ) ) ;
#150 = CIRCLE ( 'NONE', #376, 3.500000000000000444 ) ;
#151 = AXIS2_PLACEMENT_3D ( 'NONE', #292, #336, #72 ) ;
#152 = CC_DESIGN_PERSON_AND_ORGANIZATION_ASSIGNMENT ( #33, #25, ( #295 ) ) ;
#153 = AXIS2_PLACEMENT_3D ( 'NONE', #149, #239, #327 ) ;
#154 = VERTEX_POINT ( 'NONE', #114 ) ;
#155 = CC_DESIGN_PERSON_AND_ORGANIZATION_ASSIGNMENT ( #310, #113, ( #295 ) ) ;
#156 = ORIENTED_EDGE ( 'NONE', *, *, #277, .T. ) ;
#157 = DIRECTION ( 'NONE',  ( 1.000000000000000000, 0.000000000000000000, 0.000000000000000000 ) ) ;
#158 = EDGE_LOOP ( 'NONE', ( #92, #208, #321, #124 ) ) ;
#159 = CARTESIAN_POINT ( 'NONE',  ( 0.000000000000000000, 0.000000000000000000, 180.0000000000000000 ) ) ;
#160 = CC_DESIGN_APPROVAL ( #207, ( #257 ) ) ;
#161 = APPLICATION_CONTEXT ( 'configuration controlled 3d designs of mechanical parts and assemblies' ) ;
#162 = VERTEX_POINT ( 'NONE', #35 ) ;
#163 = DIRECTION ( 'NONE',  ( 1.000000000000000000, 0.000000000000000000, 0.000000000000000000 ) ) ;
#164 = APPROVAL_ROLE ( '' ) ;
#165 = DIRECTION ( 'NONE',  ( 0.000000000000000000, 0.000000000000000000, 1.000000000000000000 ) ) ;
#166 = APPROVAL ( #349, 'NEURÈENÝ' ) ;
#167 = CARTESIAN_POINT ( 'NONE',  ( -3.000000000000000444, 0.000000000000000000, 5.500000000000005329 ) ) ;
#168 = CARTESIAN_POINT ( 'NONE',  ( -3.500000000000000444, 4.286263797015737088E-16, 5.500000000000005329 ) ) ;
#169 = PLANE ( 'NONE',  #135 ) ;
#170 = LOCAL_TIME ( 11, 13, 36.00000000000000000, #29 ) ;
#171 = FACE_OUTER_BOUND ( 'NONE', #80, .T. ) ;
#172 = CARTESIAN_POINT ( 'NONE',  ( 6.000000000000000888, 7.347880794884120722E-16, 5.000000000000000000 ) ) ;
#173 = PLANE ( 'NONE',  #36 ) ;
#174 = EDGE_CURVE ( 'NONE', #154, #203, #111, .T. ) ;
#175 = APPROVAL_PERSON_ORGANIZATION ( #56, #166, #164 ) ;
#176 = DIRECTION ( 'NONE',  ( 1.000000000000000000, 0.000000000000000000, 0.000000000000000000 ) ) ;
#177 = VERTEX_POINT ( 'NONE', #84 ) ;
#178 = EDGE_CURVE ( 'NONE', #94, #162, #150, .T. ) ;
#179 = ORIENTED_EDGE ( 'NONE', *, *, #289, .T. ) ;
#180 = LOCAL_TIME ( 11, 13, 36.00000000000000000, #378 ) ;
#181 = CARTESIAN_POINT ( 'NONE',  ( -2.000000000000000000, 0.000000000000000000, 180.0000000000000000 ) ) ;
#182 = CYLINDRICAL_SURFACE ( 'NONE', #212, 6.000000000000000888 ) ;
#183 = EDGE_LOOP ( 'NONE', ( #129, #218 ) ) ;
#184 = DATE_AND_TIME ( #339, #170 ) ;
#185 = VERTEX_POINT ( 'NONE', #311 ) ;
#186 = ORIENTED_EDGE ( 'NONE', *, *, #23, .T. ) ;
#187 = CIRCLE ( 'NONE', #251, 3.500000000000000444 ) ;
#188 = DATE_AND_TIME ( #22, #180 ) ;
#189 = ORIENTED_EDGE ( 'NONE', *, *, #16, .F. ) ;
#190 = COORDINATED_UNIVERSAL_TIME_OFFSET ( 1, 0, .AHEAD. ) ;
#191 = FACE_OUTER_BOUND ( 'NONE', #17, .T. ) ;
#192 = EDGE_CURVE ( 'NONE', #154, #63, #271, .T. ) ;
#193 = DATE_AND_TIME ( #83, #30 ) ;
#194 = FACE_OUTER_BOUND ( 'NONE', #338, .T. ) ;
#195 = AXIS2_PLACEMENT_3D ( 'NONE', #37, #259, #59 ) ;
#196 = DIRECTION ( 'NONE',  ( 1.000000000000000000, 0.000000000000000000, 0.000000000000000000 ) ) ;
#197 = DIRECTION ( 'NONE',  ( -1.000000000000000000, 1.224646799147354440E-16, 0.000000000000000000 ) ) ;
#198 = VERTEX_POINT ( 'NONE', #226 ) ;
#199 = EDGE_CURVE ( 'NONE', #359, #198, #228, .T. ) ;
#200 = CARTESIAN_POINT ( 'NONE',  ( 0.000000000000000000, 0.000000000000000000, 0.000000000000000000 ) ) ;
#201 = CIRCLE ( 'NONE', #95, 2.000000000000000000 ) ;
#202 = CARTESIAN_POINT ( 'NONE',  ( 0.000000000000000000, 0.000000000000000000, 5.000000000000000000 ) ) ;
#203 = VERTEX_POINT ( 'NONE', #167 ) ;
#204 =( NAMED_UNIT ( * ) PLANE_ANGLE_UNIT ( ) SI_UNIT ( $, .RADIAN. ) );
#205 = ORIENTED_EDGE ( 'NONE', *, *, #283, .T. ) ;
#206 = AXIS2_PLACEMENT_3D ( 'NONE', #120, #315, #163 ) ;
#207 = APPROVAL ( #217, 'NEURÈENÝ' ) ;
#208 = ORIENTED_EDGE ( 'NONE', *, *, #131, .T. ) ;
#209 = AXIS2_PLACEMENT_3D ( 'NONE', #159, #137, #373 ) ;
#210 = ORIENTED_EDGE ( 'NONE', *, *, #139, .F. ) ;
#211 = PRODUCT_DEFINITION_SHAPE ( 'NONE', 'NONE',  #257 ) ;
#212 = AXIS2_PLACEMENT_3D ( 'NONE', #12, #361, #301 ) ;
#213 = ORIENTED_EDGE ( 'NONE', *, *, #48, .T. ) ;
#214 = CALENDAR_DATE ( 2022, 10, 7 ) ;
#215 = CARTESIAN_POINT ( 'NONE',  ( 0.000000000000000000, 0.000000000000000000, 180.0000000000000000 ) ) ;
#216 = ADVANCED_FACE ( 'NONE', ( #287 ), #355, .T. ) ;
#217 = APPROVAL_STATUS ( 'not_yet_approved' ) ;
#218 = ORIENTED_EDGE ( 'NONE', *, *, #343, .T. ) ;
#219 = CARTESIAN_POINT ( 'NONE',  ( -6.000000000000000888, 0.000000000000000000, 5.000000000000000000 ) ) ;
#220 = AXIS2_PLACEMENT_3D ( 'NONE', #202, #93, #133 ) ;
#221 = PERSON_AND_ORGANIZATION ( #57, #344 ) ;
#222 = EDGE_CURVE ( 'NONE', #177, #94, #44, .T. ) ;
#223 = CARTESIAN_POINT ( 'NONE',  ( 0.000000000000000000, 0.000000000000000000, 0.000000000000000000 ) ) ;
#224 = PERSON_AND_ORGANIZATION_ROLE ( 'classification_officer' ) ;
#225 = CARTESIAN_POINT ( 'NONE',  ( 3.500000000000000444, 0.000000000000000000, 5.000000000000002665 ) ) ;
#226 = CARTESIAN_POINT ( 'NONE',  ( 6.000000000000000888, 7.347880794884120722E-16, 0.000000000000000000 ) ) ;
#227 = CARTESIAN_POINT ( 'NONE',  ( 6.000000000000000888, 7.347880794884120722E-16, 5.000000000000000000 ) ) ;
#228 = LINE ( 'NONE', #227, #370 ) ;
#229 = CARTESIAN_POINT ( 'NONE',  ( 0.000000000000000000, 0.000000000000000000, 180.0000000000000000 ) ) ;
#230 = ORIENTED_EDGE ( 'NONE', *, *, #178, .T. ) ;
#231 = CIRCLE ( 'NONE', #316, 3.000000000000000444 ) ;
#232 = CC_DESIGN_PERSON_AND_ORGANIZATION_ASSIGNMENT ( #110, #105, ( #242 ) ) ;
#233 = CARTESIAN_POINT ( 'NONE',  ( 0.000000000000000000, 0.000000000000000000, 0.000000000000000000 ) ) ;
#234 = FACE_BOUND ( 'NONE', #125, .T. ) ;
#235 = ORIENTED_EDGE ( 'NONE', *, *, #293, .F. ) ;
#236 = CIRCLE ( 'NONE', #220, 6.000000000000000888 ) ;
#237 = CYLINDRICAL_SURFACE ( 'NONE', #238, 2.000000000000000000 ) ;
#238 = AXIS2_PLACEMENT_3D ( 'NONE', #335, #240, #24 ) ;
#239 = DIRECTION ( 'NONE',  ( -0.000000000000000000, -0.000000000000000000, -1.000000000000000000 ) ) ;
#240 = DIRECTION ( 'NONE',  ( 0.000000000000000000, 0.000000000000000000, -1.000000000000000000 ) ) ;
#241 = CARTESIAN_POINT ( 'NONE',  ( 0.000000000000000000, 0.000000000000000000, 5.000000000000000000 ) ) ;
#242 = PRODUCT ( '30fb', '30fb', '', ( #91 ) ) ;
#243 = CIRCLE ( 'NONE', #86, 3.000000000000000444 ) ;
#244 = ADVANCED_FACE ( 'NONE', ( #290, #256 ), #169, .F. ) ;
#245 = FACE_OUTER_BOUND ( 'NONE', #330, .T. ) ;
#246 = VERTEX_POINT ( 'NONE', #320 ) ;
#247 = ORIENTED_EDGE ( 'NONE', *, *, #289, .F. ) ;
#248 = CC_DESIGN_PERSON_AND_ORGANIZATION_ASSIGNMENT ( #252, #224, ( #353 ) ) ;
#249 = COORDINATED_UNIVERSAL_TIME_OFFSET ( 1, 0, .AHEAD. ) ;
#250 = DIRECTION ( 'NONE',  ( 1.000000000000000000, 0.000000000000000000, 0.000000000000000000 ) ) ;
#251 = AXIS2_PLACEMENT_3D ( 'NONE', #241, #65, #157 ) ;
#252 = PERSON_AND_ORGANIZATION ( #57, #344 ) ;
#253 = CARTESIAN_POINT ( 'NONE',  ( 3.000000000000000444, 3.673940397442060361E-16, 180.0000000000000000 ) ) ;
#254 = ADVANCED_BREP_SHAPE_REPRESENTATION ( '30fb', ( #14, #127 ), #90 ) ;
#255 = CYLINDRICAL_SURFACE ( 'NONE', #195, 2.000000000000000000 ) ;
#256 = FACE_OUTER_BOUND ( 'NONE', #96, .T. ) ;
#257 = PRODUCT_DEFINITION ( 'NEZNÁMÝ', '', #295, #281 ) ;
#258 = CIRCLE ( 'NONE', #109, 6.000000000000000888 ) ;
#259 = DIRECTION ( 'NONE',  ( 0.000000000000000000, 0.000000000000000000, -1.000000000000000000 ) ) ;
#260 = ORIENTED_EDGE ( 'NONE', *, *, #318, .T. ) ;
#261 = DIRECTION ( 'NONE',  ( 0.000000000000000000, 0.000000000000000000, 1.000000000000000000 ) ) ;
#262 = AXIS2_PLACEMENT_3D ( 'NONE', #282, #106, #78 ) ;
#263 =( LENGTH_UNIT ( ) NAMED_UNIT ( * ) SI_UNIT ( .MILLI., .METRE. ) );
#264 = APPROVAL_PERSON_ORGANIZATION ( #305, #207, #81 ) ;
#265 = DIRECTION ( 'NONE',  ( 0.000000000000000000, 0.000000000000000000, 1.000000000000000000 ) ) ;
#266 = DIRECTION ( 'NONE',  ( 1.000000000000000000, 0.000000000000000000, -0.000000000000000000 ) ) ;
#267 = EDGE_LOOP ( 'NONE', ( #213, #260 ) ) ;
#268 = AXIS2_PLACEMENT_3D ( 'NONE', #299, #367, #134 ) ;
#269 = ORIENTED_EDGE ( 'NONE', *, *, #364, .F. ) ;
#270 = ADVANCED_FACE ( 'NONE', ( #191 ), #255, .F. ) ;
#271 = CIRCLE ( 'NONE', #206, 3.000000000000000444 ) ;
#272 = ORIENTED_EDGE ( 'NONE', *, *, #356, .F. ) ;
#273 = EDGE_LOOP ( 'NONE', ( #363, #369, #186, #272 ) ) ;
#274 = TOROIDAL_SURFACE ( 'NONE', #115, 3.500000000000000444, 0.5000000000000000000 ) ;
#275 = CIRCLE ( 'NONE', #314, 0.4999999999999995559 ) ;
#276 = DIRECTION ( 'NONE',  ( 0.000000000000000000, 0.000000000000000000, 1.000000000000000000 ) ) ;
#277 = EDGE_CURVE ( 'NONE', #246, #198, #258, .T. ) ;
#278 = DIRECTION ( 'NONE',  ( 0.000000000000000000, 0.000000000000000000, -1.000000000000000000 ) ) ;
#279 = DATE_TIME_ROLE ( 'creation_date' ) ;
#280 = CARTESIAN_POINT ( 'NONE',  ( 2.000000000000000000, 2.449293598294705921E-16, 0.000000000000000000 ) ) ;
#281 = DESIGN_CONTEXT ( 'detailed design', #161, 'design' ) ;
#282 = CARTESIAN_POINT ( 'NONE',  ( 0.000000000000000000, 0.000000000000000000, 5.000000000000000000 ) ) ;
#283 = EDGE_CURVE ( 'NONE', #128, #362, #201, .T. ) ;
#284 = APPROVAL_DATE_TIME ( #193, #166 ) ;
#285 = DIRECTION ( 'NONE',  ( 0.000000000000000000, -1.000000000000000000, 0.000000000000000000 ) ) ;
#286 = APPROVAL_DATE_TIME ( #54, #297 ) ;
#287 = FACE_OUTER_BOUND ( 'NONE', #158, .T. ) ;
#288 = CARTESIAN_POINT ( 'NONE',  ( 3.500000000000000444, 0.000000000000000000, 5.500000000000005329 ) ) ;
#289 = EDGE_CURVE ( 'NONE', #185, #5, #41, .T. ) ;
#290 = FACE_BOUND ( 'NONE', #366, .T. ) ;
#291 = CARTESIAN_POINT ( 'NONE',  ( 0.000000000000000000, 0.000000000000000000, 0.000000000000000000 ) ) ;
#292 = CARTESIAN_POINT ( 'NONE',  ( 0.000000000000000000, 0.000000000000000000, 5.500000000000005329 ) ) ;
#293 = EDGE_CURVE ( 'NONE', #203, #177, #231, .T. ) ;
#294 = LINE ( 'NONE', #368, #337 ) ;
#295 = PRODUCT_DEFINITION_FORMATION_WITH_SPECIFIED_SOURCE ( 'LIBOVOLNÝ', '', #242, .NOT_KNOWN. ) ;
#296 = ORIENTED_EDGE ( 'NONE', *, *, #139, .T. ) ;
#297 = APPROVAL ( #79, 'NEURÈENÝ' ) ;
#298 = ORIENTED_EDGE ( 'NONE', *, *, #199, .F. ) ;
#299 = CARTESIAN_POINT ( 'NONE',  ( 0.000000000000000000, 0.000000000000000000, 0.000000000000000000 ) ) ;
#300 = ADVANCED_FACE ( 'NONE', ( #171 ), #9, .F. ) ;
#301 = DIRECTION ( 'NONE',  ( -1.000000000000000000, 0.000000000000000000, 0.000000000000000000 ) ) ;
#302 = ORIENTED_EDGE ( 'NONE', *, *, #74, .T. ) ;
#303 = FACE_OUTER_BOUND ( 'NONE', #183, .T. ) ;
#304 = APPLICATION_CONTEXT ( 'configuration controlled 3d designs of mechanical parts and assemblies' ) ;
#305 = PERSON_AND_ORGANIZATION ( #57, #344 ) ;
#306 = CARTESIAN_POINT ( 'NONE',  ( 3.000000000000000444, 3.673940397442060361E-16, 180.0000000000000000 ) ) ;
#307 = SHAPE_DEFINITION_REPRESENTATION ( #211, #254 ) ;
#308 = CARTESIAN_POINT ( 'NONE',  ( 0.000000000000000000, 0.000000000000000000, 5.000000000000000000 ) ) ;
#309 = AXIS2_PLACEMENT_3D ( 'NONE', #52, #26, #3 ) ;
#310 = PERSON_AND_ORGANIZATION ( #57, #344 ) ;
#311 = CARTESIAN_POINT ( 'NONE',  ( -2.000000000000000000, 0.000000000000000000, 0.000000000000000000 ) ) ;
#312 = ORIENTED_EDGE ( 'NONE', *, *, #16, .T. ) ;
#313 = CALENDAR_DATE ( 2022, 10, 7 ) ;
#314 = AXIS2_PLACEMENT_3D ( 'NONE', #168, #82, #197 ) ;
#315 = DIRECTION ( 'NONE',  ( 0.000000000000000000, 0.000000000000000000, 1.000000000000000000 ) ) ;
#316 = AXIS2_PLACEMENT_3D ( 'NONE', #130, #61, #7 ) ;
#317 = ORIENTED_EDGE ( 'NONE', *, *, #131, .F. ) ;
#318 = EDGE_CURVE ( 'NONE', #359, #8, #236, .T. ) ;
#319 = LINE ( 'NONE', #55, #348 ) ;
#320 = CARTESIAN_POINT ( 'NONE',  ( -6.000000000000000888, 0.000000000000000000, 0.000000000000000000 ) ) ;
#321 = ORIENTED_EDGE ( 'NONE', *, *, #374, .T. ) ;
#322 = CC_DESIGN_DATE_AND_TIME_ASSIGNMENT ( #184, #279, ( #257 ) ) ;
#323 = DIRECTION ( 'NONE',  ( 1.000000000000000000, 0.000000000000000000, 0.000000000000000000 ) ) ;
#324 = AXIS2_PLACEMENT_3D ( 'NONE', #223, #347, #143 ) ;
#325 = DIRECTION ( 'NONE',  ( 0.000000000000000000, 0.000000000000000000, 1.000000000000000000 ) ) ;
#326 = ORIENTED_EDGE ( 'NONE', *, *, #48, .F. ) ;
#327 = DIRECTION ( 'NONE',  ( 1.000000000000000000, 0.000000000000000000, 0.000000000000000000 ) ) ;
#328 = VECTOR ( 'NONE', #380, 1000.000000000000000 ) ;
#329 = ORIENTED_EDGE ( 'NONE', *, *, #364, .T. ) ;
#330 = EDGE_LOOP ( 'NONE', ( #317, #332, #42, #99 ) ) ;
#331 = ADVANCED_FACE ( 'NONE', ( #62 ), #182, .T. ) ;
#332 = ORIENTED_EDGE ( 'NONE', *, *, #192, .F. ) ;
#333 = CIRCLE ( 'NONE', #268, 6.000000000000000888 ) ;
#334 = CC_DESIGN_DATE_AND_TIME_ASSIGNMENT ( #188, #381, ( #353 ) ) ;
#335 = CARTESIAN_POINT ( 'NONE',  ( 0.000000000000000000, 0.000000000000000000, 180.0000000000000000 ) ) ;
#336 = DIRECTION ( 'NONE',  ( 0.000000000000000000, 0.000000000000000000, 1.000000000000000000 ) ) ;
#337 = VECTOR ( 'NONE', #67, 1000.000000000000000 ) ;
#338 = EDGE_LOOP ( 'NONE', ( #235, #296, #68, #352 ) ) ;
#339 = CALENDAR_DATE ( 2022, 10, 7 ) ;
#340 = FACE_BOUND ( 'NONE', #375, .T. ) ;
#341 = CYLINDRICAL_SURFACE ( 'NONE', #98, 3.000000000000000444 ) ;
#342 = APPLICATION_PROTOCOL_DEFINITION ( 'international standard', 'config_control_design', 1994, #161 ) ;
#343 = EDGE_CURVE ( 'NONE', #63, #154, #146, .T. ) ;
#344 = ORGANIZATION ( 'NEURÈENÝ', 'NEURÈENÝ', '' ) ;
#345 = LINE ( 'NONE', #181, #18 ) ;
#346 = PERSON_AND_ORGANIZATION ( #57, #344 ) ;
#347 = DIRECTION ( 'NONE',  ( -0.000000000000000000, -0.000000000000000000, -1.000000000000000000 ) ) ;
#348 = VECTOR ( 'NONE', #58, 1000.000000000000000 ) ;
#349 = APPROVAL_STATUS ( 'not_yet_approved' ) ;
#350 = DIRECTION ( 'NONE',  ( 1.000000000000000000, 0.000000000000000000, 0.000000000000000000 ) ) ;
#351 = EDGE_CURVE ( 'NONE', #5, #185, #365, .T. ) ;
#352 = ORIENTED_EDGE ( 'NONE', *, *, #222, .F. ) ;
#353 = SECURITY_CLASSIFICATION ( '', '', #144 ) ;
#354 = DIRECTION ( 'NONE',  ( 0.000000000000000000, 0.000000000000000000, 1.000000000000000000 ) ) ;
#355 = CYLINDRICAL_SURFACE ( 'NONE', #103, 3.000000000000000444 ) ;
#356 = EDGE_CURVE ( 'NONE', #8, #246, #294, .T. ) ;
#357 = DIRECTION ( 'NONE',  ( 0.000000000000000000, 0.000000000000000000, -1.000000000000000000 ) ) ;
#358 = CARTESIAN_POINT ( 'NONE',  ( 0.000000000000000000, 0.000000000000000000, 5.500000000000005329 ) ) ;
#359 = VERTEX_POINT ( 'NONE', #172 ) ;
#360 = LOCAL_TIME ( 11, 13, 36.00000000000000000, #190 ) ;
#361 = DIRECTION ( 'NONE',  ( -0.000000000000000000, -0.000000000000000000, -1.000000000000000000 ) ) ;
#362 = VERTEX_POINT ( 'NONE', #40 ) ;
#363 = ORIENTED_EDGE ( 'NONE', *, *, #318, .F. ) ;
#364 = EDGE_CURVE ( 'NONE', #162, #94, #187, .T. ) ;
#365 = CIRCLE ( 'NONE', #153, 2.000000000000000000 ) ;
#366 = EDGE_LOOP ( 'NONE', ( #247, #45 ) ) ;
#367 = DIRECTION ( 'NONE',  ( 0.000000000000000000, 0.000000000000000000, 1.000000000000000000 ) ) ;
#368 = CARTESIAN_POINT ( 'NONE',  ( -6.000000000000000888, 0.000000000000000000, 5.000000000000000000 ) ) ;
#369 = ORIENTED_EDGE ( 'NONE', *, *, #199, .T. ) ;
#370 = VECTOR ( 'NONE', #27, 1000.000000000000000 ) ;
#371 = CC_DESIGN_APPROVAL ( #297, ( #295 ) ) ;
#372 = DIRECTION ( 'NONE',  ( -0.000000000000000000, -0.000000000000000000, -1.000000000000000000 ) ) ;
#373 = DIRECTION ( 'NONE',  ( 1.000000000000000000, 0.000000000000000000, -0.000000000000000000 ) ) ;
#374 = EDGE_CURVE ( 'NONE', #177, #203, #243, .T. ) ;
#375 = EDGE_LOOP ( 'NONE', ( #69, #121 ) ) ;
#376 = AXIS2_PLACEMENT_3D ( 'NONE', #34, #4, #89 ) ;
#377 = CARTESIAN_POINT ( 'NONE',  ( 0.000000000000000000, 0.000000000000000000, 5.500000000000005329 ) ) ;
#378 = COORDINATED_UNIVERSAL_TIME_OFFSET ( 1, 0, .AHEAD. ) ;
#379 = ADVANCED_FACE ( 'NONE', ( #234, #100 ), #173, .T. ) ;
#380 = DIRECTION ( 'NONE',  ( -0.000000000000000000, -0.000000000000000000, -1.000000000000000000 ) ) ;
#381 = DATE_TIME_ROLE ( 'classification_date' ) ;
ENDSEC;
END-ISO-10303-21;
