ISO-10303-21;
HEADER;
FILE_DESCRIPTION (( 'STEP AP203' ),
    '1' );
FILE_NAME ('245c.STEP',
    '2022-07-10T09:08:37',
    ( '' ),
    ( '' ),
    'SwSTEP 2.0',
    'SolidWorks 2019',
    '' );
FILE_SCHEMA (( 'CONFIG_CONTROL_DESIGN' ));
ENDSEC;

DATA;
#1 = DIRECTION ( 'NONE',  ( -1.000000000000000000, 0.000000000000000000, 0.000000000000000000 ) ) ;
#2 = EDGE_LOOP ( 'NONE', ( #356, #69 ) ) ;
#3 = CARTESIAN_POINT ( 'NONE',  ( 2.600000000000000089, 3.184081677783118191E-16, 0.000000000000000000 ) ) ;
#4 = ADVANCED_FACE ( 'NONE', ( #341 ), #223, .T. ) ;
#5 = CARTESIAN_POINT ( 'NONE',  ( 4.500000000000000888, 0.000000000000000000, 5.500000000000005329 ) ) ;
#6 = ORIENTED_EDGE ( 'NONE', *, *, #353, .F. ) ;
#7 = ORIENTED_EDGE ( 'NONE', *, *, #72, .T. ) ;
#8 = CIRCLE ( 'NONE', #41, 4.000000000000000000 ) ;
#9 = CARTESIAN_POINT ( 'NONE',  ( 0.000000000000000000, 0.000000000000000000, 5.500000000000005329 ) ) ;
#10 = VECTOR ( 'NONE', #111, 1000.000000000000000 ) ;
#11 = CIRCLE ( 'NONE', #220, 4.500000000000000888 ) ;
#12 = VERTEX_POINT ( 'NONE', #163 ) ;
#13 = VERTEX_POINT ( 'NONE', #221 ) ;
#14 = ADVANCED_FACE ( 'NONE', ( #333, #195 ), #16, .T. ) ;
#15 = DIRECTION ( 'NONE',  ( 1.000000000000000000, 0.000000000000000000, 0.000000000000000000 ) ) ;
#16 = PLANE ( 'NONE',  #74 ) ;
#17 = CARTESIAN_POINT ( 'NONE',  ( -2.600000000000000089, 0.000000000000000000, 105.0000000000000142 ) ) ;
#18 = APPROVAL ( #244, 'NEURÈENÝ' ) ;
#19 = CARTESIAN_POINT ( 'NONE',  ( 0.000000000000000000, 0.000000000000000000, 5.000000000000000000 ) ) ;
#20 = CARTESIAN_POINT ( 'NONE',  ( 0.000000000000000000, 0.000000000000000000, 105.0000000000000142 ) ) ;
#21 = DATE_TIME_ROLE ( 'classification_date' ) ;
#22 = CARTESIAN_POINT ( 'NONE',  ( 2.600000000000000089, 3.184081677783118191E-16, 105.0000000000000142 ) ) ;
#23 = AXIS2_PLACEMENT_3D ( 'NONE', #264, #131, #234 ) ;
#24 = LOCAL_TIME ( 11, 8, 37.00000000000000000, #137 ) ;
#25 = SECURITY_CLASSIFICATION_LEVEL ( 'unclassified' ) ;
#26 = DIRECTION ( 'NONE',  ( -1.000000000000000000, 1.224646799147351482E-16, 0.000000000000000000 ) ) ;
#27 = EDGE_CURVE ( 'NONE', #71, #267, #263, .T. ) ;
#28 = FACE_OUTER_BOUND ( 'NONE', #271, .T. ) ;
#29 = DIRECTION ( 'NONE',  ( 0.000000000000000000, 0.000000000000000000, 1.000000000000000000 ) ) ;
#30 = AXIS2_PLACEMENT_3D ( 'NONE', #75, #200, #130 ) ;
#31 = ORIENTED_EDGE ( 'NONE', *, *, #196, .F. ) ;
#32 = CARTESIAN_POINT ( 'NONE',  ( -4.000000000000000000, 0.000000000000000000, 105.0000000000000142 ) ) ;
#33 =( NAMED_UNIT ( * ) SI_UNIT ( $, .STERADIAN. ) SOLID_ANGLE_UNIT ( ) );
#34 =( NAMED_UNIT ( * ) PLANE_ANGLE_UNIT ( ) SI_UNIT ( $, .RADIAN. ) );
#35 = EDGE_CURVE ( 'NONE', #245, #13, #295, .T. ) ;
#36 = DIRECTION ( 'NONE',  ( 1.000000000000000000, 0.000000000000000000, 0.000000000000000000 ) ) ;
#37 = CC_DESIGN_PERSON_AND_ORGANIZATION_ASSIGNMENT ( #109, #79, ( #155 ) ) ;
#38 = ORIENTED_EDGE ( 'NONE', *, *, #191, .T. ) ;
#39 = ORIENTED_EDGE ( 'NONE', *, *, #27, .F. ) ;
#40 = AXIS2_PLACEMENT_3D ( 'NONE', #378, #284, #1 ) ;
#41 = AXIS2_PLACEMENT_3D ( 'NONE', #86, #228, #53 ) ;
#42 = CC_DESIGN_APPROVAL ( #18, ( #179 ) ) ;
#43 = ORIENTED_EDGE ( 'NONE', *, *, #323, .F. ) ;
#44 = APPLICATION_PROTOCOL_DEFINITION ( 'international standard', 'config_control_design', 1994, #339 ) ;
#45 = DIRECTION ( 'NONE',  ( -0.000000000000000000, -0.000000000000000000, -1.000000000000000000 ) ) ;
#46 = CARTESIAN_POINT ( 'NONE',  ( 0.000000000000000000, 0.000000000000000000, 5.000000000000000000 ) ) ;
#47 = EDGE_LOOP ( 'NONE', ( #239, #215, #370, #136 ) ) ;
#48 = CALENDAR_DATE ( 2022, 10, 7 ) ;
#49 = CARTESIAN_POINT ( 'NONE',  ( 0.000000000000000000, 0.000000000000000000, 105.0000000000000142 ) ) ;
#50 = APPROVAL_ROLE ( '' ) ;
#51 = DIRECTION ( 'NONE',  ( -1.000000000000000000, 0.000000000000000000, 0.000000000000000000 ) ) ;
#52 = PERSON_AND_ORGANIZATION ( #354, #173 ) ;
#53 = DIRECTION ( 'NONE',  ( 1.000000000000000000, 0.000000000000000000, 0.000000000000000000 ) ) ;
#54 = VECTOR ( 'NONE', #346, 1000.000000000000000 ) ;
#55 = CARTESIAN_POINT ( 'NONE',  ( 7.000000000000000000, 8.572527594031473190E-16, 5.000000000000000000 ) ) ;
#56 = CARTESIAN_POINT ( 'NONE',  ( 4.500000000000000888, 0.000000000000000000, 5.000000000000002665 ) ) ;
#57 = AXIS2_PLACEMENT_3D ( 'NONE', #5, #169, #283 ) ;
#58 = DIRECTION ( 'NONE',  ( -0.000000000000000000, -0.000000000000000000, -1.000000000000000000 ) ) ;
#59 = EDGE_LOOP ( 'NONE', ( #65, #61 ) ) ;
#60 = CARTESIAN_POINT ( 'NONE',  ( 0.000000000000000000, 0.000000000000000000, 105.0000000000000142 ) ) ;
#61 = ORIENTED_EDGE ( 'NONE', *, *, #35, .T. ) ;
#62 = DESIGN_CONTEXT ( 'detailed design', #160, 'design' ) ;
#63 = CYLINDRICAL_SURFACE ( 'NONE', #211, 2.600000000000000089 ) ;
#64 = CIRCLE ( 'NONE', #121, 4.000000000000000000 ) ;
#65 = ORIENTED_EDGE ( 'NONE', *, *, #266, .T. ) ;
#66 = ORIENTED_EDGE ( 'NONE', *, *, #108, .T. ) ;
#67 = DIRECTION ( 'NONE',  ( 1.000000000000000000, 0.000000000000000000, 0.000000000000000000 ) ) ;
#68 = AXIS2_PLACEMENT_3D ( 'NONE', #181, #319, #36 ) ;
#69 = ORIENTED_EDGE ( 'NONE', *, *, #268, .T. ) ;
#70 = VERTEX_POINT ( 'NONE', #98 ) ;
#71 = VERTEX_POINT ( 'NONE', #17 ) ;
#72 = EDGE_CURVE ( 'NONE', #127, #269, #320, .T. ) ;
#73 = PERSON_AND_ORGANIZATION_ROLE ( 'design_supplier' ) ;
#74 = AXIS2_PLACEMENT_3D ( 'NONE', #335, #242, #368 ) ;
#75 = CARTESIAN_POINT ( 'NONE',  ( 0.000000000000000000, 0.000000000000000000, 5.500000000000005329 ) ) ;
#76 = EDGE_CURVE ( 'NONE', #269, #127, #182, .T. ) ;
#77 = DATE_TIME_ROLE ( 'creation_date' ) ;
#78 = DIRECTION ( 'NONE',  ( 1.000000000000000000, 0.000000000000000000, 0.000000000000000000 ) ) ;
#79 = PERSON_AND_ORGANIZATION_ROLE ( 'design_owner' ) ;
#80 = CARTESIAN_POINT ( 'NONE',  ( 0.000000000000000000, 0.000000000000000000, 105.0000000000000142 ) ) ;
#81 = VERTEX_POINT ( 'NONE', #374 ) ;
#82 = PRODUCT_RELATED_PRODUCT_CATEGORY ( 'detail', '', ( #155 ) ) ;
#83 = DIRECTION ( 'NONE',  ( 0.000000000000000000, 0.000000000000000000, 1.000000000000000000 ) ) ;
#84 = CARTESIAN_POINT ( 'NONE',  ( 0.000000000000000000, 0.000000000000000000, 5.500000000000005329 ) ) ;
#85 = CC_DESIGN_DATE_AND_TIME_ASSIGNMENT ( #166, #77, ( #351 ) ) ;
#86 = CARTESIAN_POINT ( 'NONE',  ( 0.000000000000000000, 0.000000000000000000, 5.500000000000005329 ) ) ;
#87 = APPROVAL ( #345, 'NEURÈENÝ' ) ;
#88 = DIRECTION ( 'NONE',  ( -1.000000000000000000, 0.000000000000000000, 0.000000000000000000 ) ) ;
#89 = EDGE_LOOP ( 'NONE', ( #124, #97, #274, #7 ) ) ;
#90 = VECTOR ( 'NONE', #120, 1000.000000000000000 ) ;
#91 = CC_DESIGN_SECURITY_CLASSIFICATION ( #190, ( #179 ) ) ;
#92 = DIRECTION ( 'NONE',  ( 0.000000000000000000, 0.000000000000000000, 1.000000000000000000 ) ) ;
#93 = CARTESIAN_POINT ( 'NONE',  ( 7.000000000000000000, 8.572527594031473190E-16, 5.000000000000000000 ) ) ;
#94 = ORIENTED_EDGE ( 'NONE', *, *, #323, .T. ) ;
#95 = AXIS2_PLACEMENT_3D ( 'NONE', #262, #298, #177 ) ;
#96 = EDGE_LOOP ( 'NONE', ( #294, #38, #31, #189 ) ) ;
#97 = ORIENTED_EDGE ( 'NONE', *, *, #373, .T. ) ;
#98 = CARTESIAN_POINT ( 'NONE',  ( -4.000000000000000000, 0.000000000000000000, 5.500000000000005329 ) ) ;
#99 = ADVANCED_FACE ( 'NONE', ( #103 ), #285, .F. ) ;
#100 = CIRCLE ( 'NONE', #371, 2.600000000000000089 ) ;
#101 = EDGE_LOOP ( 'NONE', ( #213, #66, #159, #118 ) ) ;
#102 = APPROVAL_ROLE ( '' ) ;
#103 = FACE_OUTER_BOUND ( 'NONE', #47, .T. ) ;
#104 = APPROVAL_DATE_TIME ( #194, #114 ) ;
#105 = LINE ( 'NONE', #22, #10 ) ;
#106 = APPLICATION_PROTOCOL_DEFINITION ( 'international standard', 'config_control_design', 1994, #160 ) ;
#107 = CARTESIAN_POINT ( 'NONE',  ( -7.000000000000000000, 0.000000000000000000, 5.000000000000000000 ) ) ;
#108 = EDGE_CURVE ( 'NONE', #267, #269, #105, .T. ) ;
#109 = PERSON_AND_ORGANIZATION ( #354, #173 ) ;
#110 = FACE_OUTER_BOUND ( 'NONE', #59, .T. ) ;
#111 = DIRECTION ( 'NONE',  ( 0.000000000000000000, 0.000000000000000000, -1.000000000000000000 ) ) ;
#112 = DIRECTION ( 'NONE',  ( -0.000000000000000000, -0.000000000000000000, -1.000000000000000000 ) ) ;
#113 = AXIS2_PLACEMENT_3D ( 'NONE', #49, #83, #78 ) ;
#114 = APPROVAL ( #227, 'NEURÈENÝ' ) ;
#115 = CARTESIAN_POINT ( 'NONE',  ( 4.000000000000000000, 4.898587196589412829E-16, 105.0000000000000142 ) ) ;
#116 = ORIENTED_EDGE ( 'NONE', *, *, #196, .T. ) ;
#117 =( LENGTH_UNIT ( ) NAMED_UNIT ( * ) SI_UNIT ( .MILLI., .METRE. ) );
#118 = ORIENTED_EDGE ( 'NONE', *, *, #218, .F. ) ;
#119 = CIRCLE ( 'NONE', #113, 4.000000000000000000 ) ;
#120 = DIRECTION ( 'NONE',  ( -0.000000000000000000, -0.000000000000000000, -1.000000000000000000 ) ) ;
#121 = AXIS2_PLACEMENT_3D ( 'NONE', #9, #132, #369 ) ;
#122 = CC_DESIGN_APPROVAL ( #87, ( #190 ) ) ;
#123 = FACE_OUTER_BOUND ( 'NONE', #101, .T. ) ;
#124 = ORIENTED_EDGE ( 'NONE', *, *, #108, .F. ) ;
#125 = ADVANCED_FACE ( 'NONE', ( #28 ), #205, .T. ) ;
#126 = ORIENTED_EDGE ( 'NONE', *, *, #188, .T. ) ;
#127 = VERTEX_POINT ( 'NONE', #176 ) ;
#128 = AXIS2_PLACEMENT_3D ( 'NONE', #84, #277, #148 ) ;
#129 = ADVANCED_BREP_SHAPE_REPRESENTATION ( '245c', ( #145, #95 ), #251 ) ;
#130 = DIRECTION ( 'NONE',  ( 1.000000000000000000, 0.000000000000000000, 0.000000000000000000 ) ) ;
#131 = DIRECTION ( 'NONE',  ( 0.000000000000000000, 0.000000000000000000, 1.000000000000000000 ) ) ;
#132 = DIRECTION ( 'NONE',  ( 0.000000000000000000, 0.000000000000000000, 1.000000000000000000 ) ) ;
#133 = ORIENTED_EDGE ( 'NONE', *, *, #327, .T. ) ;
#134 = CARTESIAN_POINT ( 'NONE',  ( 0.000000000000000000, 0.000000000000000000, 0.000000000000000000 ) ) ;
#135 = ADVANCED_FACE ( 'NONE', ( #230, #172 ), #147, .F. ) ;
#136 = ORIENTED_EDGE ( 'NONE', *, *, #317, .F. ) ;
#137 = COORDINATED_UNIVERSAL_TIME_OFFSET ( 1, 0, .AHEAD. ) ;
#138 = CARTESIAN_POINT ( 'NONE',  ( 0.000000000000000000, 0.000000000000000000, 0.000000000000000000 ) ) ;
#139 = AXIS2_PLACEMENT_3D ( 'NONE', #138, #232, #348 ) ;
#140 = PERSON_AND_ORGANIZATION ( #354, #173 ) ;
#141 = CIRCLE ( 'NONE', #286, 0.5000000000000004441 ) ;
#142 = CARTESIAN_POINT ( 'NONE',  ( 2.600000000000000089, 3.184081677783118191E-16, 105.0000000000000142 ) ) ;
#143 = LOCAL_TIME ( 11, 8, 37.00000000000000000, #336 ) ;
#144 = CALENDAR_DATE ( 2022, 10, 7 ) ;
#145 = MANIFOLD_SOLID_BREP ( 'Odebrat vysunutím3', #349 ) ;
#146 = CARTESIAN_POINT ( 'NONE',  ( -4.500000000000000888, 5.510910596163088569E-16, 5.000000000000002665 ) ) ;
#147 = PLANE ( 'NONE',  #139 ) ;
#148 = DIRECTION ( 'NONE',  ( 1.000000000000000000, 0.000000000000000000, 0.000000000000000000 ) ) ;
#149 = ORIENTED_EDGE ( 'NONE', *, *, #357, .T. ) ;
#150 = DIRECTION ( 'NONE',  ( -0.000000000000000000, -0.000000000000000000, -1.000000000000000000 ) ) ;
#151 = AXIS2_PLACEMENT_3D ( 'NONE', #300, #45, #247 ) ;
#152 = DIRECTION ( 'NONE',  ( 1.000000000000000000, 0.000000000000000000, 0.000000000000000000 ) ) ;
#153 = CC_DESIGN_APPROVAL ( #114, ( #351 ) ) ;
#154 = LINE ( 'NONE', #367, #334 ) ;
#155 = PRODUCT ( '245c', '245c', '', ( #360 ) ) ;
#156 = CC_DESIGN_PERSON_AND_ORGANIZATION_ASSIGNMENT ( #52, #375, ( #351 ) ) ;
#157 = ORIENTED_EDGE ( 'NONE', *, *, #311, .T. ) ;
#158 = CIRCLE ( 'NONE', #342, 7.000000000000000000 ) ;
#159 = ORIENTED_EDGE ( 'NONE', *, *, #76, .T. ) ;
#160 = APPLICATION_CONTEXT ( 'configuration controlled 3d designs of mechanical parts and assemblies' ) ;
#161 = LINE ( 'NONE', #93, #90 ) ;
#162 = ORIENTED_EDGE ( 'NONE', *, *, #268, .F. ) ;
#163 = CARTESIAN_POINT ( 'NONE',  ( -7.000000000000000000, 0.000000000000000000, 0.000000000000000000 ) ) ;
#164 = CALENDAR_DATE ( 2022, 10, 7 ) ;
#165 = DIRECTION ( 'NONE',  ( 0.000000000000000000, 0.000000000000000000, 1.000000000000000000 ) ) ;
#166 = DATE_AND_TIME ( #222, #24 ) ;
#167 = DIRECTION ( 'NONE',  ( 1.000000000000000000, 0.000000000000000000, 0.000000000000000000 ) ) ;
#168 = PERSON_AND_ORGANIZATION ( #354, #173 ) ;
#169 = DIRECTION ( 'NONE',  ( 0.000000000000000000, -1.000000000000000000, 0.000000000000000000 ) ) ;
#170 = PERSON_AND_ORGANIZATION ( #354, #173 ) ;
#171 = CIRCLE ( 'NONE', #178, 4.000000000000000000 ) ;
#172 = FACE_OUTER_BOUND ( 'NONE', #314, .T. ) ;
#173 = ORGANIZATION ( 'NEURÈENÝ', 'NEURÈENÝ', '' ) ;
#174 = CYLINDRICAL_SURFACE ( 'NONE', #379, 4.000000000000000000 ) ;
#175 = ADVANCED_FACE ( 'NONE', ( #344 ), #174, .T. ) ;
#176 = CARTESIAN_POINT ( 'NONE',  ( -2.600000000000000089, 0.000000000000000000, 0.000000000000000000 ) ) ;
#177 = DIRECTION ( 'NONE',  ( 1.000000000000000000, 0.000000000000000000, 0.000000000000000000 ) ) ;
#178 = AXIS2_PLACEMENT_3D ( 'NONE', #80, #29, #249 ) ;
#179 = PRODUCT_DEFINITION_FORMATION_WITH_SPECIFIED_SOURCE ( 'LIBOVOLNÝ', '', #155, .NOT_KNOWN. ) ;
#180 = CARTESIAN_POINT ( 'NONE',  ( 0.000000000000000000, 0.000000000000000000, 105.0000000000000142 ) ) ;
#181 = CARTESIAN_POINT ( 'NONE',  ( 0.000000000000000000, 0.000000000000000000, 0.000000000000000000 ) ) ;
#182 = CIRCLE ( 'NONE', #151, 2.600000000000000089 ) ;
#183 = DIRECTION ( 'NONE',  ( 0.000000000000000000, 0.000000000000000000, 1.000000000000000000 ) ) ;
#184 = VERTEX_POINT ( 'NONE', #115 ) ;
#185 = EDGE_CURVE ( 'NONE', #337, #184, #119, .T. ) ;
#186 = VECTOR ( 'NONE', #225, 1000.000000000000000 ) ;
#187 = ORIENTED_EDGE ( 'NONE', *, *, #185, .F. ) ;
#188 = EDGE_CURVE ( 'NONE', #81, #70, #8, .T. ) ;
#189 = ORIENTED_EDGE ( 'NONE', *, *, #226, .F. ) ;
#190 = SECURITY_CLASSIFICATION ( '', '', #25 ) ;
#191 = EDGE_CURVE ( 'NONE', #70, #216, #141, .T. ) ;
#192 = DIRECTION ( 'NONE',  ( -0.000000000000000000, -0.000000000000000000, -1.000000000000000000 ) ) ;
#193 = DIRECTION ( 'NONE',  ( 1.000000000000000000, 0.000000000000000000, 0.000000000000000000 ) ) ;
#194 = DATE_AND_TIME ( #343, #372 ) ;
#195 = FACE_OUTER_BOUND ( 'NONE', #2, .T. ) ;
#196 = EDGE_CURVE ( 'NONE', #291, #216, #11, .T. ) ;
#197 = DATE_AND_TIME ( #144, #143 ) ;
#198 = CIRCLE ( 'NONE', #57, 0.5000000000000004441 ) ;
#199 = APPROVAL_PERSON_ORGANIZATION ( #338, #114, #50 ) ;
#200 = DIRECTION ( 'NONE',  ( 0.000000000000000000, 0.000000000000000000, 1.000000000000000000 ) ) ;
#201 = PERSON_AND_ORGANIZATION ( #354, #173 ) ;
#202 = UNCERTAINTY_MEASURE_WITH_UNIT (LENGTH_MEASURE( 1.000000000000000082E-05 ), #117, 'distance_accuracy_value', 'NONE');
#203 = FACE_OUTER_BOUND ( 'NONE', #362, .T. ) ;
#204 = PERSON_AND_ORGANIZATION_ROLE ( 'classification_officer' ) ;
#205 = CYLINDRICAL_SURFACE ( 'NONE', #40, 7.000000000000000000 ) ;
#206 = LINE ( 'NONE', #252, #54 ) ;
#207 = APPROVAL_PERSON_ORGANIZATION ( #170, #18, #224 ) ;
#208 = DIRECTION ( 'NONE',  ( 0.000000000000000000, 0.000000000000000000, 1.000000000000000000 ) ) ;
#209 = DIRECTION ( 'NONE',  ( 1.224646799147353207E-16, 1.000000000000000000, -0.000000000000000000 ) ) ;
#210 = CARTESIAN_POINT ( 'NONE',  ( 0.000000000000000000, 0.000000000000000000, 5.000000000000000000 ) ) ;
#211 = AXIS2_PLACEMENT_3D ( 'NONE', #60, #214, #321 ) ;
#212 = CARTESIAN_POINT ( 'NONE',  ( 0.000000000000000000, 0.000000000000000000, 105.0000000000000142 ) ) ;
#213 = ORIENTED_EDGE ( 'NONE', *, *, #27, .T. ) ;
#214 = DIRECTION ( 'NONE',  ( 0.000000000000000000, 0.000000000000000000, -1.000000000000000000 ) ) ;
#215 = ORIENTED_EDGE ( 'NONE', *, *, #188, .F. ) ;
#216 = VERTEX_POINT ( 'NONE', #146 ) ;
#217 = DIRECTION ( 'NONE',  ( -0.000000000000000000, -0.000000000000000000, -1.000000000000000000 ) ) ;
#218 = EDGE_CURVE ( 'NONE', #71, #127, #206, .T. ) ;
#219 = ORIENTED_EDGE ( 'NONE', *, *, #72, .F. ) ;
#220 = AXIS2_PLACEMENT_3D ( 'NONE', #233, #112, #167 ) ;
#221 = CARTESIAN_POINT ( 'NONE',  ( -7.000000000000000000, 0.000000000000000000, 5.000000000000000000 ) ) ;
#222 = CALENDAR_DATE ( 2022, 10, 7 ) ;
#223 = CYLINDRICAL_SURFACE ( 'NONE', #340, 7.000000000000000000 ) ;
#224 = APPROVAL_ROLE ( '' ) ;
#225 = DIRECTION ( 'NONE',  ( -0.000000000000000000, -0.000000000000000000, -1.000000000000000000 ) ) ;
#226 = EDGE_CURVE ( 'NONE', #81, #291, #198, .T. ) ;
#227 = APPROVAL_STATUS ( 'not_yet_approved' ) ;
#228 = DIRECTION ( 'NONE',  ( 0.000000000000000000, 0.000000000000000000, 1.000000000000000000 ) ) ;
#229 = ORIENTED_EDGE ( 'NONE', *, *, #288, .F. ) ;
#230 = FACE_BOUND ( 'NONE', #309, .T. ) ;
#231 = ADVANCED_FACE ( 'NONE', ( #257 ), #307, .F. ) ;
#232 = DIRECTION ( 'NONE',  ( 0.000000000000000000, 0.000000000000000000, 1.000000000000000000 ) ) ;
#233 = CARTESIAN_POINT ( 'NONE',  ( 0.000000000000000000, 0.000000000000000000, 5.000000000000000000 ) ) ;
#234 = DIRECTION ( 'NONE',  ( 1.000000000000000000, 0.000000000000000000, -0.000000000000000000 ) ) ;
#235 = ORIENTED_EDGE ( 'NONE', *, *, #373, .F. ) ;
#236 = LINE ( 'NONE', #326, #265 ) ;
#237 = CIRCLE ( 'NONE', #68, 7.000000000000000000 ) ;
#238 = DIRECTION ( 'NONE',  ( -0.000000000000000000, -0.000000000000000000, -1.000000000000000000 ) ) ;
#239 = ORIENTED_EDGE ( 'NONE', *, *, #191, .F. ) ;
#240 = ORIENTED_EDGE ( 'NONE', *, *, #311, .F. ) ;
#241 = CARTESIAN_POINT ( 'NONE',  ( 0.000000000000000000, 0.000000000000000000, 0.000000000000000000 ) ) ;
#242 = DIRECTION ( 'NONE',  ( 0.000000000000000000, 0.000000000000000000, 1.000000000000000000 ) ) ;
#243 = EDGE_LOOP ( 'NONE', ( #240, #324, #331, #133 ) ) ;
#244 = APPROVAL_STATUS ( 'not_yet_approved' ) ;
#245 = VERTEX_POINT ( 'NONE', #55 ) ;
#246 = COORDINATED_UNIVERSAL_TIME_OFFSET ( 1, 0, .AHEAD. ) ;
#247 = DIRECTION ( 'NONE',  ( 1.000000000000000000, 0.000000000000000000, 0.000000000000000000 ) ) ;
#248 = PERSON_AND_ORGANIZATION ( #354, #173 ) ;
#249 = DIRECTION ( 'NONE',  ( 1.000000000000000000, 0.000000000000000000, 0.000000000000000000 ) ) ;
#250 = AXIS2_PLACEMENT_3D ( 'NONE', #212, #287, #88 ) ;
#251 =( GEOMETRIC_REPRESENTATION_CONTEXT ( 3 ) GLOBAL_UNCERTAINTY_ASSIGNED_CONTEXT ( ( #202 ) ) GLOBAL_UNIT_ASSIGNED_CONTEXT ( ( #117, #34, #33 ) ) REPRESENTATION_CONTEXT ( 'NONE', 'WORKASPACE' ) );
#252 = CARTESIAN_POINT ( 'NONE',  ( -2.600000000000000089, 0.000000000000000000, 105.0000000000000142 ) ) ;
#253 = ADVANCED_FACE ( 'NONE', ( #203 ), #279, .T. ) ;
#254 = APPROVAL_DATE_TIME ( #197, #87 ) ;
#255 = CARTESIAN_POINT ( 'NONE',  ( 0.000000000000000000, 0.000000000000000000, 5.000000000000000000 ) ) ;
#256 = ORIENTED_EDGE ( 'NONE', *, *, #347, .T. ) ;
#257 = FACE_OUTER_BOUND ( 'NONE', #96, .T. ) ;
#258 = DIRECTION ( 'NONE',  ( -1.000000000000000000, 0.000000000000000000, 0.000000000000000000 ) ) ;
#259 = LOCAL_TIME ( 11, 8, 37.00000000000000000, #301 ) ;
#260 = ORIENTED_EDGE ( 'NONE', *, *, #353, .T. ) ;
#261 = CARTESIAN_POINT ( 'NONE',  ( 7.000000000000000000, 8.572527594031473190E-16, 0.000000000000000000 ) ) ;
#262 = CARTESIAN_POINT ( 'NONE',  ( 0.000000000000000000, 0.000000000000000000, 0.000000000000000000 ) ) ;
#263 = CIRCLE ( 'NONE', #329, 2.600000000000000089 ) ;
#264 = CARTESIAN_POINT ( 'NONE',  ( 0.000000000000000000, 0.000000000000000000, 5.000000000000000000 ) ) ;
#265 = VECTOR ( 'NONE', #150, 1000.000000000000000 ) ;
#266 = EDGE_CURVE ( 'NONE', #13, #245, #158, .T. ) ;
#267 = VERTEX_POINT ( 'NONE', #142 ) ;
#268 = EDGE_CURVE ( 'NONE', #184, #337, #171, .T. ) ;
#269 = VERTEX_POINT ( 'NONE', #3 ) ;
#270 = AXIS2_PLACEMENT_3D ( 'NONE', #19, #366, #275 ) ;
#271 = EDGE_LOOP ( 'NONE', ( #328, #157, #94, #229 ) ) ;
#272 = ORIENTED_EDGE ( 'NONE', *, *, #327, .F. ) ;
#273 = PLANE ( 'NONE',  #23 ) ;
#274 = ORIENTED_EDGE ( 'NONE', *, *, #218, .T. ) ;
#275 = DIRECTION ( 'NONE',  ( 1.000000000000000000, 0.000000000000000000, 0.000000000000000000 ) ) ;
#276 = CARTESIAN_POINT ( 'NONE',  ( 0.000000000000000000, 0.000000000000000000, 105.0000000000000142 ) ) ;
#277 = DIRECTION ( 'NONE',  ( 0.000000000000000000, 0.000000000000000000, 1.000000000000000000 ) ) ;
#278 = DATE_AND_TIME ( #48, #259 ) ;
#279 = CYLINDRICAL_SURFACE ( 'NONE', #363, 4.000000000000000000 ) ;
#280 = COORDINATED_UNIVERSAL_TIME_OFFSET ( 1, 0, .AHEAD. ) ;
#281 = CIRCLE ( 'NONE', #350, 7.000000000000000000 ) ;
#282 = CARTESIAN_POINT ( 'NONE',  ( -4.500000000000000888, 5.510910596163089556E-16, 5.500000000000005329 ) ) ;
#283 = DIRECTION ( 'NONE',  ( 0.000000000000000000, 0.000000000000000000, -1.000000000000000000 ) ) ;
#284 = DIRECTION ( 'NONE',  ( -0.000000000000000000, -0.000000000000000000, -1.000000000000000000 ) ) ;
#285 = TOROIDAL_SURFACE ( 'NONE', #30, 4.500000000000000888, 0.5000000000000000000 ) ;
#286 = AXIS2_PLACEMENT_3D ( 'NONE', #282, #209, #26 ) ;
#287 = DIRECTION ( 'NONE',  ( 0.000000000000000000, 0.000000000000000000, -1.000000000000000000 ) ) ;
#288 = EDGE_CURVE ( 'NONE', #13, #12, #318, .T. ) ;
#289 = DIRECTION ( 'NONE',  ( 1.000000000000000000, 0.000000000000000000, 0.000000000000000000 ) ) ;
#290 = CYLINDRICAL_SURFACE ( 'NONE', #250, 2.600000000000000089 ) ;
#291 = VERTEX_POINT ( 'NONE', #56 ) ;
#292 = ADVANCED_FACE ( 'NONE', ( #380, #110 ), #273, .T. ) ;
#293 = PRODUCT_DEFINITION_SHAPE ( 'NONE', 'NONE',  #351 ) ;
#294 = ORIENTED_EDGE ( 'NONE', *, *, #347, .F. ) ;
#295 = CIRCLE ( 'NONE', #270, 7.000000000000000000 ) ;
#296 = DIRECTION ( 'NONE',  ( -1.000000000000000000, 0.000000000000000000, 0.000000000000000000 ) ) ;
#297 = CIRCLE ( 'NONE', #358, 4.500000000000000888 ) ;
#298 = DIRECTION ( 'NONE',  ( 0.000000000000000000, 0.000000000000000000, 1.000000000000000000 ) ) ;
#299 = ADVANCED_FACE ( 'NONE', ( #123 ), #290, .F. ) ;
#300 = CARTESIAN_POINT ( 'NONE',  ( 0.000000000000000000, 0.000000000000000000, 0.000000000000000000 ) ) ;
#301 = COORDINATED_UNIVERSAL_TIME_OFFSET ( 1, 0, .AHEAD. ) ;
#302 = ORIENTED_EDGE ( 'NONE', *, *, #317, .T. ) ;
#303 = APPROVAL_DATE_TIME ( #310, #18 ) ;
#304 = ORIENTED_EDGE ( 'NONE', *, *, #357, .F. ) ;
#305 = CC_DESIGN_PERSON_AND_ORGANIZATION_ASSIGNMENT ( #168, #204, ( #190 ) ) ;
#306 = ADVANCED_FACE ( 'NONE', ( #355 ), #63, .F. ) ;
#307 = TOROIDAL_SURFACE ( 'NONE', #128, 4.500000000000000888, 0.5000000000000000000 ) ;
#308 = PERSON_AND_ORGANIZATION_ROLE ( 'creator' ) ;
#309 = EDGE_LOOP ( 'NONE', ( #219, #365 ) ) ;
#310 = DATE_AND_TIME ( #164, #359 ) ;
#311 = EDGE_CURVE ( 'NONE', #245, #376, #161, .T. ) ;
#312 = DIRECTION ( 'NONE',  ( -0.000000000000000000, -0.000000000000000000, -1.000000000000000000 ) ) ;
#313 = CARTESIAN_POINT ( 'NONE',  ( 0.000000000000000000, 0.000000000000000000, 105.0000000000000142 ) ) ;
#314 = EDGE_LOOP ( 'NONE', ( #272, #43 ) ) ;
#315 = APPROVAL_PERSON_ORGANIZATION ( #140, #87, #102 ) ;
#316 = DIRECTION ( 'NONE',  ( -0.000000000000000000, -0.000000000000000000, -1.000000000000000000 ) ) ;
#317 = EDGE_CURVE ( 'NONE', #216, #291, #297, .T. ) ;
#318 = LINE ( 'NONE', #107, #186 ) ;
#319 = DIRECTION ( 'NONE',  ( 0.000000000000000000, 0.000000000000000000, 1.000000000000000000 ) ) ;
#320 = CIRCLE ( 'NONE', #377, 2.600000000000000089 ) ;
#321 = DIRECTION ( 'NONE',  ( -1.000000000000000000, 0.000000000000000000, 0.000000000000000000 ) ) ;
#322 = EDGE_LOOP ( 'NONE', ( #39, #235 ) ) ;
#323 = EDGE_CURVE ( 'NONE', #376, #12, #237, .T. ) ;
#324 = ORIENTED_EDGE ( 'NONE', *, *, #266, .F. ) ;
#325 = CC_DESIGN_PERSON_AND_ORGANIZATION_ASSIGNMENT ( #201, #73, ( #179 ) ) ;
#326 = CARTESIAN_POINT ( 'NONE',  ( -4.000000000000000000, 0.000000000000000000, 105.0000000000000142 ) ) ;
#327 = EDGE_CURVE ( 'NONE', #12, #376, #281, .T. ) ;
#328 = ORIENTED_EDGE ( 'NONE', *, *, #35, .F. ) ;
#329 = AXIS2_PLACEMENT_3D ( 'NONE', #276, #165, #193 ) ;
#330 = CC_DESIGN_PERSON_AND_ORGANIZATION_ASSIGNMENT ( #248, #308, ( #179 ) ) ;
#331 = ORIENTED_EDGE ( 'NONE', *, *, #288, .T. ) ;
#332 = EDGE_LOOP ( 'NONE', ( #6, #187, #149, #256 ) ) ;
#333 = FACE_BOUND ( 'NONE', #322, .T. ) ;
#334 = VECTOR ( 'NONE', #238, 1000.000000000000000 ) ;
#335 = CARTESIAN_POINT ( 'NONE',  ( 0.000000000000000000, 0.000000000000000000, 105.0000000000000142 ) ) ;
#336 = COORDINATED_UNIVERSAL_TIME_OFFSET ( 1, 0, .AHEAD. ) ;
#337 = VERTEX_POINT ( 'NONE', #32 ) ;
#338 = PERSON_AND_ORGANIZATION ( #354, #173 ) ;
#339 = APPLICATION_CONTEXT ( 'configuration controlled 3d designs of mechanical parts and assemblies' ) ;
#340 = AXIS2_PLACEMENT_3D ( 'NONE', #46, #217, #296 ) ;
#341 = FACE_OUTER_BOUND ( 'NONE', #243, .T. ) ;
#342 = AXIS2_PLACEMENT_3D ( 'NONE', #255, #208, #352 ) ;
#343 = CALENDAR_DATE ( 2022, 10, 7 ) ;
#344 = FACE_OUTER_BOUND ( 'NONE', #332, .T. ) ;
#345 = APPROVAL_STATUS ( 'not_yet_approved' ) ;
#346 = DIRECTION ( 'NONE',  ( 0.000000000000000000, 0.000000000000000000, -1.000000000000000000 ) ) ;
#347 = EDGE_CURVE ( 'NONE', #70, #81, #64, .T. ) ;
#348 = DIRECTION ( 'NONE',  ( 1.000000000000000000, 0.000000000000000000, -0.000000000000000000 ) ) ;
#349 = CLOSED_SHELL ( 'NONE', ( #299, #231, #253, #125, #4, #292, #135, #175, #14, #99, #306 ) ) ;
#350 = AXIS2_PLACEMENT_3D ( 'NONE', #241, #92, #152 ) ;
#351 = PRODUCT_DEFINITION ( 'NEZNÁMÝ', '', #179, #62 ) ;
#352 = DIRECTION ( 'NONE',  ( 1.000000000000000000, 0.000000000000000000, 0.000000000000000000 ) ) ;
#353 = EDGE_CURVE ( 'NONE', #184, #81, #154, .T. ) ;
#354 = PERSON ( 'NEURÈENÝ', 'NEURÈENÝ', 'NEURÈENÝ', ('NEURÈENÝ'), ('NEURÈENÝ'), ('NEURÈENÝ') ) ;
#355 = FACE_OUTER_BOUND ( 'NONE', #89, .T. ) ;
#356 = ORIENTED_EDGE ( 'NONE', *, *, #185, .T. ) ;
#357 = EDGE_CURVE ( 'NONE', #337, #70, #236, .T. ) ;
#358 = AXIS2_PLACEMENT_3D ( 'NONE', #210, #58, #15 ) ;
#359 = LOCAL_TIME ( 11, 8, 37.00000000000000000, #280 ) ;
#360 = MECHANICAL_CONTEXT ( 'NONE', #339, 'mechanical' ) ;
#361 = EDGE_LOOP ( 'NONE', ( #116, #302 ) ) ;
#362 = EDGE_LOOP ( 'NONE', ( #162, #260, #126, #304 ) ) ;
#363 = AXIS2_PLACEMENT_3D ( 'NONE', #20, #312, #258 ) ;
#364 = CC_DESIGN_DATE_AND_TIME_ASSIGNMENT ( #278, #21, ( #190 ) ) ;
#365 = ORIENTED_EDGE ( 'NONE', *, *, #76, .F. ) ;
#366 = DIRECTION ( 'NONE',  ( 0.000000000000000000, 0.000000000000000000, 1.000000000000000000 ) ) ;
#367 = CARTESIAN_POINT ( 'NONE',  ( 4.000000000000000000, 4.898587196589412829E-16, 105.0000000000000142 ) ) ;
#368 = DIRECTION ( 'NONE',  ( 1.000000000000000000, 0.000000000000000000, -0.000000000000000000 ) ) ;
#369 = DIRECTION ( 'NONE',  ( 1.000000000000000000, 0.000000000000000000, 0.000000000000000000 ) ) ;
#370 = ORIENTED_EDGE ( 'NONE', *, *, #226, .T. ) ;
#371 = AXIS2_PLACEMENT_3D ( 'NONE', #180, #183, #289 ) ;
#372 = LOCAL_TIME ( 11, 8, 37.00000000000000000, #246 ) ;
#373 = EDGE_CURVE ( 'NONE', #267, #71, #100, .T. ) ;
#374 = CARTESIAN_POINT ( 'NONE',  ( 4.000000000000000000, 4.898587196589412829E-16, 5.500000000000005329 ) ) ;
#375 = PERSON_AND_ORGANIZATION_ROLE ( 'creator' ) ;
#376 = VERTEX_POINT ( 'NONE', #261 ) ;
#377 = AXIS2_PLACEMENT_3D ( 'NONE', #134, #192, #67 ) ;
#378 = CARTESIAN_POINT ( 'NONE',  ( 0.000000000000000000, 0.000000000000000000, 5.000000000000000000 ) ) ;
#379 = AXIS2_PLACEMENT_3D ( 'NONE', #313, #316, #51 ) ;
#380 = FACE_BOUND ( 'NONE', #361, .T. ) ;
#381 = SHAPE_DEFINITION_REPRESENTATION ( #293, #129 ) ;
ENDSEC;
END-ISO-10303-21;
