ISO-10303-21;
HEADER;
FILE_DESCRIPTION (( 'STEP AP203' ),
    '1' );
FILE_NAME ('a1c8.STEP',
    '2022-07-10T09:03:11',
    ( '' ),
    ( '' ),
    'SwSTEP 2.0',
    'SolidWorks 2019',
    '' );
FILE_SCHEMA (( 'CONFIG_CONTROL_DESIGN' ));
ENDSEC;

DATA;
#1 = SECURITY_CLASSIFICATION_LEVEL ( 'unclassified' ) ;
#2 = CIRCLE ( 'NONE', #227, 4.099999999999999645 ) ;
#3 = PERSON_AND_ORGANIZATION_ROLE ( 'creator' ) ;
#4 = ORIENTED_EDGE ( 'NONE', *, *, #93, .T. ) ;
#5 = CIRCLE ( 'NONE', #81, 6.700000000000001066 ) ;
#6 = AXIS2_PLACEMENT_3D ( 'NONE', #63, #296, #302 ) ;
#7 = SHAPE_DEFINITION_REPRESENTATION ( #179, #362 ) ;
#8 = LINE ( 'NONE', #273, #270 ) ;
#9 = DIRECTION ( 'NONE',  ( 0.000000000000000000, 0.000000000000000000, -1.000000000000000000 ) ) ;
#10 = CARTESIAN_POINT ( 'NONE',  ( 4.099999999999999645, 5.021051876504147385E-16, 82.00000000000000000 ) ) ;
#11 = LINE ( 'NONE', #223, #18 ) ;
#12 = ORIENTED_EDGE ( 'NONE', *, *, #286, .T. ) ;
#13 = CARTESIAN_POINT ( 'NONE',  ( -6.700000000000001066, 8.205133554287267548E-16, 6.999999999999999112 ) ) ;
#14 = CIRCLE ( 'NONE', #34, 6.000000000000000888 ) ;
#15 = VERTEX_POINT ( 'NONE', #275 ) ;
#16 = DIRECTION ( 'NONE',  ( 1.000000000000000000, 0.000000000000000000, 0.000000000000000000 ) ) ;
#17 = ORIENTED_EDGE ( 'NONE', *, *, #162, .T. ) ;
#18 = VECTOR ( 'NONE', #165, 1000.000000000000000 ) ;
#19 = DATE_AND_TIME ( #174, #141 ) ;
#20 = ORIENTED_EDGE ( 'NONE', *, *, #39, .T. ) ;
#21 = CARTESIAN_POINT ( 'NONE',  ( 4.099999999999999645, 5.021051876504147385E-16, 82.00000000000000000 ) ) ;
#22 = VERTEX_POINT ( 'NONE', #27 ) ;
#23 = DIRECTION ( 'NONE',  ( 1.000000000000000000, 0.000000000000000000, 0.000000000000000000 ) ) ;
#24 = DIRECTION ( 'NONE',  ( -1.000000000000000000, 0.000000000000000000, 0.000000000000000000 ) ) ;
#25 = CC_DESIGN_APPROVAL ( #180, ( #153 ) ) ;
#26 = CIRCLE ( 'NONE', #6, 6.000000000000000888 ) ;
#27 = CARTESIAN_POINT ( 'NONE',  ( -10.00000000000000000, 0.000000000000000000, 7.000000000000000000 ) ) ;
#28 = COORDINATED_UNIVERSAL_TIME_OFFSET ( 1, 0, .AHEAD. ) ;
#29 = ADVANCED_FACE ( 'NONE', ( #85 ), #346, .F. ) ;
#30 = DIRECTION ( 'NONE',  ( 0.000000000000000000, -1.000000000000000000, 0.000000000000000000 ) ) ;
#31 = DATE_AND_TIME ( #243, #242 ) ;
#32 = EDGE_CURVE ( 'NONE', #259, #173, #43, .T. ) ;
#33 = UNCERTAINTY_MEASURE_WITH_UNIT (LENGTH_MEASURE( 1.000000000000000082E-05 ), #49, 'distance_accuracy_value', 'NONE');
#34 = AXIS2_PLACEMENT_3D ( 'NONE', #86, #184, #267 ) ;
#35 = CARTESIAN_POINT ( 'NONE',  ( 0.000000000000000000, 0.000000000000000000, 0.000000000000000000 ) ) ;
#36 = CIRCLE ( 'NONE', #42, 10.00000000000000000 ) ;
#37 = CYLINDRICAL_SURFACE ( 'NONE', #353, 6.000000000000000888 ) ;
#38 = CYLINDRICAL_SURFACE ( 'NONE', #237, 4.099999999999999645 ) ;
#39 = EDGE_CURVE ( 'NONE', #201, #168, #171, .T. ) ;
#40 = CARTESIAN_POINT ( 'NONE',  ( -4.099999999999999645, 0.000000000000000000, 0.000000000000000000 ) ) ;
#41 = APPROVAL_PERSON_ORGANIZATION ( #112, #180, #341 ) ;
#42 = AXIS2_PLACEMENT_3D ( 'NONE', #151, #205, #23 ) ;
#43 = CIRCLE ( 'NONE', #377, 4.099999999999999645 ) ;
#44 = MANIFOLD_SOLID_BREP ( 'Odebrat vysunutím3', #148 ) ;
#45 = DIRECTION ( 'NONE',  ( -0.000000000000000000, -0.000000000000000000, -1.000000000000000000 ) ) ;
#46 = EDGE_LOOP ( 'NONE', ( #116, #335 ) ) ;
#47 = DIRECTION ( 'NONE',  ( -0.000000000000000000, -0.000000000000000000, -1.000000000000000000 ) ) ;
#48 = ORIENTED_EDGE ( 'NONE', *, *, #286, .F. ) ;
#49 =( LENGTH_UNIT ( ) NAMED_UNIT ( * ) SI_UNIT ( .MILLI., .METRE. ) );
#50 = ORIENTED_EDGE ( 'NONE', *, *, #93, .F. ) ;
#51 = ORIENTED_EDGE ( 'NONE', *, *, #97, .T. ) ;
#52 = APPROVAL ( #57, 'NEURÈENÝ' ) ;
#53 = EDGE_LOOP ( 'NONE', ( #75, #139, #233, #284 ) ) ;
#54 = PLANE ( 'NONE',  #127 ) ;
#55 = CARTESIAN_POINT ( 'NONE',  ( 0.000000000000000000, 0.000000000000000000, 7.699999999999998401 ) ) ;
#56 = APPROVAL_PERSON_ORGANIZATION ( #326, #124, #208 ) ;
#57 = APPROVAL_STATUS ( 'not_yet_approved' ) ;
#58 = AXIS2_PLACEMENT_3D ( 'NONE', #64, #175, #348 ) ;
#59 = CARTESIAN_POINT ( 'NONE',  ( 0.000000000000000000, 0.000000000000000000, 0.000000000000000000 ) ) ;
#60 = EDGE_CURVE ( 'NONE', #338, #321, #26, .T. ) ;
#61 = CC_DESIGN_PERSON_AND_ORGANIZATION_ASSIGNMENT ( #120, #235, ( #160 ) ) ;
#62 = PERSON_AND_ORGANIZATION_ROLE ( 'classification_officer' ) ;
#63 = CARTESIAN_POINT ( 'NONE',  ( 0.000000000000000000, 0.000000000000000000, 82.00000000000000000 ) ) ;
#64 = CARTESIAN_POINT ( 'NONE',  ( 0.000000000000000000, 0.000000000000000000, 0.000000000000000000 ) ) ;
#65 = DIRECTION ( 'NONE',  ( 0.000000000000000000, 0.000000000000000000, 1.000000000000000000 ) ) ;
#66 = APPROVAL_PERSON_ORGANIZATION ( #347, #52, #372 ) ;
#67 = DIRECTION ( 'NONE',  ( 0.000000000000000000, 0.000000000000000000, -1.000000000000000000 ) ) ;
#68 = EDGE_CURVE ( 'NONE', #201, #15, #217, .T. ) ;
#69 = ADVANCED_FACE ( 'NONE', ( #325, #150 ), #159, .F. ) ;
#70 = EDGE_CURVE ( 'NONE', #338, #201, #8, .T. ) ;
#71 = CARTESIAN_POINT ( 'NONE',  ( 0.000000000000000000, 0.000000000000000000, 82.00000000000000000 ) ) ;
#72 = FACE_OUTER_BOUND ( 'NONE', #246, .T. ) ;
#73 = ORIENTED_EDGE ( 'NONE', *, *, #352, .F. ) ;
#74 = CARTESIAN_POINT ( 'NONE',  ( 0.000000000000000000, 0.000000000000000000, 7.699999999999998401 ) ) ;
#75 = ORIENTED_EDGE ( 'NONE', *, *, #331, .F. ) ;
#76 = PERSON_AND_ORGANIZATION_ROLE ( 'creator' ) ;
#77 = CIRCLE ( 'NONE', #271, 10.00000000000000000 ) ;
#78 = ORIENTED_EDGE ( 'NONE', *, *, #313, .T. ) ;
#79 = COORDINATED_UNIVERSAL_TIME_OFFSET ( 1, 0, .AHEAD. ) ;
#80 = ORIENTED_EDGE ( 'NONE', *, *, #32, .F. ) ;
#81 = AXIS2_PLACEMENT_3D ( 'NONE', #257, #231, #314 ) ;
#82 = MECHANICAL_CONTEXT ( 'NONE', #84, 'mechanical' ) ;
#83 = EDGE_LOOP ( 'NONE', ( #73, #193, #287, #328 ) ) ;
#84 = APPLICATION_CONTEXT ( 'configuration controlled 3d designs of mechanical parts and assemblies' ) ;
#85 = FACE_OUTER_BOUND ( 'NONE', #373, .T. ) ;
#86 = CARTESIAN_POINT ( 'NONE',  ( 0.000000000000000000, 0.000000000000000000, 82.00000000000000000 ) ) ;
#87 = LOCAL_TIME ( 11, 3, 11.00000000000000000, #28 ) ;
#88 = DATE_AND_TIME ( #272, #122 ) ;
#89 = ADVANCED_FACE ( 'NONE', ( #247, #178 ), #266, .T. ) ;
#90 = AXIS2_PLACEMENT_3D ( 'NONE', #309, #216, #16 ) ;
#91 = TOROIDAL_SURFACE ( 'NONE', #248, 6.700000000000001066, 0.6999999999999999556 ) ;
#92 = COORDINATED_UNIVERSAL_TIME_OFFSET ( 1, 0, .AHEAD. ) ;
#93 = EDGE_CURVE ( 'NONE', #157, #15, #109, .T. ) ;
#94 = CARTESIAN_POINT ( 'NONE',  ( 0.000000000000000000, 0.000000000000000000, 7.000000000000000000 ) ) ;
#95 = DIRECTION ( 'NONE',  ( -0.000000000000000000, -0.000000000000000000, -1.000000000000000000 ) ) ;
#96 = ORIENTED_EDGE ( 'NONE', *, *, #68, .T. ) ;
#97 = EDGE_CURVE ( 'NONE', #173, #259, #258, .T. ) ;
#98 = FACE_OUTER_BOUND ( 'NONE', #53, .T. ) ;
#99 = CARTESIAN_POINT ( 'NONE',  ( -6.700000000000001066, 8.205133554287267548E-16, 7.699999999999998401 ) ) ;
#100 = TOROIDAL_SURFACE ( 'NONE', #190, 6.700000000000001066, 0.6999999999999999556 ) ;
#101 = AXIS2_PLACEMENT_3D ( 'NONE', #177, #380, #359 ) ;
#102 = AXIS2_PLACEMENT_3D ( 'NONE', #99, #334, #277 ) ;
#103 = CARTESIAN_POINT ( 'NONE',  ( 0.000000000000000000, 0.000000000000000000, 7.000000000000000000 ) ) ;
#104 = EDGE_CURVE ( 'NONE', #321, #338, #14, .T. ) ;
#105 = ORIENTED_EDGE ( 'NONE', *, *, #300, .F. ) ;
#106 = CARTESIAN_POINT ( 'NONE',  ( -10.00000000000000000, 0.000000000000000000, 7.000000000000000000 ) ) ;
#107 = CIRCLE ( 'NONE', #146, 6.000000000000000888 ) ;
#108 = ORIENTED_EDGE ( 'NONE', *, *, #295, .F. ) ;
#109 = CIRCLE ( 'NONE', #101, 6.700000000000001066 ) ;
#110 = CARTESIAN_POINT ( 'NONE',  ( 0.000000000000000000, 0.000000000000000000, 82.00000000000000000 ) ) ;
#111 = EDGE_LOOP ( 'NONE', ( #80, #374 ) ) ;
#112 = PERSON_AND_ORGANIZATION ( #280, #288 ) ;
#113 = EDGE_LOOP ( 'NONE', ( #230, #253 ) ) ;
#114 = ADVANCED_FACE ( 'NONE', ( #98 ), #91, .F. ) ;
#115 = CARTESIAN_POINT ( 'NONE',  ( 0.000000000000000000, 0.000000000000000000, 7.000000000000000000 ) ) ;
#116 = ORIENTED_EDGE ( 'NONE', *, *, #104, .T. ) ;
#117 = LOCAL_TIME ( 11, 3, 11.00000000000000000, #182 ) ;
#118 = DIRECTION ( 'NONE',  ( 0.000000000000000000, 0.000000000000000000, 1.000000000000000000 ) ) ;
#119 = DIRECTION ( 'NONE',  ( 1.000000000000000000, 0.000000000000000000, 0.000000000000000000 ) ) ;
#120 = PERSON_AND_ORGANIZATION ( #280, #288 ) ;
#121 = DIRECTION ( 'NONE',  ( -0.000000000000000000, -0.000000000000000000, -1.000000000000000000 ) ) ;
#122 = LOCAL_TIME ( 11, 3, 11.00000000000000000, #92 ) ;
#123 = CIRCLE ( 'NONE', #236, 10.00000000000000000 ) ;
#124 = APPROVAL ( #299, 'NEURÈENÝ' ) ;
#125 = PERSON_AND_ORGANIZATION_ROLE ( 'design_supplier' ) ;
#126 = DIRECTION ( 'NONE',  ( 1.000000000000000000, 0.000000000000000000, 0.000000000000000000 ) ) ;
#127 = AXIS2_PLACEMENT_3D ( 'NONE', #115, #118, #199 ) ;
#128 = PERSON_AND_ORGANIZATION ( #280, #288 ) ;
#129 = DIRECTION ( 'NONE',  ( 0.000000000000000000, 0.000000000000000000, 1.000000000000000000 ) ) ;
#130 = EDGE_CURVE ( 'NONE', #225, #340, #123, .T. ) ;
#131 = ORIENTED_EDGE ( 'NONE', *, *, #376, .T. ) ;
#132 = DIRECTION ( 'NONE',  ( -1.000000000000000000, 0.000000000000000000, 0.000000000000000000 ) ) ;
#133 = ADVANCED_FACE ( 'NONE', ( #357 ), #241, .T. ) ;
#134 = CARTESIAN_POINT ( 'NONE',  ( 0.000000000000000000, 0.000000000000000000, 0.000000000000000000 ) ) ;
#135 = DIRECTION ( 'NONE',  ( 0.000000000000000000, 0.000000000000000000, 1.000000000000000000 ) ) ;
#136 = VERTEX_POINT ( 'NONE', #304 ) ;
#137 = CC_DESIGN_PERSON_AND_ORGANIZATION_ASSIGNMENT ( #128, #125, ( #153 ) ) ;
#138 = DIRECTION ( 'NONE',  ( -1.000000000000000000, 0.000000000000000000, 0.000000000000000000 ) ) ;
#139 = ORIENTED_EDGE ( 'NONE', *, *, #279, .T. ) ;
#140 = CARTESIAN_POINT ( 'NONE',  ( -6.000000000000000888, 0.000000000000000000, 7.699999999999998401 ) ) ;
#141 = LOCAL_TIME ( 11, 3, 11.00000000000000000, #169 ) ;
#142 = EDGE_LOOP ( 'NONE', ( #261, #212 ) ) ;
#143 = DATE_TIME_ROLE ( 'creation_date' ) ;
#144 = ORIENTED_EDGE ( 'NONE', *, *, #155, .T. ) ;
#145 = EDGE_LOOP ( 'NONE', ( #354, #4 ) ) ;
#146 = AXIS2_PLACEMENT_3D ( 'NONE', #333, #135, #252 ) ;
#147 = CARTESIAN_POINT ( 'NONE',  ( 0.000000000000000000, 0.000000000000000000, 82.00000000000000000 ) ) ;
#148 = CLOSED_SHELL ( 'NONE', ( #244, #114, #268, #133, #319, #358, #69, #207, #89, #337, #29 ) ) ;
#149 = DIRECTION ( 'NONE',  ( 0.000000000000000000, 0.000000000000000000, 1.000000000000000000 ) ) ;
#150 = FACE_OUTER_BOUND ( 'NONE', #113, .T. ) ;
#151 = CARTESIAN_POINT ( 'NONE',  ( 0.000000000000000000, 0.000000000000000000, 7.000000000000000000 ) ) ;
#152 = DIRECTION ( 'NONE',  ( -0.000000000000000000, -0.000000000000000000, -1.000000000000000000 ) ) ;
#153 = PRODUCT_DEFINITION_FORMATION_WITH_SPECIFIED_SOURCE ( 'LIBOVOLNÝ', '', #160, .NOT_KNOWN. ) ;
#154 = DATE_AND_TIME ( #211, #117 ) ;
#155 = EDGE_CURVE ( 'NONE', #22, #340, #311, .T. ) ;
#156 = DATE_TIME_ROLE ( 'classification_date' ) ;
#157 = VERTEX_POINT ( 'NONE', #13 ) ;
#158 = CC_DESIGN_APPROVAL ( #52, ( #220 ) ) ;
#159 = PLANE ( 'NONE',  #58 ) ;
#160 = PRODUCT ( 'a1c8', 'a1c8', '', ( #82 ) ) ;
#161 = CARTESIAN_POINT ( 'NONE',  ( 0.000000000000000000, 0.000000000000000000, 82.00000000000000000 ) ) ;
#162 = EDGE_CURVE ( 'NONE', #371, #136, #219, .T. ) ;
#163 = DIRECTION ( 'NONE',  ( 0.000000000000000000, 0.000000000000000000, 1.000000000000000000 ) ) ;
#164 = CYLINDRICAL_SURFACE ( 'NONE', #263, 6.000000000000000888 ) ;
#165 = DIRECTION ( 'NONE',  ( -0.000000000000000000, -0.000000000000000000, -1.000000000000000000 ) ) ;
#166 = ORIENTED_EDGE ( 'NONE', *, *, #329, .F. ) ;
#167 = DIRECTION ( 'NONE',  ( -1.000000000000000000, 0.000000000000000000, 0.000000000000000000 ) ) ;
#168 = VERTEX_POINT ( 'NONE', #140 ) ;
#169 = COORDINATED_UNIVERSAL_TIME_OFFSET ( 1, 0, .AHEAD. ) ;
#170 = ORIENTED_EDGE ( 'NONE', *, *, #32, .T. ) ;
#171 = CIRCLE ( 'NONE', #355, 6.000000000000000888 ) ;
#172 = DIRECTION ( 'NONE',  ( 0.000000000000000000, 0.000000000000000000, -1.000000000000000000 ) ) ;
#173 = VERTEX_POINT ( 'NONE', #308 ) ;
#174 = CALENDAR_DATE ( 2022, 10, 7 ) ;
#175 = DIRECTION ( 'NONE',  ( 0.000000000000000000, 0.000000000000000000, 1.000000000000000000 ) ) ;
#176 = CARTESIAN_POINT ( 'NONE',  ( 0.000000000000000000, 0.000000000000000000, 0.000000000000000000 ) ) ;
#177 = CARTESIAN_POINT ( 'NONE',  ( 0.000000000000000000, 0.000000000000000000, 7.000000000000000000 ) ) ;
#178 = FACE_OUTER_BOUND ( 'NONE', #46, .T. ) ;
#179 = PRODUCT_DEFINITION_SHAPE ( 'NONE', 'NONE',  #220 ) ;
#180 = APPROVAL ( #229, 'NEURÈENÝ' ) ;
#181 = AXIS2_PLACEMENT_3D ( 'NONE', #147, #264, #24 ) ;
#182 = COORDINATED_UNIVERSAL_TIME_OFFSET ( 1, 0, .AHEAD. ) ;
#183 = DIRECTION ( 'NONE',  ( 0.000000000000000000, 0.000000000000000000, 1.000000000000000000 ) ) ;
#184 = DIRECTION ( 'NONE',  ( 0.000000000000000000, 0.000000000000000000, 1.000000000000000000 ) ) ;
#185 = CYLINDRICAL_SURFACE ( 'NONE', #239, 10.00000000000000000 ) ;
#186 = CARTESIAN_POINT ( 'NONE',  ( 10.00000000000000000, 1.224646799147353256E-15, 0.000000000000000000 ) ) ;
#187 = AXIS2_PLACEMENT_3D ( 'NONE', #94, #95, #213 ) ;
#188 = EDGE_CURVE ( 'NONE', #22, #290, #77, .T. ) ;
#189 = CARTESIAN_POINT ( 'NONE',  ( 0.000000000000000000, 0.000000000000000000, 82.00000000000000000 ) ) ;
#190 = AXIS2_PLACEMENT_3D ( 'NONE', #74, #194, #291 ) ;
#191 = DIRECTION ( 'NONE',  ( -0.000000000000000000, -0.000000000000000000, -1.000000000000000000 ) ) ;
#192 = CIRCLE ( 'NONE', #102, 0.7000000000000000666 ) ;
#193 = ORIENTED_EDGE ( 'NONE', *, *, #329, .T. ) ;
#194 = DIRECTION ( 'NONE',  ( 0.000000000000000000, 0.000000000000000000, 1.000000000000000000 ) ) ;
#195 = ORIENTED_EDGE ( 'NONE', *, *, #188, .F. ) ;
#196 = VECTOR ( 'NONE', #47, 1000.000000000000000 ) ;
#197 = CARTESIAN_POINT ( 'NONE',  ( -10.00000000000000000, 0.000000000000000000, 0.000000000000000000 ) ) ;
#198 = ORIENTED_EDGE ( 'NONE', *, *, #331, .T. ) ;
#199 = DIRECTION ( 'NONE',  ( 1.000000000000000000, 0.000000000000000000, -0.000000000000000000 ) ) ;
#200 = AXIS2_PLACEMENT_3D ( 'NONE', #134, #336, #367 ) ;
#201 = VERTEX_POINT ( 'NONE', #307 ) ;
#202 = CALENDAR_DATE ( 2022, 10, 7 ) ;
#203 = ORIENTED_EDGE ( 'NONE', *, *, #279, .F. ) ;
#204 = DIRECTION ( 'NONE',  ( 0.000000000000000000, 0.000000000000000000, -1.000000000000000000 ) ) ;
#205 = DIRECTION ( 'NONE',  ( 0.000000000000000000, 0.000000000000000000, 1.000000000000000000 ) ) ;
#206 = DIRECTION ( 'NONE',  ( 0.000000000000000000, 0.000000000000000000, 1.000000000000000000 ) ) ;
#207 = ADVANCED_FACE ( 'NONE', ( #370 ), #37, .T. ) ;
#208 = APPROVAL_ROLE ( '' ) ;
#209 = PERSON_AND_ORGANIZATION ( #280, #288 ) ;
#210 = CC_DESIGN_SECURITY_CLASSIFICATION ( #323, ( #153 ) ) ;
#211 = CALENDAR_DATE ( 2022, 10, 7 ) ;
#212 = ORIENTED_EDGE ( 'NONE', *, *, #352, .T. ) ;
#213 = DIRECTION ( 'NONE',  ( -1.000000000000000000, 0.000000000000000000, 0.000000000000000000 ) ) ;
#214 = CC_DESIGN_PERSON_AND_ORGANIZATION_ASSIGNMENT ( #301, #3, ( #153 ) ) ;
#215 = CARTESIAN_POINT ( 'NONE',  ( 0.000000000000000000, 0.000000000000000000, 7.699999999999998401 ) ) ;
#216 = DIRECTION ( 'NONE',  ( 0.000000000000000000, 0.000000000000000000, 1.000000000000000000 ) ) ;
#217 = CIRCLE ( 'NONE', #224, 0.7000000000000000666 ) ;
#218 = DIRECTION ( 'NONE',  ( -1.000000000000000000, 0.000000000000000000, 0.000000000000000000 ) ) ;
#219 = CIRCLE ( 'NONE', #90, 4.099999999999999645 ) ;
#220 = PRODUCT_DEFINITION ( 'NEZNÁMÝ', '', #153, #303 ) ;
#221 = CARTESIAN_POINT ( 'NONE',  ( 6.000000000000000888, 7.347880794884120722E-16, 82.00000000000000000 ) ) ;
#222 = EDGE_LOOP ( 'NONE', ( #48, #366 ) ) ;
#223 = CARTESIAN_POINT ( 'NONE',  ( 10.00000000000000000, 1.224646799147353256E-15, 7.000000000000000000 ) ) ;
#224 = AXIS2_PLACEMENT_3D ( 'NONE', #330, #30, #204 ) ;
#225 = VERTEX_POINT ( 'NONE', #186 ) ;
#226 = CARTESIAN_POINT ( 'NONE',  ( -6.000000000000000888, 0.000000000000000000, 82.00000000000000000 ) ) ;
#227 = AXIS2_PLACEMENT_3D ( 'NONE', #110, #65, #249 ) ;
#228 = EDGE_LOOP ( 'NONE', ( #203, #368, #96, #50 ) ) ;
#229 = APPROVAL_STATUS ( 'not_yet_approved' ) ;
#230 = ORIENTED_EDGE ( 'NONE', *, *, #313, .F. ) ;
#231 = DIRECTION ( 'NONE',  ( -0.000000000000000000, -0.000000000000000000, -1.000000000000000000 ) ) ;
#232 = VECTOR ( 'NONE', #191, 1000.000000000000000 ) ;
#233 = ORIENTED_EDGE ( 'NONE', *, *, #349, .F. ) ;
#234 = FACE_OUTER_BOUND ( 'NONE', #142, .T. ) ;
#235 = PERSON_AND_ORGANIZATION_ROLE ( 'design_owner' ) ;
#236 = AXIS2_PLACEMENT_3D ( 'NONE', #59, #245, #126 ) ;
#237 = AXIS2_PLACEMENT_3D ( 'NONE', #71, #9, #167 ) ;
#238 = DIRECTION ( 'NONE',  ( 1.000000000000000000, 0.000000000000000000, 0.000000000000000000 ) ) ;
#239 = AXIS2_PLACEMENT_3D ( 'NONE', #103, #363, #218 ) ;
#240 = CC_DESIGN_DATE_AND_TIME_ASSIGNMENT ( #154, #156, ( #323 ) ) ;
#241 = CYLINDRICAL_SURFACE ( 'NONE', #187, 10.00000000000000000 ) ;
#242 = LOCAL_TIME ( 11, 3, 11.00000000000000000, #79 ) ;
#243 = CALENDAR_DATE ( 2022, 10, 7 ) ;
#244 = ADVANCED_FACE ( 'NONE', ( #276 ), #38, .F. ) ;
#245 = DIRECTION ( 'NONE',  ( 0.000000000000000000, 0.000000000000000000, 1.000000000000000000 ) ) ;
#246 = EDGE_LOOP ( 'NONE', ( #318, #316, #20, #105 ) ) ;
#247 = FACE_BOUND ( 'NONE', #222, .T. ) ;
#248 = AXIS2_PLACEMENT_3D ( 'NONE', #215, #206, #324 ) ;
#249 = DIRECTION ( 'NONE',  ( 1.000000000000000000, 0.000000000000000000, 0.000000000000000000 ) ) ;
#250 = VECTOR ( 'NONE', #67, 1000.000000000000000 ) ;
#251 = FACE_OUTER_BOUND ( 'NONE', #256, .T. ) ;
#252 = DIRECTION ( 'NONE',  ( 1.000000000000000000, 0.000000000000000000, 0.000000000000000000 ) ) ;
#253 = ORIENTED_EDGE ( 'NONE', *, *, #130, .F. ) ;
#254 = EDGE_LOOP ( 'NONE', ( #342, #282, #310, #198 ) ) ;
#255 = DIRECTION ( 'NONE',  ( 1.000000000000000000, 0.000000000000000000, 0.000000000000000000 ) ) ;
#256 = EDGE_LOOP ( 'NONE', ( #166, #195, #144, #78 ) ) ;
#257 = CARTESIAN_POINT ( 'NONE',  ( 0.000000000000000000, 0.000000000000000000, 7.000000000000000000 ) ) ;
#258 = CIRCLE ( 'NONE', #365, 4.099999999999999645 ) ;
#259 = VERTEX_POINT ( 'NONE', #40 ) ;
#260 = DIRECTION ( 'NONE',  ( 1.000000000000000000, 0.000000000000000000, 0.000000000000000000 ) ) ;
#261 = ORIENTED_EDGE ( 'NONE', *, *, #188, .T. ) ;
#262 = VECTOR ( 'NONE', #172, 1000.000000000000000 ) ;
#263 = AXIS2_PLACEMENT_3D ( 'NONE', #189, #45, #138 ) ;
#264 = DIRECTION ( 'NONE',  ( 0.000000000000000000, 0.000000000000000000, -1.000000000000000000 ) ) ;
#265 = LINE ( 'NONE', #294, #262 ) ;
#266 = PLANE ( 'NONE',  #274 ) ;
#267 = DIRECTION ( 'NONE',  ( 1.000000000000000000, 0.000000000000000000, 0.000000000000000000 ) ) ;
#268 = ADVANCED_FACE ( 'NONE', ( #72 ), #164, .T. ) ;
#269 = PRODUCT_RELATED_PRODUCT_CATEGORY ( 'detail', '', ( #160 ) ) ;
#270 = VECTOR ( 'NONE', #152, 1000.000000000000000 ) ;
#271 = AXIS2_PLACEMENT_3D ( 'NONE', #361, #163, #255 ) ;
#272 = CALENDAR_DATE ( 2022, 10, 7 ) ;
#273 = CARTESIAN_POINT ( 'NONE',  ( 6.000000000000000888, 7.347880794884120722E-16, 82.00000000000000000 ) ) ;
#274 = AXIS2_PLACEMENT_3D ( 'NONE', #322, #129, #327 ) ;
#275 = CARTESIAN_POINT ( 'NONE',  ( 6.700000000000001066, 0.000000000000000000, 6.999999999999999112 ) ) ;
#276 = FACE_OUTER_BOUND ( 'NONE', #344, .T. ) ;
#277 = DIRECTION ( 'NONE',  ( -1.000000000000000000, 1.224646799147353454E-16, 0.000000000000000000 ) ) ;
#278 = CC_DESIGN_PERSON_AND_ORGANIZATION_ASSIGNMENT ( #209, #62, ( #323 ) ) ;
#279 = EDGE_CURVE ( 'NONE', #168, #157, #192, .T. ) ;
#280 = PERSON ( 'NEURÈENÝ', 'NEURÈENÝ', 'NEURÈENÝ', ('NEURÈENÝ'), ('NEURÈENÝ'), ('NEURÈENÝ') ) ;
#281 = CARTESIAN_POINT ( 'NONE',  ( 10.00000000000000000, 1.224646799147353256E-15, 7.000000000000000000 ) ) ;
#282 = ORIENTED_EDGE ( 'NONE', *, *, #104, .F. ) ;
#283 = LINE ( 'NONE', #226, #232 ) ;
#284 = ORIENTED_EDGE ( 'NONE', *, *, #68, .F. ) ;
#285 = CARTESIAN_POINT ( 'NONE',  ( -6.000000000000000888, 0.000000000000000000, 82.00000000000000000 ) ) ;
#286 = EDGE_CURVE ( 'NONE', #136, #371, #2, .T. ) ;
#287 = ORIENTED_EDGE ( 'NONE', *, *, #130, .T. ) ;
#288 = ORGANIZATION ( 'NEURÈENÝ', 'NEURÈENÝ', '' ) ;
#289 = APPLICATION_PROTOCOL_DEFINITION ( 'international standard', 'config_control_design', 1994, #315 ) ;
#290 = VERTEX_POINT ( 'NONE', #281 ) ;
#291 = DIRECTION ( 'NONE',  ( 1.000000000000000000, 0.000000000000000000, 0.000000000000000000 ) ) ;
#292 = ORIENTED_EDGE ( 'NONE', *, *, #376, .F. ) ;
#293 = DIRECTION ( 'NONE',  ( 1.000000000000000000, 0.000000000000000000, 0.000000000000000000 ) ) ;
#294 = CARTESIAN_POINT ( 'NONE',  ( -4.099999999999999645, 0.000000000000000000, 82.00000000000000000 ) ) ;
#295 = EDGE_CURVE ( 'NONE', #371, #173, #332, .T. ) ;
#296 = DIRECTION ( 'NONE',  ( 0.000000000000000000, 0.000000000000000000, 1.000000000000000000 ) ) ;
#297 =( NAMED_UNIT ( * ) SI_UNIT ( $, .STERADIAN. ) SOLID_ANGLE_UNIT ( ) );
#298 = CARTESIAN_POINT ( 'NONE',  ( 0.000000000000000000, 0.000000000000000000, 0.000000000000000000 ) ) ;
#299 = APPROVAL_STATUS ( 'not_yet_approved' ) ;
#300 = EDGE_CURVE ( 'NONE', #321, #168, #283, .T. ) ;
#301 = PERSON_AND_ORGANIZATION ( #280, #288 ) ;
#302 = DIRECTION ( 'NONE',  ( 1.000000000000000000, 0.000000000000000000, 0.000000000000000000 ) ) ;
#303 = DESIGN_CONTEXT ( 'detailed design', #315, 'design' ) ;
#304 = CARTESIAN_POINT ( 'NONE',  ( -4.099999999999999645, 0.000000000000000000, 82.00000000000000000 ) ) ;
#305 = DIRECTION ( 'NONE',  ( -0.000000000000000000, -0.000000000000000000, -1.000000000000000000 ) ) ;
#306 = CC_DESIGN_DATE_AND_TIME_ASSIGNMENT ( #19, #143, ( #220 ) ) ;
#307 = CARTESIAN_POINT ( 'NONE',  ( 6.000000000000000888, 7.347880794884120722E-16, 7.699999999999998401 ) ) ;
#308 = CARTESIAN_POINT ( 'NONE',  ( 4.099999999999999645, 5.021051876504147385E-16, 0.000000000000000000 ) ) ;
#309 = CARTESIAN_POINT ( 'NONE',  ( 0.000000000000000000, 0.000000000000000000, 82.00000000000000000 ) ) ;
#310 = ORIENTED_EDGE ( 'NONE', *, *, #300, .T. ) ;
#311 = LINE ( 'NONE', #106, #196 ) ;
#312 = ORIENTED_EDGE ( 'NONE', *, *, #295, .T. ) ;
#313 = EDGE_CURVE ( 'NONE', #340, #225, #343, .T. ) ;
#314 = DIRECTION ( 'NONE',  ( 1.000000000000000000, 0.000000000000000000, 0.000000000000000000 ) ) ;
#315 = APPLICATION_CONTEXT ( 'configuration controlled 3d designs of mechanical parts and assemblies' ) ;
#316 = ORIENTED_EDGE ( 'NONE', *, *, #70, .T. ) ;
#317 = CC_DESIGN_APPROVAL ( #124, ( #323 ) ) ;
#318 = ORIENTED_EDGE ( 'NONE', *, *, #60, .F. ) ;
#319 = ADVANCED_FACE ( 'NONE', ( #251 ), #185, .T. ) ;
#320 = PERSON_AND_ORGANIZATION ( #280, #288 ) ;
#321 = VERTEX_POINT ( 'NONE', #285 ) ;
#322 = CARTESIAN_POINT ( 'NONE',  ( 0.000000000000000000, 0.000000000000000000, 82.00000000000000000 ) ) ;
#323 = SECURITY_CLASSIFICATION ( '', '', #1 ) ;
#324 = DIRECTION ( 'NONE',  ( 1.000000000000000000, 0.000000000000000000, 0.000000000000000000 ) ) ;
#325 = FACE_BOUND ( 'NONE', #111, .T. ) ;
#326 = PERSON_AND_ORGANIZATION ( #280, #288 ) ;
#327 = DIRECTION ( 'NONE',  ( 1.000000000000000000, 0.000000000000000000, -0.000000000000000000 ) ) ;
#328 = ORIENTED_EDGE ( 'NONE', *, *, #155, .F. ) ;
#329 = EDGE_CURVE ( 'NONE', #290, #225, #11, .T. ) ;
#330 = CARTESIAN_POINT ( 'NONE',  ( 6.700000000000001066, 0.000000000000000000, 7.699999999999998401 ) ) ;
#331 = EDGE_CURVE ( 'NONE', #168, #201, #107, .T. ) ;
#332 = LINE ( 'NONE', #10, #250 ) ;
#333 = CARTESIAN_POINT ( 'NONE',  ( 0.000000000000000000, 0.000000000000000000, 7.699999999999998401 ) ) ;
#334 = DIRECTION ( 'NONE',  ( 1.224646799147353207E-16, 1.000000000000000000, -0.000000000000000000 ) ) ;
#335 = ORIENTED_EDGE ( 'NONE', *, *, #60, .T. ) ;
#336 = DIRECTION ( 'NONE',  ( 0.000000000000000000, 0.000000000000000000, 1.000000000000000000 ) ) ;
#337 = ADVANCED_FACE ( 'NONE', ( #364 ), #100, .F. ) ;
#338 = VERTEX_POINT ( 'NONE', #221 ) ;
#339 = APPROVAL_DATE_TIME ( #381, #52 ) ;
#340 = VERTEX_POINT ( 'NONE', #197 ) ;
#341 = APPROVAL_ROLE ( '' ) ;
#342 = ORIENTED_EDGE ( 'NONE', *, *, #70, .F. ) ;
#343 = CIRCLE ( 'NONE', #200, 10.00000000000000000 ) ;
#344 = EDGE_LOOP ( 'NONE', ( #12, #312, #51, #292 ) ) ;
#345 = FACE_BOUND ( 'NONE', #145, .T. ) ;
#346 = CYLINDRICAL_SURFACE ( 'NONE', #181, 4.099999999999999645 ) ;
#347 = PERSON_AND_ORGANIZATION ( #280, #288 ) ;
#348 = DIRECTION ( 'NONE',  ( 1.000000000000000000, 0.000000000000000000, -0.000000000000000000 ) ) ;
#349 = EDGE_CURVE ( 'NONE', #15, #157, #5, .T. ) ;
#350 =( GEOMETRIC_REPRESENTATION_CONTEXT ( 3 ) GLOBAL_UNCERTAINTY_ASSIGNED_CONTEXT ( ( #33 ) ) GLOBAL_UNIT_ASSIGNED_CONTEXT ( ( #49, #375, #297 ) ) REPRESENTATION_CONTEXT ( 'NONE', 'WORKASPACE' ) );
#351 = APPROVAL_DATE_TIME ( #31, #180 ) ;
#352 = EDGE_CURVE ( 'NONE', #290, #22, #36, .T. ) ;
#353 = AXIS2_PLACEMENT_3D ( 'NONE', #161, #305, #132 ) ;
#354 = ORIENTED_EDGE ( 'NONE', *, *, #349, .T. ) ;
#355 = AXIS2_PLACEMENT_3D ( 'NONE', #55, #183, #119 ) ;
#356 = APPROVAL_DATE_TIME ( #88, #124 ) ;
#357 = FACE_OUTER_BOUND ( 'NONE', #83, .T. ) ;
#358 = ADVANCED_FACE ( 'NONE', ( #345, #234 ), #54, .T. ) ;
#359 = DIRECTION ( 'NONE',  ( 1.000000000000000000, 0.000000000000000000, 0.000000000000000000 ) ) ;
#360 = CC_DESIGN_PERSON_AND_ORGANIZATION_ASSIGNMENT ( #320, #76, ( #220 ) ) ;
#361 = CARTESIAN_POINT ( 'NONE',  ( 0.000000000000000000, 0.000000000000000000, 7.000000000000000000 ) ) ;
#362 = ADVANCED_BREP_SHAPE_REPRESENTATION ( 'a1c8', ( #44, #369 ), #350 ) ;
#363 = DIRECTION ( 'NONE',  ( -0.000000000000000000, -0.000000000000000000, -1.000000000000000000 ) ) ;
#364 = FACE_OUTER_BOUND ( 'NONE', #228, .T. ) ;
#365 = AXIS2_PLACEMENT_3D ( 'NONE', #298, #121, #238 ) ;
#366 = ORIENTED_EDGE ( 'NONE', *, *, #162, .F. ) ;
#367 = DIRECTION ( 'NONE',  ( 1.000000000000000000, 0.000000000000000000, 0.000000000000000000 ) ) ;
#368 = ORIENTED_EDGE ( 'NONE', *, *, #39, .F. ) ;
#369 = AXIS2_PLACEMENT_3D ( 'NONE', #176, #149, #260 ) ;
#370 = FACE_OUTER_BOUND ( 'NONE', #254, .T. ) ;
#371 = VERTEX_POINT ( 'NONE', #21 ) ;
#372 = APPROVAL_ROLE ( '' ) ;
#373 = EDGE_LOOP ( 'NONE', ( #108, #17, #131, #170 ) ) ;
#374 = ORIENTED_EDGE ( 'NONE', *, *, #97, .F. ) ;
#375 =( NAMED_UNIT ( * ) PLANE_ANGLE_UNIT ( ) SI_UNIT ( $, .RADIAN. ) );
#376 = EDGE_CURVE ( 'NONE', #136, #259, #265, .T. ) ;
#377 = AXIS2_PLACEMENT_3D ( 'NONE', #35, #378, #293 ) ;
#378 = DIRECTION ( 'NONE',  ( -0.000000000000000000, -0.000000000000000000, -1.000000000000000000 ) ) ;
#379 = APPLICATION_PROTOCOL_DEFINITION ( 'international standard', 'config_control_design', 1994, #84 ) ;
#380 = DIRECTION ( 'NONE',  ( -0.000000000000000000, -0.000000000000000000, -1.000000000000000000 ) ) ;
#381 = DATE_AND_TIME ( #202, #87 ) ;
ENDSEC;
END-ISO-10303-21;
