ISO-10303-21;
HEADER;
FILE_DESCRIPTION (( 'STEP AP203' ),
    '1' );
FILE_NAME ('e389.STEP',
    '2022-07-10T09:03:20',
    ( '' ),
    ( '' ),
    'SwSTEP 2.0',
    'SolidWorks 2019',
    '' );
FILE_SCHEMA (( 'CONFIG_CONTROL_DESIGN' ));
ENDSEC;

DATA;
#1 = CARTESIAN_POINT ( 'NONE',  ( 0.000000000000000000, 0.000000000000000000, 7.000000000000000000 ) ) ;
#2 = APPROVAL_PERSON_ORGANIZATION ( #44, #66, #253 ) ;
#3 = DIRECTION ( 'NONE',  ( 1.224646799147353207E-16, 1.000000000000000000, -0.000000000000000000 ) ) ;
#4 = CARTESIAN_POINT ( 'NONE',  ( -10.00000000000000000, 0.000000000000000000, 7.000000000000000000 ) ) ;
#5 = EDGE_CURVE ( 'NONE', #112, #363, #207, .T. ) ;
#6 = DIRECTION ( 'NONE',  ( -0.000000000000000000, -0.000000000000000000, -1.000000000000000000 ) ) ;
#7 = CC_DESIGN_PERSON_AND_ORGANIZATION_ASSIGNMENT ( #229, #79, ( #56 ) ) ;
#8 = DIRECTION ( 'NONE',  ( 1.000000000000000000, 0.000000000000000000, -0.000000000000000000 ) ) ;
#9 = DIRECTION ( 'NONE',  ( -0.000000000000000000, -0.000000000000000000, -1.000000000000000000 ) ) ;
#10 = CARTESIAN_POINT ( 'NONE',  ( 6.000000000000000888, 7.347880794884120722E-16, 7.700000000000012612 ) ) ;
#11 = DIRECTION ( 'NONE',  ( -0.000000000000000000, -0.000000000000000000, -1.000000000000000000 ) ) ;
#12 = AXIS2_PLACEMENT_3D ( 'NONE', #164, #100, #342 ) ;
#13 = CALENDAR_DATE ( 2022, 10, 7 ) ;
#14 = EDGE_CURVE ( 'NONE', #287, #347, #260, .T. ) ;
#15 = DIRECTION ( 'NONE',  ( 1.000000000000000000, 0.000000000000000000, 0.000000000000000000 ) ) ;
#16 = PERSON_AND_ORGANIZATION ( #147, #195 ) ;
#17 = ORIENTED_EDGE ( 'NONE', *, *, #350, .T. ) ;
#18 = COORDINATED_UNIVERSAL_TIME_OFFSET ( 1, 0, .AHEAD. ) ;
#19 = EDGE_LOOP ( 'NONE', ( #115, #204 ) ) ;
#20 = AXIS2_PLACEMENT_3D ( 'NONE', #45, #283, #227 ) ;
#21 = SHAPE_DEFINITION_REPRESENTATION ( #32, #174 ) ;
#22 = CC_DESIGN_APPROVAL ( #66, ( #230 ) ) ;
#23 = ORIENTED_EDGE ( 'NONE', *, *, #145, .F. ) ;
#24 = EDGE_CURVE ( 'NONE', #351, #261, #94, .T. ) ;
#25 = UNCERTAINTY_MEASURE_WITH_UNIT (LENGTH_MEASURE( 1.000000000000000082E-05 ), #277, 'distance_accuracy_value', 'NONE');
#26 = ORIENTED_EDGE ( 'NONE', *, *, #24, .F. ) ;
#27 = EDGE_LOOP ( 'NONE', ( #80, #83, #374, #23 ) ) ;
#28 = ADVANCED_FACE ( 'NONE', ( #185 ), #149, .T. ) ;
#29 = AXIS2_PLACEMENT_3D ( 'NONE', #190, #6, #276 ) ;
#30 = ORIENTED_EDGE ( 'NONE', *, *, #339, .T. ) ;
#31 = CARTESIAN_POINT ( 'NONE',  ( -4.000000000000000000, 0.000000000000000000, 257.0000000000000000 ) ) ;
#32 = PRODUCT_DEFINITION_SHAPE ( 'NONE', 'NONE',  #56 ) ;
#33 = CARTESIAN_POINT ( 'NONE',  ( 0.000000000000000000, 0.000000000000000000, 0.000000000000000000 ) ) ;
#34 = TOROIDAL_SURFACE ( 'NONE', #175, 6.700000000000001066, 0.6999999999999999556 ) ;
#35 = DIRECTION ( 'NONE',  ( 0.000000000000000000, 0.000000000000000000, 1.000000000000000000 ) ) ;
#36 = EDGE_CURVE ( 'NONE', #359, #265, #315, .T. ) ;
#37 = CARTESIAN_POINT ( 'NONE',  ( 10.00000000000000000, 1.224646799147353256E-15, 0.000000000000000000 ) ) ;
#38 = CARTESIAN_POINT ( 'NONE',  ( 0.000000000000000000, 0.000000000000000000, 7.000000000000000000 ) ) ;
#39 = APPLICATION_PROTOCOL_DEFINITION ( 'international standard', 'config_control_design', 1994, #263 ) ;
#40 = LOCAL_TIME ( 11, 3, 20.00000000000000000, #334 ) ;
#41 = EDGE_CURVE ( 'NONE', #267, #351, #254, .T. ) ;
#42 = DIRECTION ( 'NONE',  ( 1.000000000000000000, 0.000000000000000000, -0.000000000000000000 ) ) ;
#43 = AXIS2_PLACEMENT_3D ( 'NONE', #305, #252, #134 ) ;
#44 = PERSON_AND_ORGANIZATION ( #147, #195 ) ;
#45 = CARTESIAN_POINT ( 'NONE',  ( 0.000000000000000000, 0.000000000000000000, 7.700000000000012612 ) ) ;
#46 = CALENDAR_DATE ( 2022, 10, 7 ) ;
#47 = LINE ( 'NONE', #103, #90 ) ;
#48 = PERSON_AND_ORGANIZATION ( #147, #195 ) ;
#49 = CARTESIAN_POINT ( 'NONE',  ( -6.000000000000000888, 0.000000000000000000, 257.0000000000000000 ) ) ;
#50 = ADVANCED_FACE ( 'NONE', ( #125 ), #239, .T. ) ;
#51 = ORIENTED_EDGE ( 'NONE', *, *, #99, .T. ) ;
#52 = EDGE_CURVE ( 'NONE', #265, #178, #212, .T. ) ;
#53 = ORIENTED_EDGE ( 'NONE', *, *, #99, .F. ) ;
#54 = ORIENTED_EDGE ( 'NONE', *, *, #274, .F. ) ;
#55 = EDGE_LOOP ( 'NONE', ( #26, #317, #210, #30 ) ) ;
#56 = PRODUCT_DEFINITION ( 'NEZNÁMÝ', '', #230, #86 ) ;
#57 = ORIENTED_EDGE ( 'NONE', *, *, #205, .F. ) ;
#58 = AXIS2_PLACEMENT_3D ( 'NONE', #93, #189, #360 ) ;
#59 = APPROVAL ( #311, 'NEURÈENÝ' ) ;
#60 = CIRCLE ( 'NONE', #20, 6.000000000000000888 ) ;
#61 = DIRECTION ( 'NONE',  ( -1.000000000000000000, 0.000000000000000000, 0.000000000000000000 ) ) ;
#62 = PLANE ( 'NONE',  #58 ) ;
#63 = PLANE ( 'NONE',  #248 ) ;
#64 = CARTESIAN_POINT ( 'NONE',  ( 0.000000000000000000, 0.000000000000000000, 257.0000000000000000 ) ) ;
#65 = FACE_OUTER_BOUND ( 'NONE', #288, .T. ) ;
#66 = APPROVAL ( #251, 'NEURÈENÝ' ) ;
#67 = DIRECTION ( 'NONE',  ( 0.000000000000000000, 0.000000000000000000, 1.000000000000000000 ) ) ;
#68 = ADVANCED_FACE ( 'NONE', ( #325 ), #87, .F. ) ;
#69 = DIRECTION ( 'NONE',  ( 0.000000000000000000, 0.000000000000000000, 1.000000000000000000 ) ) ;
#70 = MANIFOLD_SOLID_BREP ( 'Odebrat vysunutím3', #290 ) ;
#71 = PERSON_AND_ORGANIZATION_ROLE ( 'design_owner' ) ;
#72 = LOCAL_TIME ( 11, 3, 20.00000000000000000, #18 ) ;
#73 = CARTESIAN_POINT ( 'NONE',  ( -4.000000000000000000, 0.000000000000000000, 0.000000000000000000 ) ) ;
#74 = DATE_TIME_ROLE ( 'classification_date' ) ;
#75 = DIRECTION ( 'NONE',  ( 0.000000000000000000, 0.000000000000000000, 1.000000000000000000 ) ) ;
#76 = DATE_AND_TIME ( #46, #40 ) ;
#77 = CARTESIAN_POINT ( 'NONE',  ( 6.700000000000001066, 0.000000000000000000, 7.000000000000006217 ) ) ;
#78 = PERSON_AND_ORGANIZATION ( #147, #195 ) ;
#79 = PERSON_AND_ORGANIZATION_ROLE ( 'creator' ) ;
#80 = ORIENTED_EDGE ( 'NONE', *, *, #36, .T. ) ;
#81 = ORIENTED_EDGE ( 'NONE', *, *, #5, .T. ) ;
#82 = CC_DESIGN_PERSON_AND_ORGANIZATION_ASSIGNMENT ( #78, #259, ( #230 ) ) ;
#83 = ORIENTED_EDGE ( 'NONE', *, *, #52, .T. ) ;
#84 = EDGE_CURVE ( 'NONE', #363, #112, #364, .T. ) ;
#85 = ORIENTED_EDGE ( 'NONE', *, *, #262, .F. ) ;
#86 = DESIGN_CONTEXT ( 'detailed design', #153, 'design' ) ;
#87 = CYLINDRICAL_SURFACE ( 'NONE', #310, 4.000000000000000000 ) ;
#88 = VECTOR ( 'NONE', #187, 1000.000000000000000 ) ;
#89 = DIRECTION ( 'NONE',  ( 0.000000000000000000, 0.000000000000000000, 1.000000000000000000 ) ) ;
#90 = VECTOR ( 'NONE', #307, 1000.000000000000000 ) ;
#91 = DIRECTION ( 'NONE',  ( 0.000000000000000000, 0.000000000000000000, 1.000000000000000000 ) ) ;
#92 = EDGE_CURVE ( 'NONE', #292, #178, #97, .T. ) ;
#93 = CARTESIAN_POINT ( 'NONE',  ( 0.000000000000000000, 0.000000000000000000, 0.000000000000000000 ) ) ;
#94 = LINE ( 'NONE', #215, #88 ) ;
#95 = CARTESIAN_POINT ( 'NONE',  ( -6.700000000000001066, 8.205133554287267548E-16, 7.000000000000006217 ) ) ;
#96 = DIRECTION ( 'NONE',  ( 0.000000000000000000, 0.000000000000000000, 1.000000000000000000 ) ) ;
#97 = CIRCLE ( 'NONE', #142, 4.000000000000000000 ) ;
#98 = CARTESIAN_POINT ( 'NONE',  ( 0.000000000000000000, 0.000000000000000000, 7.000000000000000000 ) ) ;
#99 = EDGE_CURVE ( 'NONE', #264, #379, #201, .T. ) ;
#100 = DIRECTION ( 'NONE',  ( 0.000000000000000000, 0.000000000000000000, 1.000000000000000000 ) ) ;
#101 = DIRECTION ( 'NONE',  ( 0.000000000000000000, 0.000000000000000000, 1.000000000000000000 ) ) ;
#102 = MECHANICAL_CONTEXT ( 'NONE', #263, 'mechanical' ) ;
#103 = CARTESIAN_POINT ( 'NONE',  ( -6.000000000000000888, 0.000000000000000000, 257.0000000000000000 ) ) ;
#104 = AXIS2_PLACEMENT_3D ( 'NONE', #98, #123, #298 ) ;
#105 = CALENDAR_DATE ( 2022, 10, 7 ) ;
#106 = CARTESIAN_POINT ( 'NONE',  ( 10.00000000000000000, 1.224646799147353256E-15, 7.000000000000000000 ) ) ;
#107 = PERSON_AND_ORGANIZATION_ROLE ( 'creator' ) ;
#108 = SECURITY_CLASSIFICATION_LEVEL ( 'unclassified' ) ;
#109 = AXIS2_PLACEMENT_3D ( 'NONE', #367, #101, #42 ) ;
#110 = AXIS2_PLACEMENT_3D ( 'NONE', #216, #91, #156 ) ;
#111 = CIRCLE ( 'NONE', #162, 6.700000000000001066 ) ;
#112 = VERTEX_POINT ( 'NONE', #4 ) ;
#113 = EDGE_LOOP ( 'NONE', ( #81, #352 ) ) ;
#114 = ORIENTED_EDGE ( 'NONE', *, *, #14, .T. ) ;
#115 = ORIENTED_EDGE ( 'NONE', *, *, #41, .T. ) ;
#116 = ORIENTED_EDGE ( 'NONE', *, *, #24, .T. ) ;
#117 = DIRECTION ( 'NONE',  ( 1.000000000000000000, 0.000000000000000000, 0.000000000000000000 ) ) ;
#118 = AXIS2_PLACEMENT_3D ( 'NONE', #365, #89, #120 ) ;
#119 = ADVANCED_FACE ( 'NONE', ( #300, #356 ), #63, .T. ) ;
#120 = DIRECTION ( 'NONE',  ( 1.000000000000000000, 0.000000000000000000, 0.000000000000000000 ) ) ;
#121 = DIRECTION ( 'NONE',  ( -1.000000000000000000, 1.224646799147353454E-16, 0.000000000000000000 ) ) ;
#122 = DIRECTION ( 'NONE',  ( 0.000000000000000000, -1.000000000000000000, 0.000000000000000000 ) ) ;
#123 = DIRECTION ( 'NONE',  ( -0.000000000000000000, -0.000000000000000000, -1.000000000000000000 ) ) ;
#124 = CC_DESIGN_PERSON_AND_ORGANIZATION_ASSIGNMENT ( #256, #71, ( #303 ) ) ;
#125 = FACE_OUTER_BOUND ( 'NONE', #203, .T. ) ;
#126 = VECTOR ( 'NONE', #183, 1000.000000000000000 ) ;
#127 = LINE ( 'NONE', #106, #232 ) ;
#128 = CARTESIAN_POINT ( 'NONE',  ( -10.00000000000000000, 0.000000000000000000, 7.000000000000000000 ) ) ;
#129 = DATE_AND_TIME ( #13, #336 ) ;
#130 = AXIS2_PLACEMENT_3D ( 'NONE', #340, #75, #15 ) ;
#131 = DIRECTION ( 'NONE',  ( 1.000000000000000000, 0.000000000000000000, 0.000000000000000000 ) ) ;
#132 = AXIS2_PLACEMENT_3D ( 'NONE', #1, #67, #247 ) ;
#133 = DATE_AND_TIME ( #223, #291 ) ;
#134 = DIRECTION ( 'NONE',  ( -1.000000000000000000, 0.000000000000000000, 0.000000000000000000 ) ) ;
#135 = ORIENTED_EDGE ( 'NONE', *, *, #145, .T. ) ;
#136 = COORDINATED_UNIVERSAL_TIME_OFFSET ( 1, 0, .AHEAD. ) ;
#137 = ADVANCED_FACE ( 'NONE', ( #353 ), #244, .T. ) ;
#138 = EDGE_LOOP ( 'NONE', ( #148, #209, #135, #381 ) ) ;
#139 = PERSON_AND_ORGANIZATION ( #147, #195 ) ;
#140 = APPROVAL ( #202, 'NEURÈENÝ' ) ;
#141 = ORIENTED_EDGE ( 'NONE', *, *, #266, .F. ) ;
#142 = AXIS2_PLACEMENT_3D ( 'NONE', #33, #157, #278 ) ;
#143 = ORIENTED_EDGE ( 'NONE', *, *, #339, .F. ) ;
#144 = ORIENTED_EDGE ( 'NONE', *, *, #194, .F. ) ;
#145 = EDGE_CURVE ( 'NONE', #359, #292, #295, .T. ) ;
#146 = ORIENTED_EDGE ( 'NONE', *, *, #36, .F. ) ;
#147 = PERSON ( 'NEURÈENÝ', 'NEURÈENÝ', 'NEURÈENÝ', ('NEURÈENÝ'), ('NEURÈENÝ'), ('NEURÈENÝ') ) ;
#148 = ORIENTED_EDGE ( 'NONE', *, *, #52, .F. ) ;
#149 = CYLINDRICAL_SURFACE ( 'NONE', #104, 10.00000000000000000 ) ;
#150 = DIRECTION ( 'NONE',  ( 0.000000000000000000, 0.000000000000000000, 1.000000000000000000 ) ) ;
#151 = CARTESIAN_POINT ( 'NONE',  ( 0.000000000000000000, 0.000000000000000000, 7.000000000000000000 ) ) ;
#152 =( GEOMETRIC_REPRESENTATION_CONTEXT ( 3 ) GLOBAL_UNCERTAINTY_ASSIGNED_CONTEXT ( ( #25 ) ) GLOBAL_UNIT_ASSIGNED_CONTEXT ( ( #277, #362, #330 ) ) REPRESENTATION_CONTEXT ( 'NONE', 'WORKASPACE' ) );
#153 = APPLICATION_CONTEXT ( 'configuration controlled 3d designs of mechanical parts and assemblies' ) ;
#154 = AXIS2_PLACEMENT_3D ( 'NONE', #246, #96, #297 ) ;
#155 = FACE_OUTER_BOUND ( 'NONE', #233, .T. ) ;
#156 = DIRECTION ( 'NONE',  ( 1.000000000000000000, 0.000000000000000000, 0.000000000000000000 ) ) ;
#157 = DIRECTION ( 'NONE',  ( -0.000000000000000000, -0.000000000000000000, -1.000000000000000000 ) ) ;
#158 = CARTESIAN_POINT ( 'NONE',  ( 6.700000000000001066, 0.000000000000000000, 7.700000000000012612 ) ) ;
#159 = CARTESIAN_POINT ( 'NONE',  ( 4.000000000000000000, 4.898587196589412829E-16, 257.0000000000000000 ) ) ;
#160 = CC_DESIGN_APPROVAL ( #140, ( #56 ) ) ;
#161 = AXIS2_PLACEMENT_3D ( 'NONE', #198, #249, #196 ) ;
#162 = AXIS2_PLACEMENT_3D ( 'NONE', #168, #11, #226 ) ;
#163 = CYLINDRICAL_SURFACE ( 'NONE', #43, 6.000000000000000888 ) ;
#164 = CARTESIAN_POINT ( 'NONE',  ( 0.000000000000000000, 0.000000000000000000, 0.000000000000000000 ) ) ;
#165 = APPROVAL_ROLE ( '' ) ;
#166 = DIRECTION ( 'NONE',  ( 1.000000000000000000, 0.000000000000000000, 0.000000000000000000 ) ) ;
#167 = DATE_AND_TIME ( #225, #72 ) ;
#168 = CARTESIAN_POINT ( 'NONE',  ( 0.000000000000000000, 0.000000000000000000, 7.000000000000000000 ) ) ;
#169 = AXIS2_PLACEMENT_3D ( 'NONE', #361, #327, #241 ) ;
#170 = EDGE_CURVE ( 'NONE', #177, #379, #355, .T. ) ;
#171 = PERSON_AND_ORGANIZATION_ROLE ( 'classification_officer' ) ;
#172 = CC_DESIGN_DATE_AND_TIME_ASSIGNMENT ( #167, #304, ( #56 ) ) ;
#173 = ORIENTED_EDGE ( 'NONE', *, *, #5, .F. ) ;
#174 = ADVANCED_BREP_SHAPE_REPRESENTATION ( 'e389', ( #70, #12 ), #152 ) ;
#175 = AXIS2_PLACEMENT_3D ( 'NONE', #366, #69, #131 ) ;
#176 = EDGE_LOOP ( 'NONE', ( #312, #116, #316, #54 ) ) ;
#177 = VERTEX_POINT ( 'NONE', #282 ) ;
#178 = VERTEX_POINT ( 'NONE', #255 ) ;
#179 = ORIENTED_EDGE ( 'NONE', *, *, #205, .T. ) ;
#180 = CIRCLE ( 'NONE', #231, 4.000000000000000000 ) ;
#181 = DIRECTION ( 'NONE',  ( -0.000000000000000000, -0.000000000000000000, -1.000000000000000000 ) ) ;
#182 = DIRECTION ( 'NONE',  ( -1.000000000000000000, 0.000000000000000000, 0.000000000000000000 ) ) ;
#183 = DIRECTION ( 'NONE',  ( 0.000000000000000000, 0.000000000000000000, -1.000000000000000000 ) ) ;
#184 = CARTESIAN_POINT ( 'NONE',  ( 6.000000000000000888, 7.347880794884120722E-16, 257.0000000000000000 ) ) ;
#185 = FACE_OUTER_BOUND ( 'NONE', #228, .T. ) ;
#186 = TOROIDAL_SURFACE ( 'NONE', #240, 6.700000000000001066, 0.6999999999999999556 ) ;
#187 = DIRECTION ( 'NONE',  ( -0.000000000000000000, -0.000000000000000000, -1.000000000000000000 ) ) ;
#188 = EDGE_CURVE ( 'NONE', #265, #359, #180, .T. ) ;
#189 = DIRECTION ( 'NONE',  ( 0.000000000000000000, 0.000000000000000000, 1.000000000000000000 ) ) ;
#190 = CARTESIAN_POINT ( 'NONE',  ( 0.000000000000000000, 0.000000000000000000, 7.000000000000000000 ) ) ;
#191 = FACE_OUTER_BOUND ( 'NONE', #380, .T. ) ;
#192 = CIRCLE ( 'NONE', #130, 6.000000000000000888 ) ;
#193 = AXIS2_PLACEMENT_3D ( 'NONE', #272, #3, #121 ) ;
#194 = EDGE_CURVE ( 'NONE', #261, #177, #60, .T. ) ;
#195 = ORGANIZATION ( 'NEURÈENÝ', 'NEURÈENÝ', '' ) ;
#196 = DIRECTION ( 'NONE',  ( 1.000000000000000000, 0.000000000000000000, 0.000000000000000000 ) ) ;
#197 = PERSON_AND_ORGANIZATION ( #147, #195 ) ;
#198 = CARTESIAN_POINT ( 'NONE',  ( 0.000000000000000000, 0.000000000000000000, 0.000000000000000000 ) ) ;
#199 = DIRECTION ( 'NONE',  ( 0.000000000000000000, 0.000000000000000000, 1.000000000000000000 ) ) ;
#200 = EDGE_CURVE ( 'NONE', #178, #292, #321, .T. ) ;
#201 = CIRCLE ( 'NONE', #29, 6.700000000000001066 ) ;
#202 = APPROVAL_STATUS ( 'not_yet_approved' ) ;
#203 = EDGE_LOOP ( 'NONE', ( #319, #378, #258, #57 ) ) ;
#204 = ORIENTED_EDGE ( 'NONE', *, *, #296, .T. ) ;
#205 = EDGE_CURVE ( 'NONE', #112, #287, #372, .T. ) ;
#206 = ORIENTED_EDGE ( 'NONE', *, *, #279, .T. ) ;
#207 = CIRCLE ( 'NONE', #273, 10.00000000000000000 ) ;
#208 = APPROVAL_DATE_TIME ( #76, #59 ) ;
#209 = ORIENTED_EDGE ( 'NONE', *, *, #188, .T. ) ;
#210 = ORIENTED_EDGE ( 'NONE', *, *, #274, .T. ) ;
#211 = LOCAL_TIME ( 11, 3, 20.00000000000000000, #373 ) ;
#212 = LINE ( 'NONE', #159, #268 ) ;
#213 = CIRCLE ( 'NONE', #289, 10.00000000000000000 ) ;
#214 = DIRECTION ( 'NONE',  ( 0.000000000000000000, 0.000000000000000000, -1.000000000000000000 ) ) ;
#215 = CARTESIAN_POINT ( 'NONE',  ( 6.000000000000000888, 7.347880794884120722E-16, 257.0000000000000000 ) ) ;
#216 = CARTESIAN_POINT ( 'NONE',  ( 0.000000000000000000, 0.000000000000000000, 0.000000000000000000 ) ) ;
#217 = ADVANCED_FACE ( 'NONE', ( #341 ), #163, .T. ) ;
#218 = DIRECTION ( 'NONE',  ( -0.000000000000000000, -0.000000000000000000, -1.000000000000000000 ) ) ;
#219 = AXIS2_PLACEMENT_3D ( 'NONE', #299, #218, #329 ) ;
#220 = DIRECTION ( 'NONE',  ( -1.000000000000000000, 0.000000000000000000, 0.000000000000000000 ) ) ;
#221 = CYLINDRICAL_SURFACE ( 'NONE', #314, 4.000000000000000000 ) ;
#222 = CARTESIAN_POINT ( 'NONE',  ( 0.000000000000000000, 0.000000000000000000, 0.000000000000000000 ) ) ;
#223 = CALENDAR_DATE ( 2022, 10, 7 ) ;
#224 = CARTESIAN_POINT ( 'NONE',  ( 0.000000000000000000, 0.000000000000000000, 257.0000000000000000 ) ) ;
#225 = CALENDAR_DATE ( 2022, 10, 7 ) ;
#226 = DIRECTION ( 'NONE',  ( 1.000000000000000000, 0.000000000000000000, 0.000000000000000000 ) ) ;
#227 = DIRECTION ( 'NONE',  ( 1.000000000000000000, 0.000000000000000000, 0.000000000000000000 ) ) ;
#228 = EDGE_LOOP ( 'NONE', ( #141, #173, #179, #114 ) ) ;
#229 = PERSON_AND_ORGANIZATION ( #147, #195 ) ;
#230 = PRODUCT_DEFINITION_FORMATION_WITH_SPECIFIED_SOURCE ( 'LIBOVOLNÝ', '', #303, .NOT_KNOWN. ) ;
#231 = AXIS2_PLACEMENT_3D ( 'NONE', #224, #199, #166 ) ;
#232 = VECTOR ( 'NONE', #257, 1000.000000000000000 ) ;
#233 = EDGE_LOOP ( 'NONE', ( #237, #144, #17, #234 ) ) ;
#234 = ORIENTED_EDGE ( 'NONE', *, *, #279, .F. ) ;
#235 = ORIENTED_EDGE ( 'NONE', *, *, #92, .F. ) ;
#236 = SECURITY_CLASSIFICATION ( '', '', #108 ) ;
#237 = ORIENTED_EDGE ( 'NONE', *, *, #170, .F. ) ;
#238 = ORIENTED_EDGE ( 'NONE', *, *, #200, .F. ) ;
#239 = CYLINDRICAL_SURFACE ( 'NONE', #219, 10.00000000000000000 ) ;
#240 = AXIS2_PLACEMENT_3D ( 'NONE', #326, #150, #328 ) ;
#241 = DIRECTION ( 'NONE',  ( 1.000000000000000000, 0.000000000000000000, 0.000000000000000000 ) ) ;
#242 = CC_DESIGN_APPROVAL ( #59, ( #236 ) ) ;
#243 = FACE_BOUND ( 'NONE', #294, .T. ) ;
#244 = CYLINDRICAL_SURFACE ( 'NONE', #344, 6.000000000000000888 ) ;
#245 = CARTESIAN_POINT ( 'NONE',  ( -4.000000000000000000, 0.000000000000000000, 257.0000000000000000 ) ) ;
#246 = CARTESIAN_POINT ( 'NONE',  ( 0.000000000000000000, 0.000000000000000000, 257.0000000000000000 ) ) ;
#247 = DIRECTION ( 'NONE',  ( 1.000000000000000000, 0.000000000000000000, 0.000000000000000000 ) ) ;
#248 = AXIS2_PLACEMENT_3D ( 'NONE', #38, #280, #8 ) ;
#249 = DIRECTION ( 'NONE',  ( -0.000000000000000000, -0.000000000000000000, -1.000000000000000000 ) ) ;
#250 = FACE_OUTER_BOUND ( 'NONE', #19, .T. ) ;
#251 = APPROVAL_STATUS ( 'not_yet_approved' ) ;
#252 = DIRECTION ( 'NONE',  ( -0.000000000000000000, -0.000000000000000000, -1.000000000000000000 ) ) ;
#253 = APPROVAL_ROLE ( '' ) ;
#254 = CIRCLE ( 'NONE', #169, 6.000000000000000888 ) ;
#255 = CARTESIAN_POINT ( 'NONE',  ( 4.000000000000000000, 4.898587196589412829E-16, 0.000000000000000000 ) ) ;
#256 = PERSON_AND_ORGANIZATION ( #147, #195 ) ;
#257 = DIRECTION ( 'NONE',  ( -0.000000000000000000, -0.000000000000000000, -1.000000000000000000 ) ) ;
#258 = ORIENTED_EDGE ( 'NONE', *, *, #262, .T. ) ;
#259 = PERSON_AND_ORGANIZATION_ROLE ( 'design_supplier' ) ;
#260 = CIRCLE ( 'NONE', #110, 10.00000000000000000 ) ;
#261 = VERTEX_POINT ( 'NONE', #10 ) ;
#262 = EDGE_CURVE ( 'NONE', #347, #287, #213, .T. ) ;
#263 = APPLICATION_CONTEXT ( 'configuration controlled 3d designs of mechanical parts and assemblies' ) ;
#264 = VERTEX_POINT ( 'NONE', #77 ) ;
#265 = VERTEX_POINT ( 'NONE', #369 ) ;
#266 = EDGE_CURVE ( 'NONE', #363, #347, #127, .T. ) ;
#267 = VERTEX_POINT ( 'NONE', #49 ) ;
#268 = VECTOR ( 'NONE', #331, 1000.000000000000000 ) ;
#269 = ORIENTED_EDGE ( 'NONE', *, *, #170, .T. ) ;
#270 = DIRECTION ( 'NONE',  ( 0.000000000000000000, 0.000000000000000000, -1.000000000000000000 ) ) ;
#271 = CARTESIAN_POINT ( 'NONE',  ( 10.00000000000000000, 1.224646799147353256E-15, 7.000000000000000000 ) ) ;
#272 = CARTESIAN_POINT ( 'NONE',  ( -6.700000000000001066, 8.205133554287267548E-16, 7.700000000000012612 ) ) ;
#273 = AXIS2_PLACEMENT_3D ( 'NONE', #151, #35, #117 ) ;
#274 = EDGE_CURVE ( 'NONE', #267, #177, #47, .T. ) ;
#275 = CARTESIAN_POINT ( 'NONE',  ( 0.000000000000000000, 0.000000000000000000, 257.0000000000000000 ) ) ;
#276 = DIRECTION ( 'NONE',  ( 1.000000000000000000, 0.000000000000000000, 0.000000000000000000 ) ) ;
#277 =( LENGTH_UNIT ( ) NAMED_UNIT ( * ) SI_UNIT ( .MILLI., .METRE. ) );
#278 = DIRECTION ( 'NONE',  ( 1.000000000000000000, 0.000000000000000000, 0.000000000000000000 ) ) ;
#279 = EDGE_CURVE ( 'NONE', #379, #264, #111, .T. ) ;
#280 = DIRECTION ( 'NONE',  ( 0.000000000000000000, 0.000000000000000000, 1.000000000000000000 ) ) ;
#281 = AXIS2_PLACEMENT_3D ( 'NONE', #158, #122, #214 ) ;
#282 = CARTESIAN_POINT ( 'NONE',  ( -6.000000000000000888, 0.000000000000000000, 7.700000000000012612 ) ) ;
#283 = DIRECTION ( 'NONE',  ( 0.000000000000000000, 0.000000000000000000, 1.000000000000000000 ) ) ;
#284 = CARTESIAN_POINT ( 'NONE',  ( -10.00000000000000000, 0.000000000000000000, 0.000000000000000000 ) ) ;
#285 = CC_DESIGN_PERSON_AND_ORGANIZATION_ASSIGNMENT ( #139, #171, ( #236 ) ) ;
#286 = APPLICATION_PROTOCOL_DEFINITION ( 'international standard', 'config_control_design', 1994, #153 ) ;
#287 = VERTEX_POINT ( 'NONE', #284 ) ;
#288 = EDGE_LOOP ( 'NONE', ( #377, #85 ) ) ;
#289 = AXIS2_PLACEMENT_3D ( 'NONE', #222, #309, #335 ) ;
#290 = CLOSED_SHELL ( 'NONE', ( #354, #308, #137, #50, #28, #119, #343, #217, #318, #323, #68 ) ) ;
#291 = LOCAL_TIME ( 11, 3, 20.00000000000000000, #345 ) ;
#292 = VERTEX_POINT ( 'NONE', #73 ) ;
#293 = EDGE_LOOP ( 'NONE', ( #146, #348 ) ) ;
#294 = EDGE_LOOP ( 'NONE', ( #235, #238 ) ) ;
#295 = LINE ( 'NONE', #31, #126 ) ;
#296 = EDGE_CURVE ( 'NONE', #351, #267, #192, .T. ) ;
#297 = DIRECTION ( 'NONE',  ( 1.000000000000000000, 0.000000000000000000, 0.000000000000000000 ) ) ;
#298 = DIRECTION ( 'NONE',  ( -1.000000000000000000, 0.000000000000000000, 0.000000000000000000 ) ) ;
#299 = CARTESIAN_POINT ( 'NONE',  ( 0.000000000000000000, 0.000000000000000000, 7.000000000000000000 ) ) ;
#300 = FACE_BOUND ( 'NONE', #346, .T. ) ;
#301 = CC_DESIGN_DATE_AND_TIME_ASSIGNMENT ( #133, #74, ( #236 ) ) ;
#302 = FACE_BOUND ( 'NONE', #293, .T. ) ;
#303 = PRODUCT ( 'e389', 'e389', '', ( #102 ) ) ;
#304 = DATE_TIME_ROLE ( 'creation_date' ) ;
#305 = CARTESIAN_POINT ( 'NONE',  ( 0.000000000000000000, 0.000000000000000000, 257.0000000000000000 ) ) ;
#306 = APPROVAL_ROLE ( '' ) ;
#307 = DIRECTION ( 'NONE',  ( -0.000000000000000000, -0.000000000000000000, -1.000000000000000000 ) ) ;
#308 = ADVANCED_FACE ( 'NONE', ( #191 ), #34, .F. ) ;
#309 = DIRECTION ( 'NONE',  ( 0.000000000000000000, 0.000000000000000000, 1.000000000000000000 ) ) ;
#310 = AXIS2_PLACEMENT_3D ( 'NONE', #64, #270, #220 ) ;
#311 = APPROVAL_STATUS ( 'not_yet_approved' ) ;
#312 = ORIENTED_EDGE ( 'NONE', *, *, #296, .F. ) ;
#313 = ORIENTED_EDGE ( 'NONE', *, *, #350, .F. ) ;
#314 = AXIS2_PLACEMENT_3D ( 'NONE', #275, #332, #182 ) ;
#315 = CIRCLE ( 'NONE', #154, 4.000000000000000000 ) ;
#316 = ORIENTED_EDGE ( 'NONE', *, *, #194, .T. ) ;
#317 = ORIENTED_EDGE ( 'NONE', *, *, #41, .F. ) ;
#318 = ADVANCED_FACE ( 'NONE', ( #302, #250 ), #333, .T. ) ;
#319 = ORIENTED_EDGE ( 'NONE', *, *, #84, .F. ) ;
#320 = APPROVAL_PERSON_ORGANIZATION ( #16, #140, #165 ) ;
#321 = CIRCLE ( 'NONE', #161, 4.000000000000000000 ) ;
#322 = CARTESIAN_POINT ( 'NONE',  ( 0.000000000000000000, 0.000000000000000000, 257.0000000000000000 ) ) ;
#323 = ADVANCED_FACE ( 'NONE', ( #155 ), #186, .F. ) ;
#324 = FACE_OUTER_BOUND ( 'NONE', #27, .T. ) ;
#325 = FACE_OUTER_BOUND ( 'NONE', #138, .T. ) ;
#326 = CARTESIAN_POINT ( 'NONE',  ( 0.000000000000000000, 0.000000000000000000, 7.700000000000012612 ) ) ;
#327 = DIRECTION ( 'NONE',  ( 0.000000000000000000, 0.000000000000000000, 1.000000000000000000 ) ) ;
#328 = DIRECTION ( 'NONE',  ( 1.000000000000000000, 0.000000000000000000, 0.000000000000000000 ) ) ;
#329 = DIRECTION ( 'NONE',  ( -1.000000000000000000, 0.000000000000000000, 0.000000000000000000 ) ) ;
#330 =( NAMED_UNIT ( * ) SI_UNIT ( $, .STERADIAN. ) SOLID_ANGLE_UNIT ( ) );
#331 = DIRECTION ( 'NONE',  ( 0.000000000000000000, 0.000000000000000000, -1.000000000000000000 ) ) ;
#332 = DIRECTION ( 'NONE',  ( 0.000000000000000000, 0.000000000000000000, -1.000000000000000000 ) ) ;
#333 = PLANE ( 'NONE',  #109 ) ;
#334 = COORDINATED_UNIVERSAL_TIME_OFFSET ( 1, 0, .AHEAD. ) ;
#335 = DIRECTION ( 'NONE',  ( 1.000000000000000000, 0.000000000000000000, 0.000000000000000000 ) ) ;
#336 = LOCAL_TIME ( 11, 3, 20.00000000000000000, #136 ) ;
#337 = APPROVAL_PERSON_ORGANIZATION ( #197, #59, #306 ) ;
#338 = APPROVAL_DATE_TIME ( #368, #66 ) ;
#339 = EDGE_CURVE ( 'NONE', #177, #261, #357, .T. ) ;
#340 = CARTESIAN_POINT ( 'NONE',  ( 0.000000000000000000, 0.000000000000000000, 257.0000000000000000 ) ) ;
#341 = FACE_OUTER_BOUND ( 'NONE', #55, .T. ) ;
#342 = DIRECTION ( 'NONE',  ( 1.000000000000000000, 0.000000000000000000, 0.000000000000000000 ) ) ;
#343 = ADVANCED_FACE ( 'NONE', ( #243, #65 ), #62, .F. ) ;
#344 = AXIS2_PLACEMENT_3D ( 'NONE', #322, #181, #61 ) ;
#345 = COORDINATED_UNIVERSAL_TIME_OFFSET ( 1, 0, .AHEAD. ) ;
#346 = EDGE_LOOP ( 'NONE', ( #51, #206 ) ) ;
#347 = VERTEX_POINT ( 'NONE', #37 ) ;
#348 = ORIENTED_EDGE ( 'NONE', *, *, #188, .F. ) ;
#349 = CIRCLE ( 'NONE', #281, 0.7000000000000000666 ) ;
#350 = EDGE_CURVE ( 'NONE', #261, #264, #349, .T. ) ;
#351 = VERTEX_POINT ( 'NONE', #184 ) ;
#352 = ORIENTED_EDGE ( 'NONE', *, *, #84, .T. ) ;
#353 = FACE_OUTER_BOUND ( 'NONE', #176, .T. ) ;
#354 = ADVANCED_FACE ( 'NONE', ( #324 ), #221, .F. ) ;
#355 = CIRCLE ( 'NONE', #193, 0.7000000000000000666 ) ;
#356 = FACE_OUTER_BOUND ( 'NONE', #113, .T. ) ;
#357 = CIRCLE ( 'NONE', #118, 6.000000000000000888 ) ;
#358 = CC_DESIGN_PERSON_AND_ORGANIZATION_ASSIGNMENT ( #48, #107, ( #230 ) ) ;
#359 = VERTEX_POINT ( 'NONE', #245 ) ;
#360 = DIRECTION ( 'NONE',  ( 1.000000000000000000, 0.000000000000000000, -0.000000000000000000 ) ) ;
#361 = CARTESIAN_POINT ( 'NONE',  ( 0.000000000000000000, 0.000000000000000000, 257.0000000000000000 ) ) ;
#362 =( NAMED_UNIT ( * ) PLANE_ANGLE_UNIT ( ) SI_UNIT ( $, .RADIAN. ) );
#363 = VERTEX_POINT ( 'NONE', #271 ) ;
#364 = CIRCLE ( 'NONE', #132, 10.00000000000000000 ) ;
#365 = CARTESIAN_POINT ( 'NONE',  ( 0.000000000000000000, 0.000000000000000000, 7.700000000000012612 ) ) ;
#366 = CARTESIAN_POINT ( 'NONE',  ( 0.000000000000000000, 0.000000000000000000, 7.700000000000012612 ) ) ;
#367 = CARTESIAN_POINT ( 'NONE',  ( 0.000000000000000000, 0.000000000000000000, 257.0000000000000000 ) ) ;
#368 = DATE_AND_TIME ( #105, #211 ) ;
#369 = CARTESIAN_POINT ( 'NONE',  ( 4.000000000000000000, 4.898587196589412829E-16, 257.0000000000000000 ) ) ;
#370 = CC_DESIGN_SECURITY_CLASSIFICATION ( #236, ( #230 ) ) ;
#371 = PRODUCT_RELATED_PRODUCT_CATEGORY ( 'detail', '', ( #303 ) ) ;
#372 = LINE ( 'NONE', #128, #376 ) ;
#373 = COORDINATED_UNIVERSAL_TIME_OFFSET ( 1, 0, .AHEAD. ) ;
#374 = ORIENTED_EDGE ( 'NONE', *, *, #200, .T. ) ;
#375 = APPROVAL_DATE_TIME ( #129, #140 ) ;
#376 = VECTOR ( 'NONE', #9, 1000.000000000000000 ) ;
#377 = ORIENTED_EDGE ( 'NONE', *, *, #14, .F. ) ;
#378 = ORIENTED_EDGE ( 'NONE', *, *, #266, .T. ) ;
#379 = VERTEX_POINT ( 'NONE', #95 ) ;
#380 = EDGE_LOOP ( 'NONE', ( #143, #269, #53, #313 ) ) ;
#381 = ORIENTED_EDGE ( 'NONE', *, *, #92, .T. ) ;
ENDSEC;
END-ISO-10303-21;
