ISO-10303-21;
HEADER;
FILE_DESCRIPTION (( 'STEP AP203' ),
    '1' );
FILE_NAME ('5063.STEP',
    '2022-07-10T09:08:55',
    ( '' ),
    ( '' ),
    'SwSTEP 2.0',
    'SolidWorks 2019',
    '' );
FILE_SCHEMA (( 'CONFIG_CONTROL_DESIGN' ));
ENDSEC;

DATA;
#1 = DIRECTION ( 'NONE',  ( 0.000000000000000000, 0.000000000000000000, 1.000000000000000000 ) ) ;
#2 = LOCAL_TIME ( 11, 8, 55.00000000000000000, #124 ) ;
#3 = DIRECTION ( 'NONE',  ( 1.000000000000000000, 0.000000000000000000, 0.000000000000000000 ) ) ;
#4 = VERTEX_POINT ( 'NONE', #136 ) ;
#5 = ORIENTED_EDGE ( 'NONE', *, *, #315, .F. ) ;
#6 = ORIENTED_EDGE ( 'NONE', *, *, #372, .T. ) ;
#7 = AXIS2_PLACEMENT_3D ( 'NONE', #58, #176, #255 ) ;
#8 = EDGE_CURVE ( 'NONE', #4, #215, #74, .T. ) ;
#9 = ORIENTED_EDGE ( 'NONE', *, *, #361, .F. ) ;
#10 = DIRECTION ( 'NONE',  ( 0.000000000000000000, 0.000000000000000000, 1.000000000000000000 ) ) ;
#11 = EDGE_LOOP ( 'NONE', ( #289, #297, #66, #157 ) ) ;
#12 = EDGE_LOOP ( 'NONE', ( #82, #353, #196, #237 ) ) ;
#13 = CIRCLE ( 'NONE', #47, 0.5000000000000004441 ) ;
#14 = ORIENTED_EDGE ( 'NONE', *, *, #146, .F. ) ;
#15 = DIRECTION ( 'NONE',  ( 1.000000000000000000, 0.000000000000000000, 0.000000000000000000 ) ) ;
#16 = APPROVAL ( #270, 'NEURÈENÝ' ) ;
#17 = LOCAL_TIME ( 11, 8, 55.00000000000000000, #86 ) ;
#18 = PERSON_AND_ORGANIZATION_ROLE ( 'design_supplier' ) ;
#19 = ORIENTED_EDGE ( 'NONE', *, *, #22, .T. ) ;
#20 = CIRCLE ( 'NONE', #309, 4.500000000000000888 ) ;
#21 = CARTESIAN_POINT ( 'NONE',  ( -7.000000000000000000, 0.000000000000000000, 5.000000000000000000 ) ) ;
#22 = EDGE_CURVE ( 'NONE', #126, #212, #366, .T. ) ;
#23 = AXIS2_PLACEMENT_3D ( 'NONE', #104, #275, #190 ) ;
#24 = FACE_OUTER_BOUND ( 'NONE', #92, .T. ) ;
#25 = APPROVAL_DATE_TIME ( #287, #311 ) ;
#26 = CARTESIAN_POINT ( 'NONE',  ( 0.000000000000000000, 0.000000000000000000, 5.500000000000005329 ) ) ;
#27 = APPROVAL ( #115, 'NEURÈENÝ' ) ;
#28 = CIRCLE ( 'NONE', #46, 2.500000000000000000 ) ;
#29 = CC_DESIGN_PERSON_AND_ORGANIZATION_ASSIGNMENT ( #108, #226, ( #119 ) ) ;
#30 = DIRECTION ( 'NONE',  ( -0.000000000000000000, -0.000000000000000000, -1.000000000000000000 ) ) ;
#31 = VERTEX_POINT ( 'NONE', #222 ) ;
#32 = DIRECTION ( 'NONE',  ( 1.000000000000000000, 0.000000000000000000, -0.000000000000000000 ) ) ;
#33 = ORIENTED_EDGE ( 'NONE', *, *, #129, .T. ) ;
#34 = DIRECTION ( 'NONE',  ( -1.000000000000000000, 0.000000000000000000, 0.000000000000000000 ) ) ;
#35 = ORIENTED_EDGE ( 'NONE', *, *, #239, .T. ) ;
#36 = CIRCLE ( 'NONE', #111, 4.000000000000000000 ) ;
#37 = ORIENTED_EDGE ( 'NONE', *, *, #239, .F. ) ;
#38 = ADVANCED_FACE ( 'NONE', ( #166 ), #76, .F. ) ;
#39 = ORIENTED_EDGE ( 'NONE', *, *, #52, .F. ) ;
#40 = ORIENTED_EDGE ( 'NONE', *, *, #285, .T. ) ;
#41 = AXIS2_PLACEMENT_3D ( 'NONE', #26, #1, #68 ) ;
#42 = EDGE_LOOP ( 'NONE', ( #262, #6 ) ) ;
#43 = VERTEX_POINT ( 'NONE', #272 ) ;
#44 = CC_DESIGN_PERSON_AND_ORGANIZATION_ASSIGNMENT ( #188, #373, ( #252 ) ) ;
#45 = EDGE_LOOP ( 'NONE', ( #336, #33 ) ) ;
#46 = AXIS2_PLACEMENT_3D ( 'NONE', #84, #149, #54 ) ;
#47 = AXIS2_PLACEMENT_3D ( 'NONE', #300, #335, #340 ) ;
#48 = CALENDAR_DATE ( 2022, 10, 7 ) ;
#49 = DIRECTION ( 'NONE',  ( 1.000000000000000000, 0.000000000000000000, -0.000000000000000000 ) ) ;
#50 = AXIS2_PLACEMENT_3D ( 'NONE', #147, #116, #49 ) ;
#51 = DATE_TIME_ROLE ( 'classification_date' ) ;
#52 = EDGE_CURVE ( 'NONE', #31, #206, #73, .T. ) ;
#53 = DIRECTION ( 'NONE',  ( 1.000000000000000000, 0.000000000000000000, 0.000000000000000000 ) ) ;
#54 = DIRECTION ( 'NONE',  ( 1.000000000000000000, 0.000000000000000000, 0.000000000000000000 ) ) ;
#55 = AXIS2_PLACEMENT_3D ( 'NONE', #87, #173, #200 ) ;
#56 = DIRECTION ( 'NONE',  ( 0.000000000000000000, -1.000000000000000000, 0.000000000000000000 ) ) ;
#57 = EDGE_CURVE ( 'NONE', #212, #69, #278, .T. ) ;
#58 = CARTESIAN_POINT ( 'NONE',  ( 0.000000000000000000, 0.000000000000000000, 5.000000000000000000 ) ) ;
#59 = SHAPE_DEFINITION_REPRESENTATION ( #143, #283 ) ;
#60 = CARTESIAN_POINT ( 'NONE',  ( 0.000000000000000000, 0.000000000000000000, 5.000000000000000000 ) ) ;
#61 = VERTEX_POINT ( 'NONE', #341 ) ;
#62 = CC_DESIGN_APPROVAL ( #16, ( #223 ) ) ;
#63 = CARTESIAN_POINT ( 'NONE',  ( -2.500000000000000000, 0.000000000000000000, 255.0000000000000000 ) ) ;
#64 = ORIENTED_EDGE ( 'NONE', *, *, #57, .F. ) ;
#65 = CARTESIAN_POINT ( 'NONE',  ( 0.000000000000000000, 0.000000000000000000, 5.000000000000000000 ) ) ;
#66 = ORIENTED_EDGE ( 'NONE', *, *, #167, .T. ) ;
#67 = DIRECTION ( 'NONE',  ( 0.000000000000000000, 0.000000000000000000, 1.000000000000000000 ) ) ;
#68 = DIRECTION ( 'NONE',  ( 1.000000000000000000, 0.000000000000000000, 0.000000000000000000 ) ) ;
#69 = VERTEX_POINT ( 'NONE', #305 ) ;
#70 = LOCAL_TIME ( 11, 8, 55.00000000000000000, #380 ) ;
#71 = EDGE_CURVE ( 'NONE', #43, #328, #169, .T. ) ;
#72 = DIRECTION ( 'NONE',  ( -0.000000000000000000, -0.000000000000000000, -1.000000000000000000 ) ) ;
#73 = LINE ( 'NONE', #187, #224 ) ;
#74 = CIRCLE ( 'NONE', #347, 2.500000000000000000 ) ;
#75 = ADVANCED_FACE ( 'NONE', ( #351, #350 ), #377, .F. ) ;
#76 = CYLINDRICAL_SURFACE ( 'NONE', #266, 2.500000000000000000 ) ;
#77 = DIRECTION ( 'NONE',  ( 0.000000000000000000, 0.000000000000000000, -1.000000000000000000 ) ) ;
#78 = AXIS2_PLACEMENT_3D ( 'NONE', #323, #67, #211 ) ;
#79 = EDGE_CURVE ( 'NONE', #69, #212, #332, .T. ) ;
#80 = ORIENTED_EDGE ( 'NONE', *, *, #113, .F. ) ;
#81 = CARTESIAN_POINT ( 'NONE',  ( 0.000000000000000000, 0.000000000000000000, 5.000000000000000000 ) ) ;
#82 = ORIENTED_EDGE ( 'NONE', *, *, #357, .F. ) ;
#83 = APPROVAL_DATE_TIME ( #172, #27 ) ;
#84 = CARTESIAN_POINT ( 'NONE',  ( 0.000000000000000000, 0.000000000000000000, 255.0000000000000000 ) ) ;
#85 = CIRCLE ( 'NONE', #175, 2.500000000000000000 ) ;
#86 = COORDINATED_UNIVERSAL_TIME_OFFSET ( 1, 0, .AHEAD. ) ;
#87 = CARTESIAN_POINT ( 'NONE',  ( 0.000000000000000000, 0.000000000000000000, 5.500000000000005329 ) ) ;
#88 = EDGE_CURVE ( 'NONE', #61, #318, #20, .T. ) ;
#89 = DIRECTION ( 'NONE',  ( 1.000000000000000000, 0.000000000000000000, 0.000000000000000000 ) ) ;
#90 = AXIS2_PLACEMENT_3D ( 'NONE', #302, #268, #133 ) ;
#91 = DIRECTION ( 'NONE',  ( -0.000000000000000000, -0.000000000000000000, -1.000000000000000000 ) ) ;
#92 = EDGE_LOOP ( 'NONE', ( #9, #164, #331, #160 ) ) ;
#93 = CALENDAR_DATE ( 2022, 10, 7 ) ;
#94 = DIRECTION ( 'NONE',  ( -0.000000000000000000, -0.000000000000000000, -1.000000000000000000 ) ) ;
#95 = CIRCLE ( 'NONE', #134, 2.500000000000000000 ) ;
#96 = FACE_OUTER_BOUND ( 'NONE', #45, .T. ) ;
#97 = ORIENTED_EDGE ( 'NONE', *, *, #357, .T. ) ;
#98 = ORIENTED_EDGE ( 'NONE', *, *, #113, .T. ) ;
#99 = DIRECTION ( 'NONE',  ( 0.000000000000000000, 0.000000000000000000, 1.000000000000000000 ) ) ;
#100 = EDGE_LOOP ( 'NONE', ( #274, #37, #98, #153 ) ) ;
#101 = CIRCLE ( 'NONE', #258, 4.500000000000000888 ) ;
#102 = EDGE_LOOP ( 'NONE', ( #321, #263 ) ) ;
#103 = CC_DESIGN_DATE_AND_TIME_ASSIGNMENT ( #277, #232, ( #223 ) ) ;
#104 = CARTESIAN_POINT ( 'NONE',  ( 0.000000000000000000, 0.000000000000000000, 5.500000000000005329 ) ) ;
#105 = ORIENTED_EDGE ( 'NONE', *, *, #8, .F. ) ;
#106 = DIRECTION ( 'NONE',  ( -0.000000000000000000, -0.000000000000000000, -1.000000000000000000 ) ) ;
#107 = VECTOR ( 'NONE', #320, 1000.000000000000000 ) ;
#108 = PERSON_AND_ORGANIZATION ( #138, #296 ) ;
#109 = CARTESIAN_POINT ( 'NONE',  ( 4.500000000000000888, 0.000000000000000000, 5.500000000000005329 ) ) ;
#110 = CARTESIAN_POINT ( 'NONE',  ( 0.000000000000000000, 0.000000000000000000, 255.0000000000000000 ) ) ;
#111 = AXIS2_PLACEMENT_3D ( 'NONE', #365, #10, #165 ) ;
#112 = DIRECTION ( 'NONE',  ( -1.000000000000000000, 0.000000000000000000, 0.000000000000000000 ) ) ;
#113 = EDGE_CURVE ( 'NONE', #161, #69, #251, .T. ) ;
#114 = MANIFOLD_SOLID_BREP ( 'Odebrat vysunutím3', #137 ) ;
#115 = APPROVAL_STATUS ( 'not_yet_approved' ) ;
#116 = DIRECTION ( 'NONE',  ( 0.000000000000000000, 0.000000000000000000, 1.000000000000000000 ) ) ;
#117 = ADVANCED_FACE ( 'NONE', ( #144 ), #310, .T. ) ;
#118 = CYLINDRICAL_SURFACE ( 'NONE', #221, 7.000000000000000000 ) ;
#119 = SECURITY_CLASSIFICATION ( '', '', #308 ) ;
#120 = CC_DESIGN_PERSON_AND_ORGANIZATION_ASSIGNMENT ( #307, #18, ( #152 ) ) ;
#121 = DIRECTION ( 'NONE',  ( 1.000000000000000000, 0.000000000000000000, 0.000000000000000000 ) ) ;
#122 = AXIS2_PLACEMENT_3D ( 'NONE', #371, #276, #15 ) ;
#123 = FACE_BOUND ( 'NONE', #42, .T. ) ;
#124 = COORDINATED_UNIVERSAL_TIME_OFFSET ( 1, 0, .AHEAD. ) ;
#125 = DIRECTION ( 'NONE',  ( -0.000000000000000000, -0.000000000000000000, -1.000000000000000000 ) ) ;
#126 = VERTEX_POINT ( 'NONE', #288 ) ;
#127 = ORIENTED_EDGE ( 'NONE', *, *, #71, .T. ) ;
#128 = UNCERTAINTY_MEASURE_WITH_UNIT (LENGTH_MEASURE( 1.000000000000000082E-05 ), #244, 'distance_accuracy_value', 'NONE');
#129 = EDGE_CURVE ( 'NONE', #31, #43, #231, .T. ) ;
#130 = CARTESIAN_POINT ( 'NONE',  ( 0.000000000000000000, 0.000000000000000000, 5.000000000000000000 ) ) ;
#131 = ADVANCED_FACE ( 'NONE', ( #381 ), #118, .T. ) ;
#132 = APPLICATION_CONTEXT ( 'configuration controlled 3d designs of mechanical parts and assemblies' ) ;
#133 = DIRECTION ( 'NONE',  ( 1.000000000000000000, 0.000000000000000000, 0.000000000000000000 ) ) ;
#134 = AXIS2_PLACEMENT_3D ( 'NONE', #317, #30, #121 ) ;
#135 = ORIENTED_EDGE ( 'NONE', *, *, #79, .F. ) ;
#136 = CARTESIAN_POINT ( 'NONE',  ( -2.500000000000000000, 0.000000000000000000, 0.000000000000000000 ) ) ;
#137 = CLOSED_SHELL ( 'NONE', ( #292, #369, #117, #131, #290, #267, #75, #325, #229, #220, #38 ) ) ;
#138 = PERSON ( 'NEURÈENÝ', 'NEURÈENÝ', 'NEURÈENÝ', ('NEURÈENÝ'), ('NEURÈENÝ'), ('NEURÈENÝ') ) ;
#139 = APPLICATION_PROTOCOL_DEFINITION ( 'international standard', 'config_control_design', 1994, #132 ) ;
#140 = ORIENTED_EDGE ( 'NONE', *, *, #146, .T. ) ;
#141 = DIRECTION ( 'NONE',  ( 1.000000000000000000, 0.000000000000000000, 0.000000000000000000 ) ) ;
#142 = APPROVAL_PERSON_ORGANIZATION ( #162, #16, #280 ) ;
#143 = PRODUCT_DEFINITION_SHAPE ( 'NONE', 'NONE',  #223 ) ;
#144 = FACE_OUTER_BOUND ( 'NONE', #11, .T. ) ;
#145 = DATE_AND_TIME ( #48, #367 ) ;
#146 = EDGE_CURVE ( 'NONE', #183, #215, #345, .T. ) ;
#147 = CARTESIAN_POINT ( 'NONE',  ( 0.000000000000000000, 0.000000000000000000, 0.000000000000000000 ) ) ;
#148 = PERSON_AND_ORGANIZATION ( #138, #296 ) ;
#149 = DIRECTION ( 'NONE',  ( 0.000000000000000000, 0.000000000000000000, 1.000000000000000000 ) ) ;
#150 = AXIS2_PLACEMENT_3D ( 'NONE', #179, #99, #154 ) ;
#151 = CARTESIAN_POINT ( 'NONE',  ( 0.000000000000000000, 0.000000000000000000, 5.000000000000000000 ) ) ;
#152 = PRODUCT_DEFINITION_FORMATION_WITH_SPECIFIED_SOURCE ( 'LIBOVOLNÝ', '', #252, .NOT_KNOWN. ) ;
#153 = ORIENTED_EDGE ( 'NONE', *, *, #79, .T. ) ;
#154 = DIRECTION ( 'NONE',  ( 1.000000000000000000, 0.000000000000000000, 0.000000000000000000 ) ) ;
#155 = EDGE_LOOP ( 'NONE', ( #265, #19, #293, #80 ) ) ;
#156 = DIRECTION ( 'NONE',  ( -1.000000000000000000, 0.000000000000000000, 0.000000000000000000 ) ) ;
#157 = ORIENTED_EDGE ( 'NONE', *, *, #71, .F. ) ;
#158 = EDGE_CURVE ( 'NONE', #126, #161, #360, .T. ) ;
#159 = VECTOR ( 'NONE', #198, 1000.000000000000000 ) ;
#160 = ORIENTED_EDGE ( 'NONE', *, *, #372, .F. ) ;
#161 = VERTEX_POINT ( 'NONE', #177 ) ;
#162 = PERSON_AND_ORGANIZATION ( #138, #296 ) ;
#163 = LOCAL_TIME ( 11, 8, 55.00000000000000000, #349 ) ;
#164 = ORIENTED_EDGE ( 'NONE', *, *, #167, .F. ) ;
#165 = DIRECTION ( 'NONE',  ( 1.000000000000000000, 0.000000000000000000, 0.000000000000000000 ) ) ;
#166 = FACE_OUTER_BOUND ( 'NONE', #339, .T. ) ;
#167 = EDGE_CURVE ( 'NONE', #206, #328, #329, .T. ) ;
#168 = PERSON_AND_ORGANIZATION ( #138, #296 ) ;
#169 = LINE ( 'NONE', #314, #186 ) ;
#170 = APPROVAL_PERSON_ORGANIZATION ( #148, #311, #358 ) ;
#171 = CC_DESIGN_PERSON_AND_ORGANIZATION_ASSIGNMENT ( #254, #202, ( #223 ) ) ;
#172 = DATE_AND_TIME ( #304, #163 ) ;
#173 = DIRECTION ( 'NONE',  ( 0.000000000000000000, 0.000000000000000000, 1.000000000000000000 ) ) ;
#174 = CARTESIAN_POINT ( 'NONE',  ( 7.000000000000000000, 8.572527594031473190E-16, 0.000000000000000000 ) ) ;
#175 = AXIS2_PLACEMENT_3D ( 'NONE', #264, #214, #364 ) ;
#176 = DIRECTION ( 'NONE',  ( 0.000000000000000000, 0.000000000000000000, 1.000000000000000000 ) ) ;
#177 = CARTESIAN_POINT ( 'NONE',  ( -7.000000000000000000, 0.000000000000000000, 5.000000000000000000 ) ) ;
#178 =( GEOMETRIC_REPRESENTATION_CONTEXT ( 3 ) GLOBAL_UNCERTAINTY_ASSIGNED_CONTEXT ( ( #128 ) ) GLOBAL_UNIT_ASSIGNED_CONTEXT ( ( #244, #333, #273 ) ) REPRESENTATION_CONTEXT ( 'NONE', 'WORKASPACE' ) );
#179 = CARTESIAN_POINT ( 'NONE',  ( 0.000000000000000000, 0.000000000000000000, 255.0000000000000000 ) ) ;
#180 = FACE_BOUND ( 'NONE', #102, .T. ) ;
#181 = VERTEX_POINT ( 'NONE', #281 ) ;
#182 = CYLINDRICAL_SURFACE ( 'NONE', #352, 2.500000000000000000 ) ;
#183 = VERTEX_POINT ( 'NONE', #313 ) ;
#184 = AXIS2_PLACEMENT_3D ( 'NONE', #185, #125, #359 ) ;
#185 = CARTESIAN_POINT ( 'NONE',  ( 0.000000000000000000, 0.000000000000000000, 255.0000000000000000 ) ) ;
#186 = VECTOR ( 'NONE', #379, 1000.000000000000000 ) ;
#187 = CARTESIAN_POINT ( 'NONE',  ( 4.000000000000000000, 4.898587196589412829E-16, 255.0000000000000000 ) ) ;
#188 = PERSON_AND_ORGANIZATION ( #138, #296 ) ;
#189 = DIRECTION ( 'NONE',  ( -1.000000000000000000, 0.000000000000000000, 0.000000000000000000 ) ) ;
#190 = DIRECTION ( 'NONE',  ( 1.000000000000000000, 0.000000000000000000, 0.000000000000000000 ) ) ;
#191 = APPROVAL_PERSON_ORGANIZATION ( #195, #27, #312 ) ;
#192 = ORIENTED_EDGE ( 'NONE', *, *, #158, .T. ) ;
#193 = ORIENTED_EDGE ( 'NONE', *, *, #8, .T. ) ;
#194 = EDGE_CURVE ( 'NONE', #206, #61, #374, .T. ) ;
#195 = PERSON_AND_ORGANIZATION ( #138, #296 ) ;
#196 = ORIENTED_EDGE ( 'NONE', *, *, #88, .F. ) ;
#197 = PERSON_AND_ORGANIZATION_ROLE ( 'creator' ) ;
#198 = DIRECTION ( 'NONE',  ( 0.000000000000000000, 0.000000000000000000, -1.000000000000000000 ) ) ;
#199 = VECTOR ( 'NONE', #106, 1000.000000000000000 ) ;
#200 = DIRECTION ( 'NONE',  ( 1.000000000000000000, 0.000000000000000000, 0.000000000000000000 ) ) ;
#201 = DESIGN_CONTEXT ( 'detailed design', #207, 'design' ) ;
#202 = PERSON_AND_ORGANIZATION_ROLE ( 'creator' ) ;
#203 = CARTESIAN_POINT ( 'NONE',  ( 0.000000000000000000, 0.000000000000000000, 255.0000000000000000 ) ) ;
#204 = DIRECTION ( 'NONE',  ( 1.000000000000000000, 0.000000000000000000, 0.000000000000000000 ) ) ;
#205 = FACE_OUTER_BOUND ( 'NONE', #100, .T. ) ;
#206 = VERTEX_POINT ( 'NONE', #343 ) ;
#207 = APPLICATION_CONTEXT ( 'configuration controlled 3d designs of mechanical parts and assemblies' ) ;
#208 = LINE ( 'NONE', #63, #107 ) ;
#209 = AXIS2_PLACEMENT_3D ( 'NONE', #65, #259, #3 ) ;
#210 = EDGE_CURVE ( 'NONE', #181, #183, #28, .T. ) ;
#211 = DIRECTION ( 'NONE',  ( 1.000000000000000000, 0.000000000000000000, -0.000000000000000000 ) ) ;
#212 = VERTEX_POINT ( 'NONE', #174 ) ;
#213 = EDGE_LOOP ( 'NONE', ( #135, #64 ) ) ;
#214 = DIRECTION ( 'NONE',  ( 0.000000000000000000, 0.000000000000000000, 1.000000000000000000 ) ) ;
#215 = VERTEX_POINT ( 'NONE', #284 ) ;
#216 = CC_DESIGN_APPROVAL ( #311, ( #119 ) ) ;
#217 = CARTESIAN_POINT ( 'NONE',  ( 0.000000000000000000, 0.000000000000000000, 255.0000000000000000 ) ) ;
#218 = EDGE_LOOP ( 'NONE', ( #39, #5, #127, #97 ) ) ;
#219 = APPLICATION_PROTOCOL_DEFINITION ( 'international standard', 'config_control_design', 1994, #207 ) ;
#220 = ADVANCED_FACE ( 'NONE', ( #24 ), #301, .F. ) ;
#221 = AXIS2_PLACEMENT_3D ( 'NONE', #316, #233, #228 ) ;
#222 = CARTESIAN_POINT ( 'NONE',  ( 4.000000000000000000, 4.898587196589412829E-16, 255.0000000000000000 ) ) ;
#223 = PRODUCT_DEFINITION ( 'NEZNÁMÝ', '', #152, #201 ) ;
#224 = VECTOR ( 'NONE', #299, 1000.000000000000000 ) ;
#225 = ORIENTED_EDGE ( 'NONE', *, *, #298, .T. ) ;
#226 = PERSON_AND_ORGANIZATION_ROLE ( 'classification_officer' ) ;
#227 = DIRECTION ( 'NONE',  ( 0.000000000000000000, 0.000000000000000000, -1.000000000000000000 ) ) ;
#228 = DIRECTION ( 'NONE',  ( -1.000000000000000000, 0.000000000000000000, 0.000000000000000000 ) ) ;
#229 = ADVANCED_FACE ( 'NONE', ( #180, #96 ), #324, .T. ) ;
#230 = DIRECTION ( 'NONE',  ( -0.000000000000000000, -0.000000000000000000, -1.000000000000000000 ) ) ;
#231 = CIRCLE ( 'NONE', #354, 4.000000000000000000 ) ;
#232 = DATE_TIME_ROLE ( 'creation_date' ) ;
#233 = DIRECTION ( 'NONE',  ( -0.000000000000000000, -0.000000000000000000, -1.000000000000000000 ) ) ;
#234 = CIRCLE ( 'NONE', #209, 7.000000000000000000 ) ;
#235 = VECTOR ( 'NONE', #230, 1000.000000000000000 ) ;
#236 = PLANE ( 'NONE',  #246 ) ;
#237 = ORIENTED_EDGE ( 'NONE', *, *, #194, .F. ) ;
#238 = CARTESIAN_POINT ( 'NONE',  ( -4.500000000000000888, 5.510910596163088569E-16, 5.000000000000002665 ) ) ;
#239 = EDGE_CURVE ( 'NONE', #161, #126, #234, .T. ) ;
#240 = CC_DESIGN_APPROVAL ( #27, ( #152 ) ) ;
#241 = CYLINDRICAL_SURFACE ( 'NONE', #337, 7.000000000000000000 ) ;
#242 = ORIENTED_EDGE ( 'NONE', *, *, #210, .T. ) ;
#243 = DIRECTION ( 'NONE',  ( 0.000000000000000000, 0.000000000000000000, -1.000000000000000000 ) ) ;
#244 =( LENGTH_UNIT ( ) NAMED_UNIT ( * ) SI_UNIT ( .MILLI., .METRE. ) );
#245 = CARTESIAN_POINT ( 'NONE',  ( 0.000000000000000000, 0.000000000000000000, 0.000000000000000000 ) ) ;
#246 = AXIS2_PLACEMENT_3D ( 'NONE', #130, #355, #32 ) ;
#247 = DIRECTION ( 'NONE',  ( 1.000000000000000000, 0.000000000000000000, 0.000000000000000000 ) ) ;
#248 = CC_DESIGN_PERSON_AND_ORGANIZATION_ASSIGNMENT ( #168, #197, ( #152 ) ) ;
#249 = DIRECTION ( 'NONE',  ( -0.000000000000000000, -0.000000000000000000, -1.000000000000000000 ) ) ;
#250 = PRODUCT_RELATED_PRODUCT_CATEGORY ( 'detail', '', ( #252 ) ) ;
#251 = LINE ( 'NONE', #21, #235 ) ;
#252 = PRODUCT ( '5063', '5063', '', ( #338 ) ) ;
#253 = CIRCLE ( 'NONE', #150, 4.000000000000000000 ) ;
#254 = PERSON_AND_ORGANIZATION ( #138, #296 ) ;
#255 = DIRECTION ( 'NONE',  ( 1.000000000000000000, 0.000000000000000000, 0.000000000000000000 ) ) ;
#256 = DIRECTION ( 'NONE',  ( 0.000000000000000000, 0.000000000000000000, 1.000000000000000000 ) ) ;
#257 = CC_DESIGN_SECURITY_CLASSIFICATION ( #119, ( #152 ) ) ;
#258 = AXIS2_PLACEMENT_3D ( 'NONE', #81, #72, #141 ) ;
#259 = DIRECTION ( 'NONE',  ( 0.000000000000000000, 0.000000000000000000, 1.000000000000000000 ) ) ;
#260 = AXIS2_PLACEMENT_3D ( 'NONE', #279, #256, #89 ) ;
#261 = FACE_OUTER_BOUND ( 'NONE', #218, .T. ) ;
#262 = ORIENTED_EDGE ( 'NONE', *, *, #88, .T. ) ;
#263 = ORIENTED_EDGE ( 'NONE', *, *, #306, .F. ) ;
#264 = CARTESIAN_POINT ( 'NONE',  ( 0.000000000000000000, 0.000000000000000000, 255.0000000000000000 ) ) ;
#265 = ORIENTED_EDGE ( 'NONE', *, *, #158, .F. ) ;
#266 = AXIS2_PLACEMENT_3D ( 'NONE', #217, #77, #189 ) ;
#267 = ADVANCED_FACE ( 'NONE', ( #123, #291 ), #236, .T. ) ;
#268 = DIRECTION ( 'NONE',  ( 0.000000000000000000, 0.000000000000000000, 1.000000000000000000 ) ) ;
#269 = AXIS2_PLACEMENT_3D ( 'NONE', #109, #56, #227 ) ;
#270 = APPROVAL_STATUS ( 'not_yet_approved' ) ;
#271 = CC_DESIGN_DATE_AND_TIME_ASSIGNMENT ( #145, #51, ( #119 ) ) ;
#272 = CARTESIAN_POINT ( 'NONE',  ( -4.000000000000000000, 0.000000000000000000, 255.0000000000000000 ) ) ;
#273 =( NAMED_UNIT ( * ) SI_UNIT ( $, .STERADIAN. ) SOLID_ANGLE_UNIT ( ) );
#274 = ORIENTED_EDGE ( 'NONE', *, *, #22, .F. ) ;
#275 = DIRECTION ( 'NONE',  ( 0.000000000000000000, 0.000000000000000000, 1.000000000000000000 ) ) ;
#276 = DIRECTION ( 'NONE',  ( 0.000000000000000000, 0.000000000000000000, 1.000000000000000000 ) ) ;
#277 = DATE_AND_TIME ( #282, #17 ) ;
#278 = CIRCLE ( 'NONE', #122, 7.000000000000000000 ) ;
#279 = CARTESIAN_POINT ( 'NONE',  ( 0.000000000000000000, 0.000000000000000000, 0.000000000000000000 ) ) ;
#280 = APPROVAL_ROLE ( '' ) ;
#281 = CARTESIAN_POINT ( 'NONE',  ( -2.500000000000000000, 0.000000000000000000, 255.0000000000000000 ) ) ;
#282 = CALENDAR_DATE ( 2022, 10, 7 ) ;
#283 = ADVANCED_BREP_SHAPE_REPRESENTATION ( '5063', ( #114, #90 ), #178 ) ;
#284 = CARTESIAN_POINT ( 'NONE',  ( 2.500000000000000000, 3.061616997868383141E-16, 0.000000000000000000 ) ) ;
#285 = EDGE_CURVE ( 'NONE', #215, #4, #95, .T. ) ;
#286 = APPROVAL_DATE_TIME ( #346, #16 ) ;
#287 = DATE_AND_TIME ( #93, #2 ) ;
#288 = CARTESIAN_POINT ( 'NONE',  ( 7.000000000000000000, 8.572527594031473190E-16, 5.000000000000000000 ) ) ;
#289 = ORIENTED_EDGE ( 'NONE', *, *, #129, .F. ) ;
#290 = ADVANCED_FACE ( 'NONE', ( #205 ), #241, .T. ) ;
#291 = FACE_OUTER_BOUND ( 'NONE', #363, .T. ) ;
#292 = ADVANCED_FACE ( 'NONE', ( #362 ), #182, .F. ) ;
#293 = ORIENTED_EDGE ( 'NONE', *, *, #57, .T. ) ;
#294 = CARTESIAN_POINT ( 'NONE',  ( 0.000000000000000000, 0.000000000000000000, 255.0000000000000000 ) ) ;
#295 = ORIENTED_EDGE ( 'NONE', *, *, #285, .F. ) ;
#296 = ORGANIZATION ( 'NEURÈENÝ', 'NEURÈENÝ', '' ) ;
#297 = ORIENTED_EDGE ( 'NONE', *, *, #52, .T. ) ;
#298 = EDGE_CURVE ( 'NONE', #181, #4, #208, .T. ) ;
#299 = DIRECTION ( 'NONE',  ( -0.000000000000000000, -0.000000000000000000, -1.000000000000000000 ) ) ;
#300 = CARTESIAN_POINT ( 'NONE',  ( -4.500000000000000888, 5.510910596163089556E-16, 5.500000000000005329 ) ) ;
#301 = TOROIDAL_SURFACE ( 'NONE', #41, 4.500000000000000888, 0.5000000000000000000 ) ;
#302 = CARTESIAN_POINT ( 'NONE',  ( 0.000000000000000000, 0.000000000000000000, 0.000000000000000000 ) ) ;
#303 = ORIENTED_EDGE ( 'NONE', *, *, #306, .T. ) ;
#304 = CALENDAR_DATE ( 2022, 10, 7 ) ;
#305 = CARTESIAN_POINT ( 'NONE',  ( -7.000000000000000000, 0.000000000000000000, 0.000000000000000000 ) ) ;
#306 = EDGE_CURVE ( 'NONE', #183, #181, #85, .T. ) ;
#307 = PERSON_AND_ORGANIZATION ( #138, #296 ) ;
#308 = SECURITY_CLASSIFICATION_LEVEL ( 'unclassified' ) ;
#309 = AXIS2_PLACEMENT_3D ( 'NONE', #151, #91, #53 ) ;
#310 = CYLINDRICAL_SURFACE ( 'NONE', #378, 4.000000000000000000 ) ;
#311 = APPROVAL ( #319, 'NEURÈENÝ' ) ;
#312 = APPROVAL_ROLE ( '' ) ;
#313 = CARTESIAN_POINT ( 'NONE',  ( 2.500000000000000000, 3.061616997868383141E-16, 255.0000000000000000 ) ) ;
#314 = CARTESIAN_POINT ( 'NONE',  ( -4.000000000000000000, 0.000000000000000000, 255.0000000000000000 ) ) ;
#315 = EDGE_CURVE ( 'NONE', #43, #31, #253, .T. ) ;
#316 = CARTESIAN_POINT ( 'NONE',  ( 0.000000000000000000, 0.000000000000000000, 5.000000000000000000 ) ) ;
#317 = CARTESIAN_POINT ( 'NONE',  ( 0.000000000000000000, 0.000000000000000000, 0.000000000000000000 ) ) ;
#318 = VERTEX_POINT ( 'NONE', #238 ) ;
#319 = APPROVAL_STATUS ( 'not_yet_approved' ) ;
#320 = DIRECTION ( 'NONE',  ( 0.000000000000000000, 0.000000000000000000, -1.000000000000000000 ) ) ;
#321 = ORIENTED_EDGE ( 'NONE', *, *, #210, .F. ) ;
#322 = TOROIDAL_SURFACE ( 'NONE', #23, 4.500000000000000888, 0.5000000000000000000 ) ;
#323 = CARTESIAN_POINT ( 'NONE',  ( 0.000000000000000000, 0.000000000000000000, 255.0000000000000000 ) ) ;
#324 = PLANE ( 'NONE',  #78 ) ;
#325 = ADVANCED_FACE ( 'NONE', ( #261 ), #327, .T. ) ;
#326 = ORIENTED_EDGE ( 'NONE', *, *, #298, .F. ) ;
#327 = CYLINDRICAL_SURFACE ( 'NONE', #184, 4.000000000000000000 ) ;
#328 = VERTEX_POINT ( 'NONE', #370 ) ;
#329 = CIRCLE ( 'NONE', #55, 4.000000000000000000 ) ;
#330 = FACE_OUTER_BOUND ( 'NONE', #12, .T. ) ;
#331 = ORIENTED_EDGE ( 'NONE', *, *, #194, .T. ) ;
#332 = CIRCLE ( 'NONE', #260, 7.000000000000000000 ) ;
#333 =( NAMED_UNIT ( * ) PLANE_ANGLE_UNIT ( ) SI_UNIT ( $, .RADIAN. ) );
#334 = CARTESIAN_POINT ( 'NONE',  ( 7.000000000000000000, 8.572527594031473190E-16, 5.000000000000000000 ) ) ;
#335 = DIRECTION ( 'NONE',  ( 1.224646799147353207E-16, 1.000000000000000000, -0.000000000000000000 ) ) ;
#336 = ORIENTED_EDGE ( 'NONE', *, *, #315, .T. ) ;
#337 = AXIS2_PLACEMENT_3D ( 'NONE', #60, #94, #156 ) ;
#338 = MECHANICAL_CONTEXT ( 'NONE', #132, 'mechanical' ) ;
#339 = EDGE_LOOP ( 'NONE', ( #14, #303, #225, #193 ) ) ;
#340 = DIRECTION ( 'NONE',  ( -1.000000000000000000, 1.224646799147351482E-16, 0.000000000000000000 ) ) ;
#341 = CARTESIAN_POINT ( 'NONE',  ( 4.500000000000000888, 0.000000000000000000, 5.000000000000002665 ) ) ;
#342 = COORDINATED_UNIVERSAL_TIME_OFFSET ( 1, 0, .AHEAD. ) ;
#343 = CARTESIAN_POINT ( 'NONE',  ( 4.000000000000000000, 4.898587196589412829E-16, 5.500000000000005329 ) ) ;
#344 = CALENDAR_DATE ( 2022, 10, 7 ) ;
#345 = LINE ( 'NONE', #375, #159 ) ;
#346 = DATE_AND_TIME ( #344, #70 ) ;
#347 = AXIS2_PLACEMENT_3D ( 'NONE', #245, #249, #247 ) ;
#348 = DIRECTION ( 'NONE',  ( 0.000000000000000000, 0.000000000000000000, 1.000000000000000000 ) ) ;
#349 = COORDINATED_UNIVERSAL_TIME_OFFSET ( 1, 0, .AHEAD. ) ;
#350 = FACE_OUTER_BOUND ( 'NONE', #213, .T. ) ;
#351 = FACE_BOUND ( 'NONE', #356, .T. ) ;
#352 = AXIS2_PLACEMENT_3D ( 'NONE', #294, #243, #34 ) ;
#353 = ORIENTED_EDGE ( 'NONE', *, *, #361, .T. ) ;
#354 = AXIS2_PLACEMENT_3D ( 'NONE', #110, #348, #204 ) ;
#355 = DIRECTION ( 'NONE',  ( 0.000000000000000000, 0.000000000000000000, 1.000000000000000000 ) ) ;
#356 = EDGE_LOOP ( 'NONE', ( #105, #295 ) ) ;
#357 = EDGE_CURVE ( 'NONE', #328, #206, #36, .T. ) ;
#358 = APPROVAL_ROLE ( '' ) ;
#359 = DIRECTION ( 'NONE',  ( -1.000000000000000000, 0.000000000000000000, 0.000000000000000000 ) ) ;
#360 = CIRCLE ( 'NONE', #7, 7.000000000000000000 ) ;
#361 = EDGE_CURVE ( 'NONE', #328, #318, #13, .T. ) ;
#362 = FACE_OUTER_BOUND ( 'NONE', #368, .T. ) ;
#363 = EDGE_LOOP ( 'NONE', ( #35, #192 ) ) ;
#364 = DIRECTION ( 'NONE',  ( 1.000000000000000000, 0.000000000000000000, 0.000000000000000000 ) ) ;
#365 = CARTESIAN_POINT ( 'NONE',  ( 0.000000000000000000, 0.000000000000000000, 5.500000000000005329 ) ) ;
#366 = LINE ( 'NONE', #334, #199 ) ;
#367 = LOCAL_TIME ( 11, 8, 55.00000000000000000, #342 ) ;
#368 = EDGE_LOOP ( 'NONE', ( #242, #140, #40, #326 ) ) ;
#369 = ADVANCED_FACE ( 'NONE', ( #330 ), #322, .F. ) ;
#370 = CARTESIAN_POINT ( 'NONE',  ( -4.000000000000000000, 0.000000000000000000, 5.500000000000005329 ) ) ;
#371 = CARTESIAN_POINT ( 'NONE',  ( 0.000000000000000000, 0.000000000000000000, 0.000000000000000000 ) ) ;
#372 = EDGE_CURVE ( 'NONE', #318, #61, #101, .T. ) ;
#373 = PERSON_AND_ORGANIZATION_ROLE ( 'design_owner' ) ;
#374 = CIRCLE ( 'NONE', #269, 0.5000000000000004441 ) ;
#375 = CARTESIAN_POINT ( 'NONE',  ( 2.500000000000000000, 3.061616997868383141E-16, 255.0000000000000000 ) ) ;
#376 = DIRECTION ( 'NONE',  ( -0.000000000000000000, -0.000000000000000000, -1.000000000000000000 ) ) ;
#377 = PLANE ( 'NONE',  #50 ) ;
#378 = AXIS2_PLACEMENT_3D ( 'NONE', #203, #376, #112 ) ;
#379 = DIRECTION ( 'NONE',  ( -0.000000000000000000, -0.000000000000000000, -1.000000000000000000 ) ) ;
#380 = COORDINATED_UNIVERSAL_TIME_OFFSET ( 1, 0, .AHEAD. ) ;
#381 = FACE_OUTER_BOUND ( 'NONE', #155, .T. ) ;
ENDSEC;
END-ISO-10303-21;
