ISO-10303-21;
HEADER;
FILE_DESCRIPTION (( 'STEP AP203' ),
    '1' );
FILE_NAME ('f86a.STEP',
    '2022-07-10T09:13:45',
    ( '' ),
    ( '' ),
    'SwSTEP 2.0',
    'SolidWorks 2019',
    '' );
FILE_SCHEMA (( 'CONFIG_CONTROL_DESIGN' ));
ENDSEC;

DATA;
#1 = VECTOR ( 'NONE', #278, 1000.000000000000000 ) ;
#2 = DIRECTION ( 'NONE',  ( 0.000000000000000000, 0.000000000000000000, 1.000000000000000000 ) ) ;
#3 = DIRECTION ( 'NONE',  ( 1.000000000000000000, 0.000000000000000000, 0.000000000000000000 ) ) ;
#4 = CYLINDRICAL_SURFACE ( 'NONE', #356, 3.000000000000000444 ) ;
#5 = AXIS2_PLACEMENT_3D ( 'NONE', #128, #156, #279 ) ;
#6 = VERTEX_POINT ( 'NONE', #344 ) ;
#7 = AXIS2_PLACEMENT_3D ( 'NONE', #157, #8, #13 ) ;
#8 = DIRECTION ( 'NONE',  ( 0.000000000000000000, 0.000000000000000000, 1.000000000000000000 ) ) ;
#9 = VERTEX_POINT ( 'NONE', #85 ) ;
#10 = CARTESIAN_POINT ( 'NONE',  ( -2.000000000000000000, 0.000000000000000000, 0.000000000000000000 ) ) ;
#11 = ORIENTED_EDGE ( 'NONE', *, *, #94, .F. ) ;
#12 = EDGE_CURVE ( 'NONE', #280, #245, #86, .T. ) ;
#13 = DIRECTION ( 'NONE',  ( 1.000000000000000000, 0.000000000000000000, 0.000000000000000000 ) ) ;
#14 = CIRCLE ( 'NONE', #273, 0.4999999999999995559 ) ;
#15 = COORDINATED_UNIVERSAL_TIME_OFFSET ( 1, 0, .AHEAD. ) ;
#16 = AXIS2_PLACEMENT_3D ( 'NONE', #29, #309, #93 ) ;
#17 = AXIS2_PLACEMENT_3D ( 'NONE', #67, #325, #179 ) ;
#18 = PERSON_AND_ORGANIZATION ( #295, #317 ) ;
#19 = CARTESIAN_POINT ( 'NONE',  ( -3.000000000000000444, 0.000000000000000000, 165.0000000000000000 ) ) ;
#20 = AXIS2_PLACEMENT_3D ( 'NONE', #153, #211, #361 ) ;
#21 = CC_DESIGN_PERSON_AND_ORGANIZATION_ASSIGNMENT ( #194, #192, ( #155 ) ) ;
#22 = CARTESIAN_POINT ( 'NONE',  ( 0.000000000000000000, 0.000000000000000000, 5.000000000000000000 ) ) ;
#23 = EDGE_LOOP ( 'NONE', ( #11, #315, #342, #266 ) ) ;
#24 = DATE_TIME_ROLE ( 'classification_date' ) ;
#25 = FACE_OUTER_BOUND ( 'NONE', #34, .T. ) ;
#26 = EDGE_CURVE ( 'NONE', #6, #280, #305, .T. ) ;
#27 = DIRECTION ( 'NONE',  ( 1.224646799147353207E-16, 1.000000000000000000, -0.000000000000000000 ) ) ;
#28 = DIRECTION ( 'NONE',  ( -0.000000000000000000, -0.000000000000000000, -1.000000000000000000 ) ) ;
#29 = CARTESIAN_POINT ( 'NONE',  ( 0.000000000000000000, 0.000000000000000000, 5.000000000000000000 ) ) ;
#30 = DIRECTION ( 'NONE',  ( -1.000000000000000000, 0.000000000000000000, 0.000000000000000000 ) ) ;
#31 = ORIENTED_EDGE ( 'NONE', *, *, #380, .T. ) ;
#32 = DIRECTION ( 'NONE',  ( -0.000000000000000000, -0.000000000000000000, -1.000000000000000000 ) ) ;
#33 = FACE_BOUND ( 'NONE', #113, .T. ) ;
#34 = EDGE_LOOP ( 'NONE', ( #267, #50 ) ) ;
#35 = SECURITY_CLASSIFICATION ( '', '', #372 ) ;
#36 = ADVANCED_FACE ( 'NONE', ( #255, #199 ), #290, .F. ) ;
#37 = ORIENTED_EDGE ( 'NONE', *, *, #57, .F. ) ;
#38 = CARTESIAN_POINT ( 'NONE',  ( 0.000000000000000000, 0.000000000000000000, 5.500000000000005329 ) ) ;
#39 = VERTEX_POINT ( 'NONE', #205 ) ;
#40 = APPLICATION_PROTOCOL_DEFINITION ( 'international standard', 'config_control_design', 1994, #297 ) ;
#41 = CIRCLE ( 'NONE', #123, 3.000000000000000444 ) ;
#42 = APPROVAL_STATUS ( 'not_yet_approved' ) ;
#43 =( NAMED_UNIT ( * ) PLANE_ANGLE_UNIT ( ) SI_UNIT ( $, .RADIAN. ) );
#44 = CARTESIAN_POINT ( 'NONE',  ( 0.000000000000000000, 0.000000000000000000, 165.0000000000000000 ) ) ;
#45 = COORDINATED_UNIVERSAL_TIME_OFFSET ( 1, 0, .AHEAD. ) ;
#46 = ORIENTED_EDGE ( 'NONE', *, *, #352, .T. ) ;
#47 = PERSON_AND_ORGANIZATION ( #295, #317 ) ;
#48 = CLOSED_SHELL ( 'NONE', ( #224, #254, #230, #204, #119, #135, #36, #263, #109, #277, #114 ) ) ;
#49 = LOCAL_TIME ( 11, 13, 45.00000000000000000, #15 ) ;
#50 = ORIENTED_EDGE ( 'NONE', *, *, #52, .T. ) ;
#51 = APPLICATION_CONTEXT ( 'configuration controlled 3d designs of mechanical parts and assemblies' ) ;
#52 = EDGE_CURVE ( 'NONE', #378, #110, #41, .T. ) ;
#53 = PERSON_AND_ORGANIZATION ( #295, #317 ) ;
#54 = CARTESIAN_POINT ( 'NONE',  ( 3.000000000000000444, 3.673940397442060361E-16, 165.0000000000000000 ) ) ;
#55 = AXIS2_PLACEMENT_3D ( 'NONE', #272, #331, #182 ) ;
#56 = CARTESIAN_POINT ( 'NONE',  ( 6.000000000000000888, 7.347880794884120722E-16, 5.000000000000000000 ) ) ;
#57 = EDGE_CURVE ( 'NONE', #378, #180, #318, .T. ) ;
#58 = APPROVAL_PERSON_ORGANIZATION ( #190, #149, #249 ) ;
#59 = DIRECTION ( 'NONE',  ( -1.000000000000000000, 1.224646799147354440E-16, 0.000000000000000000 ) ) ;
#60 = EDGE_LOOP ( 'NONE', ( #236, #145 ) ) ;
#61 = FACE_OUTER_BOUND ( 'NONE', #362, .T. ) ;
#62 = EDGE_CURVE ( 'NONE', #180, #9, #364, .T. ) ;
#63 = CARTESIAN_POINT ( 'NONE',  ( 0.000000000000000000, 0.000000000000000000, 165.0000000000000000 ) ) ;
#64 = CYLINDRICAL_SURFACE ( 'NONE', #55, 6.000000000000000888 ) ;
#65 = EDGE_LOOP ( 'NONE', ( #319, #116 ) ) ;
#66 = DIRECTION ( 'NONE',  ( -0.000000000000000000, -0.000000000000000000, -1.000000000000000000 ) ) ;
#67 = CARTESIAN_POINT ( 'NONE',  ( 0.000000000000000000, 0.000000000000000000, 165.0000000000000000 ) ) ;
#68 = ORIENTED_EDGE ( 'NONE', *, *, #375, .F. ) ;
#69 = DIRECTION ( 'NONE',  ( 1.000000000000000000, 0.000000000000000000, 0.000000000000000000 ) ) ;
#70 = APPROVAL ( #42, 'NEURÈENÝ' ) ;
#71 = DIRECTION ( 'NONE',  ( 1.000000000000000000, 0.000000000000000000, 0.000000000000000000 ) ) ;
#72 = ORIENTED_EDGE ( 'NONE', *, *, #12, .T. ) ;
#73 = DIRECTION ( 'NONE',  ( 1.000000000000000000, 0.000000000000000000, 0.000000000000000000 ) ) ;
#74 = VERTEX_POINT ( 'NONE', #321 ) ;
#75 = DATE_TIME_ROLE ( 'creation_date' ) ;
#76 = CARTESIAN_POINT ( 'NONE',  ( -2.000000000000000000, 0.000000000000000000, 165.0000000000000000 ) ) ;
#77 = AXIS2_PLACEMENT_3D ( 'NONE', #22, #231, #148 ) ;
#78 = DIRECTION ( 'NONE',  ( 1.000000000000000000, 0.000000000000000000, 0.000000000000000000 ) ) ;
#79 = AXIS2_PLACEMENT_3D ( 'NONE', #274, #127, #216 ) ;
#80 = MECHANICAL_CONTEXT ( 'NONE', #51, 'mechanical' ) ;
#81 = APPROVAL ( #174, 'NEURÈENÝ' ) ;
#82 = CARTESIAN_POINT ( 'NONE',  ( 0.000000000000000000, 0.000000000000000000, 165.0000000000000000 ) ) ;
#83 = PRODUCT_DEFINITION_SHAPE ( 'NONE', 'NONE',  #155 ) ;
#84 = VECTOR ( 'NONE', #333, 1000.000000000000000 ) ;
#85 = CARTESIAN_POINT ( 'NONE',  ( 3.500000000000000444, 0.000000000000000000, 5.000000000000002665 ) ) ;
#86 = LINE ( 'NONE', #56, #106 ) ;
#87 = COORDINATED_UNIVERSAL_TIME_OFFSET ( 1, 0, .AHEAD. ) ;
#88 = CC_DESIGN_DATE_AND_TIME_ASSIGNMENT ( #196, #75, ( #155 ) ) ;
#89 = DIRECTION ( 'NONE',  ( 1.000000000000000000, 0.000000000000000000, -0.000000000000000000 ) ) ;
#90 = APPROVAL_DATE_TIME ( #338, #149 ) ;
#91 = CARTESIAN_POINT ( 'NONE',  ( 0.000000000000000000, 0.000000000000000000, 0.000000000000000000 ) ) ;
#92 = CARTESIAN_POINT ( 'NONE',  ( 0.000000000000000000, 0.000000000000000000, 5.000000000000000000 ) ) ;
#93 = DIRECTION ( 'NONE',  ( 1.000000000000000000, 0.000000000000000000, 0.000000000000000000 ) ) ;
#94 = EDGE_CURVE ( 'NONE', #74, #322, #14, .T. ) ;
#95 = CARTESIAN_POINT ( 'NONE',  ( 0.000000000000000000, 0.000000000000000000, 0.000000000000000000 ) ) ;
#96 =( GEOMETRIC_REPRESENTATION_CONTEXT ( 3 ) GLOBAL_UNCERTAINTY_ASSIGNED_CONTEXT ( ( #329 ) ) GLOBAL_UNIT_ASSIGNED_CONTEXT ( ( #136, #43, #369 ) ) REPRESENTATION_CONTEXT ( 'NONE', 'WORKASPACE' ) );
#97 = CARTESIAN_POINT ( 'NONE',  ( -6.000000000000000888, 0.000000000000000000, 5.000000000000000000 ) ) ;
#98 = ORIENTED_EDGE ( 'NONE', *, *, #62, .F. ) ;
#99 = CARTESIAN_POINT ( 'NONE',  ( 0.000000000000000000, 0.000000000000000000, 165.0000000000000000 ) ) ;
#100 = DIRECTION ( 'NONE',  ( 0.000000000000000000, 0.000000000000000000, -1.000000000000000000 ) ) ;
#101 = FACE_OUTER_BOUND ( 'NONE', #371, .T. ) ;
#102 = CIRCLE ( 'NONE', #232, 3.500000000000000444 ) ;
#103 = APPROVAL_DATE_TIME ( #367, #70 ) ;
#104 = COORDINATED_UNIVERSAL_TIME_OFFSET ( 1, 0, .AHEAD. ) ;
#105 = AXIS2_PLACEMENT_3D ( 'NONE', #151, #100, #30 ) ;
#106 = VECTOR ( 'NONE', #350, 1000.000000000000000 ) ;
#107 = CARTESIAN_POINT ( 'NONE',  ( 0.000000000000000000, 0.000000000000000000, 0.000000000000000000 ) ) ;
#108 = AXIS2_PLACEMENT_3D ( 'NONE', #107, #228, #219 ) ;
#109 = ADVANCED_FACE ( 'NONE', ( #294, #25 ), #229, .T. ) ;
#110 = VERTEX_POINT ( 'NONE', #19 ) ;
#111 = PERSON_AND_ORGANIZATION_ROLE ( 'design_supplier' ) ;
#112 = CYLINDRICAL_SURFACE ( 'NONE', #105, 2.000000000000000000 ) ;
#113 = EDGE_LOOP ( 'NONE', ( #159, #130 ) ) ;
#114 = ADVANCED_FACE ( 'NONE', ( #373 ), #112, .F. ) ;
#115 = DIRECTION ( 'NONE',  ( -0.000000000000000000, -0.000000000000000000, -1.000000000000000000 ) ) ;
#116 = ORIENTED_EDGE ( 'NONE', *, *, #217, .F. ) ;
#117 = VECTOR ( 'NONE', #115, 1000.000000000000000 ) ;
#118 = PLANE ( 'NONE',  #5 ) ;
#119 = ADVANCED_FACE ( 'NONE', ( #302 ), #307, .T. ) ;
#120 = CARTESIAN_POINT ( 'NONE',  ( 0.000000000000000000, 0.000000000000000000, 0.000000000000000000 ) ) ;
#121 = CARTESIAN_POINT ( 'NONE',  ( 2.000000000000000000, 2.449293598294706414E-16, 0.000000000000000000 ) ) ;
#122 = CARTESIAN_POINT ( 'NONE',  ( 0.000000000000000000, 0.000000000000000000, 5.000000000000000000 ) ) ;
#123 = AXIS2_PLACEMENT_3D ( 'NONE', #141, #349, #175 ) ;
#124 = CARTESIAN_POINT ( 'NONE',  ( 0.000000000000000000, 0.000000000000000000, 5.500000000000005329 ) ) ;
#125 = LOCAL_TIME ( 11, 13, 45.00000000000000000, #45 ) ;
#126 = ORIENTED_EDGE ( 'NONE', *, *, #164, .F. ) ;
#127 = DIRECTION ( 'NONE',  ( 0.000000000000000000, 0.000000000000000000, 1.000000000000000000 ) ) ;
#128 = CARTESIAN_POINT ( 'NONE',  ( 0.000000000000000000, 0.000000000000000000, 5.000000000000000000 ) ) ;
#129 = DESIGN_CONTEXT ( 'detailed design', #297, 'design' ) ;
#130 = ORIENTED_EDGE ( 'NONE', *, *, #200, .T. ) ;
#131 = ORIENTED_EDGE ( 'NONE', *, *, #375, .T. ) ;
#132 = DIRECTION ( 'NONE',  ( -1.000000000000000000, 0.000000000000000000, 0.000000000000000000 ) ) ;
#133 = CIRCLE ( 'NONE', #283, 3.000000000000000444 ) ;
#134 = CALENDAR_DATE ( 2022, 10, 7 ) ;
#135 = ADVANCED_FACE ( 'NONE', ( #33, #206 ), #118, .T. ) ;
#136 =( LENGTH_UNIT ( ) NAMED_UNIT ( * ) SI_UNIT ( .MILLI., .METRE. ) );
#137 = AXIS2_PLACEMENT_3D ( 'NONE', #44, #221, #250 ) ;
#138 = EDGE_CURVE ( 'NONE', #245, #247, #320, .T. ) ;
#139 = VECTOR ( 'NONE', #212, 1000.000000000000000 ) ;
#140 = PERSON_AND_ORGANIZATION ( #295, #317 ) ;
#141 = CARTESIAN_POINT ( 'NONE',  ( 0.000000000000000000, 0.000000000000000000, 165.0000000000000000 ) ) ;
#142 = MANIFOLD_SOLID_BREP ( 'Odebrat vysunutím3', #48 ) ;
#143 = CARTESIAN_POINT ( 'NONE',  ( 3.500000000000000444, 0.000000000000000000, 5.500000000000005329 ) ) ;
#144 = LOCAL_TIME ( 11, 13, 45.00000000000000000, #265 ) ;
#145 = ORIENTED_EDGE ( 'NONE', *, *, #352, .F. ) ;
#146 = ORIENTED_EDGE ( 'NONE', *, *, #341, .F. ) ;
#147 = APPROVAL_DATE_TIME ( #177, #81 ) ;
#148 = DIRECTION ( 'NONE',  ( 1.000000000000000000, 0.000000000000000000, 0.000000000000000000 ) ) ;
#149 = APPROVAL ( #311, 'NEURÈENÝ' ) ;
#150 = LOCAL_TIME ( 11, 13, 45.00000000000000000, #87 ) ;
#151 = CARTESIAN_POINT ( 'NONE',  ( 0.000000000000000000, 0.000000000000000000, 165.0000000000000000 ) ) ;
#152 = CARTESIAN_POINT ( 'NONE',  ( 0.000000000000000000, 0.000000000000000000, 165.0000000000000000 ) ) ;
#153 = CARTESIAN_POINT ( 'NONE',  ( 0.000000000000000000, 0.000000000000000000, 0.000000000000000000 ) ) ;
#154 = DIRECTION ( 'NONE',  ( 1.000000000000000000, 0.000000000000000000, 0.000000000000000000 ) ) ;
#155 = PRODUCT_DEFINITION ( 'NEZNÁMÝ', '', #261, #129 ) ;
#156 = DIRECTION ( 'NONE',  ( 0.000000000000000000, 0.000000000000000000, 1.000000000000000000 ) ) ;
#157 = CARTESIAN_POINT ( 'NONE',  ( 0.000000000000000000, 0.000000000000000000, 5.500000000000005329 ) ) ;
#158 = DIRECTION ( 'NONE',  ( 1.000000000000000000, 0.000000000000000000, 0.000000000000000000 ) ) ;
#159 = ORIENTED_EDGE ( 'NONE', *, *, #241, .T. ) ;
#160 = LINE ( 'NONE', #244, #1 ) ;
#161 = DIRECTION ( 'NONE',  ( -1.000000000000000000, 0.000000000000000000, 0.000000000000000000 ) ) ;
#162 = ORIENTED_EDGE ( 'NONE', *, *, #57, .T. ) ;
#163 = ORIENTED_EDGE ( 'NONE', *, *, #312, .F. ) ;
#164 = EDGE_CURVE ( 'NONE', #110, #378, #256, .T. ) ;
#165 = PERSON_AND_ORGANIZATION_ROLE ( 'design_owner' ) ;
#166 = EDGE_LOOP ( 'NONE', ( #37, #126, #168, #195 ) ) ;
#167 = CIRCLE ( 'NONE', #108, 6.000000000000000888 ) ;
#168 = ORIENTED_EDGE ( 'NONE', *, *, #346, .T. ) ;
#169 = EDGE_LOOP ( 'NONE', ( #146, #72, #287, #68 ) ) ;
#170 = ORIENTED_EDGE ( 'NONE', *, *, #341, .T. ) ;
#171 = PERSON_AND_ORGANIZATION_ROLE ( 'creator' ) ;
#172 = CC_DESIGN_APPROVAL ( #149, ( #261 ) ) ;
#173 = ORIENTED_EDGE ( 'NONE', *, *, #26, .T. ) ;
#174 = APPROVAL_STATUS ( 'not_yet_approved' ) ;
#175 = DIRECTION ( 'NONE',  ( 1.000000000000000000, 0.000000000000000000, 0.000000000000000000 ) ) ;
#176 = CC_DESIGN_PERSON_AND_ORGANIZATION_ASSIGNMENT ( #140, #111, ( #261 ) ) ;
#177 = DATE_AND_TIME ( #257, #144 ) ;
#178 = LOCAL_TIME ( 11, 13, 45.00000000000000000, #104 ) ;
#179 = DIRECTION ( 'NONE',  ( 1.000000000000000000, 0.000000000000000000, 0.000000000000000000 ) ) ;
#180 = VERTEX_POINT ( 'NONE', #276 ) ;
#181 = CYLINDRICAL_SURFACE ( 'NONE', #226, 3.000000000000000444 ) ;
#182 = DIRECTION ( 'NONE',  ( -1.000000000000000000, 0.000000000000000000, 0.000000000000000000 ) ) ;
#183 = ORIENTED_EDGE ( 'NONE', *, *, #188, .T. ) ;
#184 = DIRECTION ( 'NONE',  ( -0.000000000000000000, -0.000000000000000000, -1.000000000000000000 ) ) ;
#185 = CC_DESIGN_SECURITY_CLASSIFICATION ( #35, ( #261 ) ) ;
#186 = ORIENTED_EDGE ( 'NONE', *, *, #312, .T. ) ;
#187 = CARTESIAN_POINT ( 'NONE',  ( -3.500000000000000444, 4.286263797015737088E-16, 5.000000000000002665 ) ) ;
#188 = EDGE_CURVE ( 'NONE', #227, #202, #354, .T. ) ;
#189 = ORIENTED_EDGE ( 'NONE', *, *, #298, .F. ) ;
#190 = PERSON_AND_ORGANIZATION ( #295, #317 ) ;
#191 = CIRCLE ( 'NONE', #16, 6.000000000000000888 ) ;
#192 = PERSON_AND_ORGANIZATION_ROLE ( 'creator' ) ;
#193 = CC_DESIGN_PERSON_AND_ORGANIZATION_ASSIGNMENT ( #234, #171, ( #261 ) ) ;
#194 = PERSON_AND_ORGANIZATION ( #295, #317 ) ;
#195 = ORIENTED_EDGE ( 'NONE', *, *, #208, .T. ) ;
#196 = DATE_AND_TIME ( #134, #125 ) ;
#197 = DIRECTION ( 'NONE',  ( 0.000000000000000000, 0.000000000000000000, 1.000000000000000000 ) ) ;
#198 = AXIS2_PLACEMENT_3D ( 'NONE', #143, #258, #235 ) ;
#199 = FACE_OUTER_BOUND ( 'NONE', #335, .T. ) ;
#200 = EDGE_CURVE ( 'NONE', #322, #9, #238, .T. ) ;
#201 = ORIENTED_EDGE ( 'NONE', *, *, #380, .F. ) ;
#202 = VERTEX_POINT ( 'NONE', #121 ) ;
#203 = DATE_AND_TIME ( #293, #150 ) ;
#204 = ADVANCED_FACE ( 'NONE', ( #214 ), #64, .T. ) ;
#205 = CARTESIAN_POINT ( 'NONE',  ( 2.000000000000000000, 2.449293598294706414E-16, 165.0000000000000000 ) ) ;
#206 = FACE_OUTER_BOUND ( 'NONE', #215, .T. ) ;
#207 = LINE ( 'NONE', #300, #345 ) ;
#208 = EDGE_CURVE ( 'NONE', #74, #180, #223, .T. ) ;
#209 = DIRECTION ( 'NONE',  ( 1.000000000000000000, 0.000000000000000000, 0.000000000000000000 ) ) ;
#210 = TOROIDAL_SURFACE ( 'NONE', #79, 3.500000000000000444, 0.5000000000000000000 ) ;
#211 = DIRECTION ( 'NONE',  ( -0.000000000000000000, -0.000000000000000000, -1.000000000000000000 ) ) ;
#212 = DIRECTION ( 'NONE',  ( -0.000000000000000000, -0.000000000000000000, -1.000000000000000000 ) ) ;
#213 = VERTEX_POINT ( 'NONE', #76 ) ;
#214 = FACE_OUTER_BOUND ( 'NONE', #169, .T. ) ;
#215 = EDGE_LOOP ( 'NONE', ( #173, #170 ) ) ;
#216 = DIRECTION ( 'NONE',  ( 1.000000000000000000, 0.000000000000000000, 0.000000000000000000 ) ) ;
#217 = EDGE_CURVE ( 'NONE', #39, #213, #368, .T. ) ;
#218 = AXIS2_PLACEMENT_3D ( 'NONE', #284, #340, #78 ) ;
#219 = DIRECTION ( 'NONE',  ( 1.000000000000000000, 0.000000000000000000, 0.000000000000000000 ) ) ;
#220 = PRODUCT ( 'f86a', 'f86a', '', ( #80 ) ) ;
#221 = DIRECTION ( 'NONE',  ( 0.000000000000000000, 0.000000000000000000, 1.000000000000000000 ) ) ;
#222 = CALENDAR_DATE ( 2022, 10, 7 ) ;
#223 = CIRCLE ( 'NONE', #270, 3.000000000000000444 ) ;
#224 = ADVANCED_FACE ( 'NONE', ( #101 ), #268, .F. ) ;
#225 = AXIS2_PLACEMENT_3D ( 'NONE', #92, #327, #161 ) ;
#226 = AXIS2_PLACEMENT_3D ( 'NONE', #281, #184, #306 ) ;
#227 = VERTEX_POINT ( 'NONE', #10 ) ;
#228 = DIRECTION ( 'NONE',  ( 0.000000000000000000, 0.000000000000000000, 1.000000000000000000 ) ) ;
#229 = PLANE ( 'NONE',  #259 ) ;
#230 = ADVANCED_FACE ( 'NONE', ( #61 ), #181, .T. ) ;
#231 = DIRECTION ( 'NONE',  ( 0.000000000000000000, 0.000000000000000000, 1.000000000000000000 ) ) ;
#232 = AXIS2_PLACEMENT_3D ( 'NONE', #122, #32, #73 ) ;
#233 = ORIENTED_EDGE ( 'NONE', *, *, #94, .T. ) ;
#234 = PERSON_AND_ORGANIZATION ( #295, #317 ) ;
#235 = DIRECTION ( 'NONE',  ( 0.000000000000000000, 0.000000000000000000, -1.000000000000000000 ) ) ;
#236 = ORIENTED_EDGE ( 'NONE', *, *, #188, .F. ) ;
#237 = DIRECTION ( 'NONE',  ( 0.000000000000000000, 0.000000000000000000, 1.000000000000000000 ) ) ;
#238 = CIRCLE ( 'NONE', #289, 3.500000000000000444 ) ;
#239 = DIRECTION ( 'NONE',  ( 0.000000000000000000, 0.000000000000000000, -1.000000000000000000 ) ) ;
#240 = DIRECTION ( 'NONE',  ( -0.000000000000000000, -0.000000000000000000, -1.000000000000000000 ) ) ;
#241 = EDGE_CURVE ( 'NONE', #9, #322, #102, .T. ) ;
#242 = CARTESIAN_POINT ( 'NONE',  ( -2.000000000000000000, 0.000000000000000000, 165.0000000000000000 ) ) ;
#243 = ORIENTED_EDGE ( 'NONE', *, *, #366, .T. ) ;
#244 = CARTESIAN_POINT ( 'NONE',  ( 2.000000000000000000, 2.449293598294706414E-16, 165.0000000000000000 ) ) ;
#245 = VERTEX_POINT ( 'NONE', #363 ) ;
#246 = CC_DESIGN_PERSON_AND_ORGANIZATION_ASSIGNMENT ( #47, #165, ( #220 ) ) ;
#247 = VERTEX_POINT ( 'NONE', #324 ) ;
#248 = APPROVAL_ROLE ( '' ) ;
#249 = APPROVAL_ROLE ( '' ) ;
#250 = DIRECTION ( 'NONE',  ( 1.000000000000000000, 0.000000000000000000, 0.000000000000000000 ) ) ;
#251 = ADVANCED_BREP_SHAPE_REPRESENTATION ( 'f86a', ( #142, #218 ), #96 ) ;
#252 = APPROVAL_PERSON_ORGANIZATION ( #18, #70, #248 ) ;
#253 = ORIENTED_EDGE ( 'NONE', *, *, #217, .T. ) ;
#254 = ADVANCED_FACE ( 'NONE', ( #301 ), #339, .F. ) ;
#255 = FACE_BOUND ( 'NONE', #60, .T. ) ;
#256 = CIRCLE ( 'NONE', #17, 3.000000000000000444 ) ;
#257 = CALENDAR_DATE ( 2022, 10, 7 ) ;
#258 = DIRECTION ( 'NONE',  ( 0.000000000000000000, -1.000000000000000000, 0.000000000000000000 ) ) ;
#259 = AXIS2_PLACEMENT_3D ( 'NONE', #82, #197, #316 ) ;
#260 = AXIS2_PLACEMENT_3D ( 'NONE', #95, #28, #209 ) ;
#261 = PRODUCT_DEFINITION_FORMATION_WITH_SPECIFIED_SOURCE ( 'LIBOVOLNÝ', '', #220, .NOT_KNOWN. ) ;
#262 = DIRECTION ( 'NONE',  ( 0.000000000000000000, 0.000000000000000000, 1.000000000000000000 ) ) ;
#263 = ADVANCED_FACE ( 'NONE', ( #326 ), #4, .T. ) ;
#264 = AXIS2_PLACEMENT_3D ( 'NONE', #120, #237, #158 ) ;
#265 = COORDINATED_UNIVERSAL_TIME_OFFSET ( 1, 0, .AHEAD. ) ;
#266 = ORIENTED_EDGE ( 'NONE', *, *, #200, .F. ) ;
#267 = ORIENTED_EDGE ( 'NONE', *, *, #164, .T. ) ;
#268 = CYLINDRICAL_SURFACE ( 'NONE', #285, 2.000000000000000000 ) ;
#269 = CARTESIAN_POINT ( 'NONE',  ( 0.000000000000000000, 0.000000000000000000, 5.000000000000000000 ) ) ;
#270 = AXIS2_PLACEMENT_3D ( 'NONE', #124, #358, #71 ) ;
#271 = DIRECTION ( 'NONE',  ( 0.000000000000000000, 0.000000000000000000, 1.000000000000000000 ) ) ;
#272 = CARTESIAN_POINT ( 'NONE',  ( 0.000000000000000000, 0.000000000000000000, 5.000000000000000000 ) ) ;
#273 = AXIS2_PLACEMENT_3D ( 'NONE', #296, #27, #59 ) ;
#274 = CARTESIAN_POINT ( 'NONE',  ( 0.000000000000000000, 0.000000000000000000, 5.500000000000005329 ) ) ;
#275 = CC_DESIGN_APPROVAL ( #81, ( #35 ) ) ;
#276 = CARTESIAN_POINT ( 'NONE',  ( 3.000000000000000444, 3.673940397442060361E-16, 5.500000000000005329 ) ) ;
#277 = ADVANCED_FACE ( 'NONE', ( #360 ), #210, .F. ) ;
#278 = DIRECTION ( 'NONE',  ( 0.000000000000000000, 0.000000000000000000, -1.000000000000000000 ) ) ;
#279 = DIRECTION ( 'NONE',  ( 1.000000000000000000, 0.000000000000000000, -0.000000000000000000 ) ) ;
#280 = VERTEX_POINT ( 'NONE', #353 ) ;
#281 = CARTESIAN_POINT ( 'NONE',  ( 0.000000000000000000, 0.000000000000000000, 165.0000000000000000 ) ) ;
#282 = ORIENTED_EDGE ( 'NONE', *, *, #138, .F. ) ;
#283 = AXIS2_PLACEMENT_3D ( 'NONE', #38, #271, #69 ) ;
#284 = CARTESIAN_POINT ( 'NONE',  ( 0.000000000000000000, 0.000000000000000000, 0.000000000000000000 ) ) ;
#285 = AXIS2_PLACEMENT_3D ( 'NONE', #99, #239, #303 ) ;
#286 = CC_DESIGN_PERSON_AND_ORGANIZATION_ASSIGNMENT ( #348, #377, ( #35 ) ) ;
#287 = ORIENTED_EDGE ( 'NONE', *, *, #138, .T. ) ;
#288 = APPROVAL_ROLE ( '' ) ;
#289 = AXIS2_PLACEMENT_3D ( 'NONE', #269, #240, #3 ) ;
#290 = PLANE ( 'NONE',  #292 ) ;
#291 = ORIENTED_EDGE ( 'NONE', *, *, #346, .F. ) ;
#292 = AXIS2_PLACEMENT_3D ( 'NONE', #91, #262, #89 ) ;
#293 = CALENDAR_DATE ( 2022, 10, 7 ) ;
#294 = FACE_BOUND ( 'NONE', #65, .T. ) ;
#295 = PERSON ( 'NEURÈENÝ', 'NEURÈENÝ', 'NEURÈENÝ', ('NEURÈENÝ'), ('NEURÈENÝ'), ('NEURÈENÝ') ) ;
#296 = CARTESIAN_POINT ( 'NONE',  ( -3.500000000000000444, 4.286263797015737088E-16, 5.500000000000005329 ) ) ;
#297 = APPLICATION_CONTEXT ( 'configuration controlled 3d designs of mechanical parts and assemblies' ) ;
#298 = EDGE_CURVE ( 'NONE', #213, #227, #330, .T. ) ;
#299 = CC_DESIGN_APPROVAL ( #70, ( #155 ) ) ;
#300 = CARTESIAN_POINT ( 'NONE',  ( -3.000000000000000444, 0.000000000000000000, 165.0000000000000000 ) ) ;
#301 = FACE_OUTER_BOUND ( 'NONE', #359, .T. ) ;
#302 = FACE_OUTER_BOUND ( 'NONE', #381, .T. ) ;
#303 = DIRECTION ( 'NONE',  ( -1.000000000000000000, 0.000000000000000000, 0.000000000000000000 ) ) ;
#304 = ORIENTED_EDGE ( 'NONE', *, *, #12, .F. ) ;
#305 = CIRCLE ( 'NONE', #77, 6.000000000000000888 ) ;
#306 = DIRECTION ( 'NONE',  ( -1.000000000000000000, 0.000000000000000000, 0.000000000000000000 ) ) ;
#307 = CYLINDRICAL_SURFACE ( 'NONE', #225, 6.000000000000000888 ) ;
#308 = ORIENTED_EDGE ( 'NONE', *, *, #208, .F. ) ;
#309 = DIRECTION ( 'NONE',  ( 0.000000000000000000, 0.000000000000000000, 1.000000000000000000 ) ) ;
#310 = ORIENTED_EDGE ( 'NONE', *, *, #26, .F. ) ;
#311 = APPROVAL_STATUS ( 'not_yet_approved' ) ;
#312 = EDGE_CURVE ( 'NONE', #39, #202, #160, .T. ) ;
#313 = APPROVAL_PERSON_ORGANIZATION ( #53, #81, #288 ) ;
#314 = EDGE_CURVE ( 'NONE', #180, #74, #133, .T. ) ;
#315 = ORIENTED_EDGE ( 'NONE', *, *, #314, .F. ) ;
#316 = DIRECTION ( 'NONE',  ( 1.000000000000000000, 0.000000000000000000, -0.000000000000000000 ) ) ;
#317 = ORGANIZATION ( 'NEURÈENÝ', 'NEURÈENÝ', '' ) ;
#318 = LINE ( 'NONE', #54, #117 ) ;
#319 = ORIENTED_EDGE ( 'NONE', *, *, #366, .F. ) ;
#320 = CIRCLE ( 'NONE', #264, 6.000000000000000888 ) ;
#321 = CARTESIAN_POINT ( 'NONE',  ( -3.000000000000000444, 0.000000000000000000, 5.500000000000005329 ) ) ;
#322 = VERTEX_POINT ( 'NONE', #187 ) ;
#323 = PRODUCT_RELATED_PRODUCT_CATEGORY ( 'detail', '', ( #220 ) ) ;
#324 = CARTESIAN_POINT ( 'NONE',  ( -6.000000000000000888, 0.000000000000000000, 0.000000000000000000 ) ) ;
#325 = DIRECTION ( 'NONE',  ( 0.000000000000000000, 0.000000000000000000, 1.000000000000000000 ) ) ;
#326 = FACE_OUTER_BOUND ( 'NONE', #166, .T. ) ;
#327 = DIRECTION ( 'NONE',  ( -0.000000000000000000, -0.000000000000000000, -1.000000000000000000 ) ) ;
#328 = CARTESIAN_POINT ( 'NONE',  ( 3.000000000000000444, 3.673940397442060361E-16, 165.0000000000000000 ) ) ;
#329 = UNCERTAINTY_MEASURE_WITH_UNIT (LENGTH_MEASURE( 1.000000000000000082E-05 ), #136, 'distance_accuracy_value', 'NONE');
#330 = LINE ( 'NONE', #242, #84 ) ;
#331 = DIRECTION ( 'NONE',  ( -0.000000000000000000, -0.000000000000000000, -1.000000000000000000 ) ) ;
#332 = ORIENTED_EDGE ( 'NONE', *, *, #314, .T. ) ;
#333 = DIRECTION ( 'NONE',  ( 0.000000000000000000, 0.000000000000000000, -1.000000000000000000 ) ) ;
#334 = CIRCLE ( 'NONE', #351, 2.000000000000000000 ) ;
#335 = EDGE_LOOP ( 'NONE', ( #201, #282 ) ) ;
#336 = APPLICATION_PROTOCOL_DEFINITION ( 'international standard', 'config_control_design', 1994, #51 ) ;
#337 = CC_DESIGN_DATE_AND_TIME_ASSIGNMENT ( #203, #24, ( #35 ) ) ;
#338 = DATE_AND_TIME ( #222, #178 ) ;
#339 = TOROIDAL_SURFACE ( 'NONE', #7, 3.500000000000000444, 0.5000000000000000000 ) ;
#340 = DIRECTION ( 'NONE',  ( 0.000000000000000000, 0.000000000000000000, 1.000000000000000000 ) ) ;
#341 = EDGE_CURVE ( 'NONE', #280, #6, #191, .T. ) ;
#342 = ORIENTED_EDGE ( 'NONE', *, *, #62, .T. ) ;
#343 = EDGE_LOOP ( 'NONE', ( #163, #253, #376, #183 ) ) ;
#344 = CARTESIAN_POINT ( 'NONE',  ( -6.000000000000000888, 0.000000000000000000, 5.000000000000000000 ) ) ;
#345 = VECTOR ( 'NONE', #66, 1000.000000000000000 ) ;
#346 = EDGE_CURVE ( 'NONE', #110, #74, #207, .T. ) ;
#347 = ORIENTED_EDGE ( 'NONE', *, *, #241, .F. ) ;
#348 = PERSON_AND_ORGANIZATION ( #295, #317 ) ;
#349 = DIRECTION ( 'NONE',  ( 0.000000000000000000, 0.000000000000000000, 1.000000000000000000 ) ) ;
#350 = DIRECTION ( 'NONE',  ( -0.000000000000000000, -0.000000000000000000, -1.000000000000000000 ) ) ;
#351 = AXIS2_PLACEMENT_3D ( 'NONE', #152, #2, #154 ) ;
#352 = EDGE_CURVE ( 'NONE', #202, #227, #370, .T. ) ;
#353 = CARTESIAN_POINT ( 'NONE',  ( 6.000000000000000888, 7.347880794884120722E-16, 5.000000000000000000 ) ) ;
#354 = CIRCLE ( 'NONE', #20, 2.000000000000000000 ) ;
#355 = DIRECTION ( 'NONE',  ( -0.000000000000000000, -0.000000000000000000, -1.000000000000000000 ) ) ;
#356 = AXIS2_PLACEMENT_3D ( 'NONE', #63, #355, #132 ) ;
#357 = LINE ( 'NONE', #97, #139 ) ;
#358 = DIRECTION ( 'NONE',  ( 0.000000000000000000, 0.000000000000000000, 1.000000000000000000 ) ) ;
#359 = EDGE_LOOP ( 'NONE', ( #308, #233, #347, #98 ) ) ;
#360 = FACE_OUTER_BOUND ( 'NONE', #23, .T. ) ;
#361 = DIRECTION ( 'NONE',  ( 1.000000000000000000, 0.000000000000000000, 0.000000000000000000 ) ) ;
#362 = EDGE_LOOP ( 'NONE', ( #379, #162, #332, #291 ) ) ;
#363 = CARTESIAN_POINT ( 'NONE',  ( 6.000000000000000888, 7.347880794884120722E-16, 0.000000000000000000 ) ) ;
#364 = CIRCLE ( 'NONE', #198, 0.5000000000000004441 ) ;
#365 = CALENDAR_DATE ( 2022, 10, 7 ) ;
#366 = EDGE_CURVE ( 'NONE', #213, #39, #334, .T. ) ;
#367 = DATE_AND_TIME ( #365, #49 ) ;
#368 = CIRCLE ( 'NONE', #137, 2.000000000000000000 ) ;
#369 =( NAMED_UNIT ( * ) SI_UNIT ( $, .STERADIAN. ) SOLID_ANGLE_UNIT ( ) );
#370 = CIRCLE ( 'NONE', #260, 2.000000000000000000 ) ;
#371 = EDGE_LOOP ( 'NONE', ( #243, #186, #46, #189 ) ) ;
#372 = SECURITY_CLASSIFICATION_LEVEL ( 'unclassified' ) ;
#373 = FACE_OUTER_BOUND ( 'NONE', #343, .T. ) ;
#374 = SHAPE_DEFINITION_REPRESENTATION ( #83, #251 ) ;
#375 = EDGE_CURVE ( 'NONE', #6, #247, #357, .T. ) ;
#376 = ORIENTED_EDGE ( 'NONE', *, *, #298, .T. ) ;
#377 = PERSON_AND_ORGANIZATION_ROLE ( 'classification_officer' ) ;
#378 = VERTEX_POINT ( 'NONE', #328 ) ;
#379 = ORIENTED_EDGE ( 'NONE', *, *, #52, .F. ) ;
#380 = EDGE_CURVE ( 'NONE', #247, #245, #167, .T. ) ;
#381 = EDGE_LOOP ( 'NONE', ( #304, #310, #131, #31 ) ) ;
ENDSEC;
END-ISO-10303-21;
