ISO-10303-21;
HEADER;
FILE_DESCRIPTION (( 'STEP AP203' ),
    '1' );
FILE_NAME ('cdfd.STEP',
    '2022-07-10T09:18:20',
    ( '' ),
    ( '' ),
    'SwSTEP 2.0',
    'SolidWorks 2019',
    '' );
FILE_SCHEMA (( 'CONFIG_CONTROL_DESIGN' ));
ENDSEC;

DATA;
#1 = AXIS2_PLACEMENT_3D ( 'NONE', #120, #63, #3 ) ;
#2 = AXIS2_PLACEMENT_3D ( 'NONE', #301, #11, #331 ) ;
#3 = DIRECTION ( 'NONE',  ( 1.000000000000000000, 0.000000000000000000, 0.000000000000000000 ) ) ;
#4 = EDGE_CURVE ( 'NONE', #155, #91, #256, .T. ) ;
#5 = FACE_OUTER_BOUND ( 'NONE', #258, .T. ) ;
#6 = PRODUCT ( 'cdfd', 'cdfd', '', ( #52 ) ) ;
#7 = DIRECTION ( 'NONE',  ( 0.000000000000000000, 0.000000000000000000, 1.000000000000000000 ) ) ;
#8 = AXIS2_PLACEMENT_3D ( 'NONE', #363, #305, #277 ) ;
#9 = FACE_OUTER_BOUND ( 'NONE', #50, .T. ) ;
#10 = CYLINDRICAL_SURFACE ( 'NONE', #280, 1.500000000000000222 ) ;
#11 = DIRECTION ( 'NONE',  ( -0.000000000000000000, -0.000000000000000000, -1.000000000000000000 ) ) ;
#12 = ORIENTED_EDGE ( 'NONE', *, *, #141, .F. ) ;
#13 = CYLINDRICAL_SURFACE ( 'NONE', #376, 2.500000000000000000 ) ;
#14 = CIRCLE ( 'NONE', #8, 2.500000000000000000 ) ;
#15 = ADVANCED_FACE ( 'NONE', ( #310 ), #55, .F. ) ;
#16 = DIRECTION ( 'NONE',  ( 1.000000000000000000, 0.000000000000000000, 0.000000000000000000 ) ) ;
#17 = ORIENTED_EDGE ( 'NONE', *, *, #341, .T. ) ;
#18 = AXIS2_PLACEMENT_3D ( 'NONE', #144, #316, #261 ) ;
#19 = FACE_OUTER_BOUND ( 'NONE', #219, .T. ) ;
#20 = ORIENTED_EDGE ( 'NONE', *, *, #4, .F. ) ;
#21 = PERSON_AND_ORGANIZATION ( #105, #157 ) ;
#22 = ORIENTED_EDGE ( 'NONE', *, *, #341, .F. ) ;
#23 = VECTOR ( 'NONE', #130, 1000.000000000000000 ) ;
#24 = APPROVAL_DATE_TIME ( #227, #30 ) ;
#25 = CARTESIAN_POINT ( 'NONE',  ( -2.500000000000000000, 0.000000000000000000, 78.00000000000000000 ) ) ;
#26 = PERSON_AND_ORGANIZATION_ROLE ( 'creator' ) ;
#27 = CARTESIAN_POINT ( 'NONE',  ( -1.500000000000000222, 0.000000000000000000, 78.00000000000000000 ) ) ;
#28 = APPROVAL_STATUS ( 'not_yet_approved' ) ;
#29 = EDGE_LOOP ( 'NONE', ( #185, #271, #133, #223 ) ) ;
#30 = APPROVAL ( #28, 'NEURÈENÝ' ) ;
#31 = PERSON_AND_ORGANIZATION ( #105, #157 ) ;
#32 = VERTEX_POINT ( 'NONE', #27 ) ;
#33 = LINE ( 'NONE', #323, #68 ) ;
#34 = EDGE_CURVE ( 'NONE', #32, #333, #300, .T. ) ;
#35 = LOCAL_TIME ( 11, 18, 20.00000000000000000, #139 ) ;
#36 = CARTESIAN_POINT ( 'NONE',  ( 0.000000000000000000, 0.000000000000000000, 0.000000000000000000 ) ) ;
#37 = CARTESIAN_POINT ( 'NONE',  ( -2.500000000000000000, 0.000000000000000000, 78.00000000000000000 ) ) ;
#38 = ORIENTED_EDGE ( 'NONE', *, *, #115, .T. ) ;
#39 = CARTESIAN_POINT ( 'NONE',  ( 0.000000000000000000, 0.000000000000000000, 78.00000000000000000 ) ) ;
#40 = LOCAL_TIME ( 11, 18, 20.00000000000000000, #260 ) ;
#41 = CARTESIAN_POINT ( 'NONE',  ( -1.500000000000000222, 0.000000000000000000, 0.000000000000000000 ) ) ;
#42 = DIRECTION ( 'NONE',  ( -0.000000000000000000, -0.000000000000000000, -1.000000000000000000 ) ) ;
#43 = CARTESIAN_POINT ( 'NONE',  ( 5.000000000000000000, 6.123233995736766282E-16, 3.000000000000000000 ) ) ;
#44 = ORIENTED_EDGE ( 'NONE', *, *, #224, .F. ) ;
#45 = CIRCLE ( 'NONE', #229, 1.500000000000000222 ) ;
#46 = CARTESIAN_POINT ( 'NONE',  ( 0.000000000000000000, 0.000000000000000000, 3.000000000000000000 ) ) ;
#47 = DIRECTION ( 'NONE',  ( 0.000000000000000000, 0.000000000000000000, -1.000000000000000000 ) ) ;
#48 = EDGE_CURVE ( 'NONE', #32, #197, #60, .T. ) ;
#49 = CARTESIAN_POINT ( 'NONE',  ( 5.000000000000000000, 6.123233995736766282E-16, 3.000000000000000000 ) ) ;
#50 = EDGE_LOOP ( 'NONE', ( #226, #17 ) ) ;
#51 = CIRCLE ( 'NONE', #79, 2.799999999999999822 ) ;
#52 = MECHANICAL_CONTEXT ( 'NONE', #325, 'mechanical' ) ;
#53 = ORIENTED_EDGE ( 'NONE', *, *, #147, .F. ) ;
#54 = CARTESIAN_POINT ( 'NONE',  ( 0.000000000000000000, 0.000000000000000000, 0.000000000000000000 ) ) ;
#55 = TOROIDAL_SURFACE ( 'NONE', #267, 2.799999999999999822, 0.2999999999999999889 ) ;
#56 = EDGE_CURVE ( 'NONE', #190, #233, #146, .T. ) ;
#57 = DATE_AND_TIME ( #309, #118 ) ;
#58 = AXIS2_PLACEMENT_3D ( 'NONE', #74, #273, #189 ) ;
#59 = DATE_AND_TIME ( #318, #322 ) ;
#60 = LINE ( 'NONE', #281, #372 ) ;
#61 = EDGE_CURVE ( 'NONE', #155, #162, #288, .T. ) ;
#62 = DIRECTION ( 'NONE',  ( 0.000000000000000000, 0.000000000000000000, 1.000000000000000000 ) ) ;
#63 = DIRECTION ( 'NONE',  ( 0.000000000000000000, 0.000000000000000000, 1.000000000000000000 ) ) ;
#64 = UNCERTAINTY_MEASURE_WITH_UNIT (LENGTH_MEASURE( 1.000000000000000082E-05 ), #142, 'distance_accuracy_value', 'NONE');
#65 =( GEOMETRIC_REPRESENTATION_CONTEXT ( 3 ) GLOBAL_UNCERTAINTY_ASSIGNED_CONTEXT ( ( #64 ) ) GLOBAL_UNIT_ASSIGNED_CONTEXT ( ( #142, #312, #374 ) ) REPRESENTATION_CONTEXT ( 'NONE', 'WORKASPACE' ) );
#66 = DIRECTION ( 'NONE',  ( -0.000000000000000000, -0.000000000000000000, -1.000000000000000000 ) ) ;
#67 = FACE_BOUND ( 'NONE', #136, .T. ) ;
#68 = VECTOR ( 'NONE', #351, 1000.000000000000000 ) ;
#69 = PRODUCT_DEFINITION_SHAPE ( 'NONE', 'NONE',  #371 ) ;
#70 = DIRECTION ( 'NONE',  ( 0.000000000000000000, 0.000000000000000000, 1.000000000000000000 ) ) ;
#71 = AXIS2_PLACEMENT_3D ( 'NONE', #217, #166, #366 ) ;
#72 = DIRECTION ( 'NONE',  ( -1.000000000000000000, 0.000000000000000000, 0.000000000000000000 ) ) ;
#73 = ORIENTED_EDGE ( 'NONE', *, *, #236, .T. ) ;
#74 = CARTESIAN_POINT ( 'NONE',  ( 0.000000000000000000, 0.000000000000000000, 0.000000000000000000 ) ) ;
#75 = EDGE_CURVE ( 'NONE', #333, #32, #365, .T. ) ;
#76 = ORIENTED_EDGE ( 'NONE', *, *, #90, .T. ) ;
#77 = CARTESIAN_POINT ( 'NONE',  ( 0.000000000000000000, 0.000000000000000000, 3.000000000000000000 ) ) ;
#78 = ORIENTED_EDGE ( 'NONE', *, *, #90, .F. ) ;
#79 = AXIS2_PLACEMENT_3D ( 'NONE', #46, #165, #160 ) ;
#80 = CARTESIAN_POINT ( 'NONE',  ( 1.500000000000000222, 1.836970198721030181E-16, 78.00000000000000000 ) ) ;
#81 = DESIGN_CONTEXT ( 'detailed design', #349, 'design' ) ;
#82 = ORIENTED_EDGE ( 'NONE', *, *, #56, .T. ) ;
#83 = DIRECTION ( 'NONE',  ( -0.000000000000000000, -0.000000000000000000, -1.000000000000000000 ) ) ;
#84 = ORIENTED_EDGE ( 'NONE', *, *, #61, .T. ) ;
#85 = SHAPE_DEFINITION_REPRESENTATION ( #69, #152 ) ;
#86 = ORIENTED_EDGE ( 'NONE', *, *, #115, .F. ) ;
#87 = PERSON_AND_ORGANIZATION ( #105, #157 ) ;
#88 = ORIENTED_EDGE ( 'NONE', *, *, #123, .T. ) ;
#89 = APPLICATION_PROTOCOL_DEFINITION ( 'international standard', 'config_control_design', 1994, #349 ) ;
#90 = EDGE_CURVE ( 'NONE', #279, #335, #284, .T. ) ;
#91 = VERTEX_POINT ( 'NONE', #207 ) ;
#92 = SECURITY_CLASSIFICATION_LEVEL ( 'unclassified' ) ;
#93 = AXIS2_PLACEMENT_3D ( 'NONE', #39, #66, #238 ) ;
#94 = ORIENTED_EDGE ( 'NONE', *, *, #328, .T. ) ;
#95 = PERSON_AND_ORGANIZATION ( #105, #157 ) ;
#96 = CARTESIAN_POINT ( 'NONE',  ( -5.000000000000000000, 0.000000000000000000, 3.000000000000000000 ) ) ;
#97 = CC_DESIGN_APPROVAL ( #30, ( #371 ) ) ;
#98 = APPROVAL ( #177, 'NEURÈENÝ' ) ;
#99 = CARTESIAN_POINT ( 'NONE',  ( 0.000000000000000000, 0.000000000000000000, 78.00000000000000000 ) ) ;
#100 = DIRECTION ( 'NONE',  ( -1.000000000000000000, 1.224646799147353207E-16, 0.000000000000000000 ) ) ;
#101 = LINE ( 'NONE', #213, #23 ) ;
#102 = CIRCLE ( 'NONE', #269, 5.000000000000000000 ) ;
#103 = PLANE ( 'NONE',  #326 ) ;
#104 = CC_DESIGN_DATE_AND_TIME_ASSIGNMENT ( #198, #342, ( #371 ) ) ;
#105 = PERSON ( 'NEURÈENÝ', 'NEURÈENÝ', 'NEURÈENÝ', ('NEURÈENÝ'), ('NEURÈENÝ'), ('NEURÈENÝ') ) ;
#106 = FACE_OUTER_BOUND ( 'NONE', #306, .T. ) ;
#107 = ADVANCED_FACE ( 'NONE', ( #355 ), #122, .T. ) ;
#108 = AXIS2_PLACEMENT_3D ( 'NONE', #54, #170, #175 ) ;
#109 = CARTESIAN_POINT ( 'NONE',  ( 5.000000000000000000, 6.123233995736766282E-16, 0.000000000000000000 ) ) ;
#110 = DIRECTION ( 'NONE',  ( 1.000000000000000000, 0.000000000000000000, 0.000000000000000000 ) ) ;
#111 = ORIENTED_EDGE ( 'NONE', *, *, #295, .F. ) ;
#112 = VECTOR ( 'NONE', #346, 1000.000000000000000 ) ;
#113 = DIRECTION ( 'NONE',  ( 0.000000000000000000, 0.000000000000000000, 1.000000000000000000 ) ) ;
#114 = DIRECTION ( 'NONE',  ( 0.000000000000000000, 0.000000000000000000, 1.000000000000000000 ) ) ;
#115 = EDGE_CURVE ( 'NONE', #162, #335, #250, .T. ) ;
#116 = ORIENTED_EDGE ( 'NONE', *, *, #328, .F. ) ;
#117 = ORIENTED_EDGE ( 'NONE', *, *, #307, .T. ) ;
#118 = LOCAL_TIME ( 11, 18, 20.00000000000000000, #178 ) ;
#119 = DIRECTION ( 'NONE',  ( 0.000000000000000000, 0.000000000000000000, -1.000000000000000000 ) ) ;
#120 = CARTESIAN_POINT ( 'NONE',  ( 0.000000000000000000, 0.000000000000000000, 0.000000000000000000 ) ) ;
#121 = AXIS2_PLACEMENT_3D ( 'NONE', #184, #235, #203 ) ;
#122 = CYLINDRICAL_SURFACE ( 'NONE', #93, 2.500000000000000000 ) ;
#123 = EDGE_CURVE ( 'NONE', #333, #340, #33, .T. ) ;
#124 = CIRCLE ( 'NONE', #343, 2.500000000000000000 ) ;
#125 = DIRECTION ( 'NONE',  ( 0.000000000000000000, 0.000000000000000000, 1.000000000000000000 ) ) ;
#126 = ORIENTED_EDGE ( 'NONE', *, *, #147, .T. ) ;
#127 = FACE_OUTER_BOUND ( 'NONE', #248, .T. ) ;
#128 = AXIS2_PLACEMENT_3D ( 'NONE', #373, #7, #156 ) ;
#129 = ADVANCED_FACE ( 'NONE', ( #153, #182 ), #103, .T. ) ;
#130 = DIRECTION ( 'NONE',  ( -0.000000000000000000, -0.000000000000000000, -1.000000000000000000 ) ) ;
#131 = CARTESIAN_POINT ( 'NONE',  ( 2.799999999999999822, 0.000000000000000000, 3.299999999999997158 ) ) ;
#132 = CARTESIAN_POINT ( 'NONE',  ( 0.000000000000000000, 0.000000000000000000, 78.00000000000000000 ) ) ;
#133 = ORIENTED_EDGE ( 'NONE', *, *, #48, .T. ) ;
#134 = AXIS2_PLACEMENT_3D ( 'NONE', #321, #268, #100 ) ;
#135 = DIRECTION ( 'NONE',  ( 1.000000000000000000, 0.000000000000000000, 0.000000000000000000 ) ) ;
#136 = EDGE_LOOP ( 'NONE', ( #348, #357 ) ) ;
#137 = APPROVAL_PERSON_ORGANIZATION ( #87, #231, #173 ) ;
#138 = APPROVAL_ROLE ( '' ) ;
#139 = COORDINATED_UNIVERSAL_TIME_OFFSET ( 1, 0, .AHEAD. ) ;
#140 = DIRECTION ( 'NONE',  ( -0.000000000000000000, -0.000000000000000000, -1.000000000000000000 ) ) ;
#141 = EDGE_CURVE ( 'NONE', #216, #162, #296, .T. ) ;
#142 =( LENGTH_UNIT ( ) NAMED_UNIT ( * ) SI_UNIT ( .MILLI., .METRE. ) );
#143 = APPROVAL_ROLE ( '' ) ;
#144 = CARTESIAN_POINT ( 'NONE',  ( 0.000000000000000000, 0.000000000000000000, 78.00000000000000000 ) ) ;
#145 = CALENDAR_DATE ( 2022, 10, 7 ) ;
#146 = LINE ( 'NONE', #96, #112 ) ;
#147 = EDGE_CURVE ( 'NONE', #274, #233, #317, .T. ) ;
#148 = CARTESIAN_POINT ( 'NONE',  ( 0.000000000000000000, 0.000000000000000000, 3.299999999999997158 ) ) ;
#149 = PLANE ( 'NONE',  #186 ) ;
#150 = CC_DESIGN_APPROVAL ( #98, ( #214 ) ) ;
#151 = ORIENTED_EDGE ( 'NONE', *, *, #272, .T. ) ;
#152 = ADVANCED_BREP_SHAPE_REPRESENTATION ( 'cdfd', ( #179, #108 ), #65 ) ;
#153 = FACE_BOUND ( 'NONE', #294, .T. ) ;
#154 = CC_DESIGN_PERSON_AND_ORGANIZATION_ASSIGNMENT ( #225, #315, ( #214 ) ) ;
#155 = VERTEX_POINT ( 'NONE', #37 ) ;
#156 = DIRECTION ( 'NONE',  ( 1.000000000000000000, 0.000000000000000000, 0.000000000000000000 ) ) ;
#157 = ORGANIZATION ( 'NEURÈENÝ', 'NEURÈENÝ', '' ) ;
#158 = DIRECTION ( 'NONE',  ( 0.000000000000000000, 0.000000000000000000, -1.000000000000000000 ) ) ;
#159 = CC_DESIGN_PERSON_AND_ORGANIZATION_ASSIGNMENT ( #232, #257, ( #298 ) ) ;
#160 = DIRECTION ( 'NONE',  ( 1.000000000000000000, 0.000000000000000000, 0.000000000000000000 ) ) ;
#161 = AXIS2_PLACEMENT_3D ( 'NONE', #174, #172, #378 ) ;
#162 = VERTEX_POINT ( 'NONE', #266 ) ;
#163 = CARTESIAN_POINT ( 'NONE',  ( 2.799999999999999822, 0.000000000000000000, 2.999999999999998668 ) ) ;
#164 = AXIS2_PLACEMENT_3D ( 'NONE', #36, #62, #237 ) ;
#165 = DIRECTION ( 'NONE',  ( -0.000000000000000000, -0.000000000000000000, -1.000000000000000000 ) ) ;
#166 = DIRECTION ( 'NONE',  ( -0.000000000000000000, -0.000000000000000000, -1.000000000000000000 ) ) ;
#167 = CYLINDRICAL_SURFACE ( 'NONE', #2, 5.000000000000000000 ) ;
#168 = ORIENTED_EDGE ( 'NONE', *, *, #358, .F. ) ;
#169 = CC_DESIGN_APPROVAL ( #231, ( #298 ) ) ;
#170 = DIRECTION ( 'NONE',  ( 0.000000000000000000, 0.000000000000000000, 1.000000000000000000 ) ) ;
#171 = ADVANCED_FACE ( 'NONE', ( #67, #9 ), #149, .T. ) ;
#172 = DIRECTION ( 'NONE',  ( 0.000000000000000000, 0.000000000000000000, 1.000000000000000000 ) ) ;
#173 = APPROVAL_ROLE ( '' ) ;
#174 = CARTESIAN_POINT ( 'NONE',  ( 0.000000000000000000, 0.000000000000000000, 78.00000000000000000 ) ) ;
#175 = DIRECTION ( 'NONE',  ( 1.000000000000000000, 0.000000000000000000, 0.000000000000000000 ) ) ;
#176 = ORIENTED_EDGE ( 'NONE', *, *, #241, .T. ) ;
#177 = APPROVAL_STATUS ( 'not_yet_approved' ) ;
#178 = COORDINATED_UNIVERSAL_TIME_OFFSET ( 1, 0, .AHEAD. ) ;
#179 = MANIFOLD_SOLID_BREP ( 'Odebrat vysunutím3', #218 ) ;
#180 = DIRECTION ( 'NONE',  ( 1.000000000000000000, 0.000000000000000000, 0.000000000000000000 ) ) ;
#181 = AXIS2_PLACEMENT_3D ( 'NONE', #131, #308, #47 ) ;
#182 = FACE_OUTER_BOUND ( 'NONE', #283, .T. ) ;
#183 = CARTESIAN_POINT ( 'NONE',  ( 0.000000000000000000, 0.000000000000000000, 78.00000000000000000 ) ) ;
#184 = CARTESIAN_POINT ( 'NONE',  ( 0.000000000000000000, 0.000000000000000000, 3.000000000000000000 ) ) ;
#185 = ORIENTED_EDGE ( 'NONE', *, *, #123, .F. ) ;
#186 = AXIS2_PLACEMENT_3D ( 'NONE', #183, #125, #352 ) ;
#187 = EDGE_LOOP ( 'NONE', ( #86, #12, #117, #228 ) ) ;
#188 = CARTESIAN_POINT ( 'NONE',  ( -5.000000000000000000, 0.000000000000000000, 0.000000000000000000 ) ) ;
#189 = DIRECTION ( 'NONE',  ( 1.000000000000000000, 0.000000000000000000, 0.000000000000000000 ) ) ;
#190 = VERTEX_POINT ( 'NONE', #240 ) ;
#191 = EDGE_CURVE ( 'NONE', #263, #190, #102, .T. ) ;
#192 = AXIS2_PLACEMENT_3D ( 'NONE', #329, #360, #72 ) ;
#193 = CARTESIAN_POINT ( 'NONE',  ( -2.799999999999999822, 3.429011037612589276E-16, 2.999999999999998668 ) ) ;
#194 = DIRECTION ( 'NONE',  ( -0.000000000000000000, -0.000000000000000000, -1.000000000000000000 ) ) ;
#195 = ORIENTED_EDGE ( 'NONE', *, *, #191, .F. ) ;
#196 = DATE_AND_TIME ( #145, #330 ) ;
#197 = VERTEX_POINT ( 'NONE', #41 ) ;
#198 = DATE_AND_TIME ( #255, #35 ) ;
#199 = CC_DESIGN_DATE_AND_TIME_ASSIGNMENT ( #57, #347, ( #214 ) ) ;
#200 = COORDINATED_UNIVERSAL_TIME_OFFSET ( 1, 0, .AHEAD. ) ;
#201 = APPROVAL_PERSON_ORGANIZATION ( #31, #30, #143 ) ;
#202 = ORIENTED_EDGE ( 'NONE', *, *, #191, .T. ) ;
#203 = DIRECTION ( 'NONE',  ( 1.000000000000000000, 0.000000000000000000, 0.000000000000000000 ) ) ;
#204 = VECTOR ( 'NONE', #140, 1000.000000000000000 ) ;
#205 = ADVANCED_FACE ( 'NONE', ( #293 ), #10, .F. ) ;
#206 = FACE_BOUND ( 'NONE', #304, .T. ) ;
#207 = CARTESIAN_POINT ( 'NONE',  ( 2.500000000000000000, 3.061616997868383141E-16, 78.00000000000000000 ) ) ;
#208 = CIRCLE ( 'NONE', #181, 0.2999999999999999334 ) ;
#209 = CARTESIAN_POINT ( 'NONE',  ( 0.000000000000000000, 0.000000000000000000, 3.000000000000000000 ) ) ;
#210 = CARTESIAN_POINT ( 'NONE',  ( 0.000000000000000000, 0.000000000000000000, 3.299999999999997158 ) ) ;
#211 = ADVANCED_FACE ( 'NONE', ( #206, #5 ), #320, .F. ) ;
#212 = AXIS2_PLACEMENT_3D ( 'NONE', #210, #70, #180 ) ;
#213 = CARTESIAN_POINT ( 'NONE',  ( 2.500000000000000000, 3.061616997868383141E-16, 78.00000000000000000 ) ) ;
#214 = SECURITY_CLASSIFICATION ( '', '', #92 ) ;
#215 = DIRECTION ( 'NONE',  ( 0.000000000000000000, 0.000000000000000000, 1.000000000000000000 ) ) ;
#216 = VERTEX_POINT ( 'NONE', #354 ) ;
#217 = CARTESIAN_POINT ( 'NONE',  ( 0.000000000000000000, 0.000000000000000000, 3.000000000000000000 ) ) ;
#218 = CLOSED_SHELL ( 'NONE', ( #367, #353, #107, #324, #259, #129, #211, #299, #171, #15, #205 ) ) ;
#219 = EDGE_LOOP ( 'NONE', ( #116, #38, #78, #344 ) ) ;
#220 = DIRECTION ( 'NONE',  ( 1.000000000000000000, 0.000000000000000000, 0.000000000000000000 ) ) ;
#221 = VECTOR ( 'NONE', #83, 1000.000000000000000 ) ;
#222 = DIRECTION ( 'NONE',  ( 1.000000000000000000, 0.000000000000000000, 0.000000000000000000 ) ) ;
#223 = ORIENTED_EDGE ( 'NONE', *, *, #358, .T. ) ;
#224 = EDGE_CURVE ( 'NONE', #91, #216, #101, .T. ) ;
#225 = PERSON_AND_ORGANIZATION ( #105, #157 ) ;
#226 = ORIENTED_EDGE ( 'NONE', *, *, #4, .T. ) ;
#227 = DATE_AND_TIME ( #377, #40 ) ;
#228 = ORIENTED_EDGE ( 'NONE', *, *, #241, .F. ) ;
#229 = AXIS2_PLACEMENT_3D ( 'NONE', #252, #368, #222 ) ;
#230 = PERSON_AND_ORGANIZATION_ROLE ( 'creator' ) ;
#231 = APPROVAL ( #345, 'NEURÈENÝ' ) ;
#232 = PERSON_AND_ORGANIZATION ( #105, #157 ) ;
#233 = VERTEX_POINT ( 'NONE', #188 ) ;
#234 = CIRCLE ( 'NONE', #58, 5.000000000000000000 ) ;
#235 = DIRECTION ( 'NONE',  ( -0.000000000000000000, -0.000000000000000000, -1.000000000000000000 ) ) ;
#236 = EDGE_CURVE ( 'NONE', #190, #263, #292, .T. ) ;
#237 = DIRECTION ( 'NONE',  ( 1.000000000000000000, 0.000000000000000000, -0.000000000000000000 ) ) ;
#238 = DIRECTION ( 'NONE',  ( -1.000000000000000000, 0.000000000000000000, 0.000000000000000000 ) ) ;
#239 = AXIS2_PLACEMENT_3D ( 'NONE', #244, #194, #16 ) ;
#240 = CARTESIAN_POINT ( 'NONE',  ( -5.000000000000000000, 0.000000000000000000, 3.000000000000000000 ) ) ;
#241 = EDGE_CURVE ( 'NONE', #335, #279, #51, .T. ) ;
#242 = ORIENTED_EDGE ( 'NONE', *, *, #61, .F. ) ;
#243 = CARTESIAN_POINT ( 'NONE',  ( 0.000000000000000000, 0.000000000000000000, 3.299999999999997158 ) ) ;
#244 = CARTESIAN_POINT ( 'NONE',  ( 0.000000000000000000, 0.000000000000000000, 0.000000000000000000 ) ) ;
#245 = ORIENTED_EDGE ( 'NONE', *, *, #34, .T. ) ;
#246 = CC_DESIGN_SECURITY_CLASSIFICATION ( #214, ( #298 ) ) ;
#247 = CYLINDRICAL_SURFACE ( 'NONE', #71, 5.000000000000000000 ) ;
#248 = EDGE_LOOP ( 'NONE', ( #245, #88, #151, #364 ) ) ;
#249 = DIRECTION ( 'NONE',  ( -1.000000000000000000, 0.000000000000000000, 0.000000000000000000 ) ) ;
#250 = CIRCLE ( 'NONE', #134, 0.2999999999999999334 ) ;
#251 = EDGE_LOOP ( 'NONE', ( #22, #362, #375, #242 ) ) ;
#252 = CARTESIAN_POINT ( 'NONE',  ( 0.000000000000000000, 0.000000000000000000, 0.000000000000000000 ) ) ;
#253 = ORIENTED_EDGE ( 'NONE', *, *, #56, .F. ) ;
#254 = COORDINATED_UNIVERSAL_TIME_OFFSET ( 1, 0, .AHEAD. ) ;
#255 = CALENDAR_DATE ( 2022, 10, 7 ) ;
#256 = CIRCLE ( 'NONE', #18, 2.500000000000000000 ) ;
#257 = PERSON_AND_ORGANIZATION_ROLE ( 'design_supplier' ) ;
#258 = EDGE_LOOP ( 'NONE', ( #111, #53 ) ) ;
#259 = ADVANCED_FACE ( 'NONE', ( #359 ), #167, .T. ) ;
#260 = COORDINATED_UNIVERSAL_TIME_OFFSET ( 1, 0, .AHEAD. ) ;
#261 = DIRECTION ( 'NONE',  ( 1.000000000000000000, 0.000000000000000000, 0.000000000000000000 ) ) ;
#262 = PERSON_AND_ORGANIZATION ( #105, #157 ) ;
#263 = VERTEX_POINT ( 'NONE', #43 ) ;
#264 = DIRECTION ( 'NONE',  ( 1.000000000000000000, 0.000000000000000000, 0.000000000000000000 ) ) ;
#265 = DIRECTION ( 'NONE',  ( 1.000000000000000000, 0.000000000000000000, 0.000000000000000000 ) ) ;
#266 = CARTESIAN_POINT ( 'NONE',  ( -2.500000000000000000, 0.000000000000000000, 3.299999999999997158 ) ) ;
#267 = AXIS2_PLACEMENT_3D ( 'NONE', #148, #319, #264 ) ;
#268 = DIRECTION ( 'NONE',  ( 1.224646799147353207E-16, 1.000000000000000000, -0.000000000000000000 ) ) ;
#269 = AXIS2_PLACEMENT_3D ( 'NONE', #356, #297, #265 ) ;
#270 = DIRECTION ( 'NONE',  ( -1.000000000000000000, 0.000000000000000000, 0.000000000000000000 ) ) ;
#271 = ORIENTED_EDGE ( 'NONE', *, *, #75, .T. ) ;
#272 = EDGE_CURVE ( 'NONE', #340, #197, #350, .T. ) ;
#273 = DIRECTION ( 'NONE',  ( 0.000000000000000000, 0.000000000000000000, 1.000000000000000000 ) ) ;
#274 = VERTEX_POINT ( 'NONE', #109 ) ;
#275 = FACE_OUTER_BOUND ( 'NONE', #314, .T. ) ;
#276 = EDGE_LOOP ( 'NONE', ( #338, #290, #82, #302 ) ) ;
#277 = DIRECTION ( 'NONE',  ( 1.000000000000000000, 0.000000000000000000, 0.000000000000000000 ) ) ;
#278 = CC_DESIGN_PERSON_AND_ORGANIZATION_ASSIGNMENT ( #21, #230, ( #371 ) ) ;
#279 = VERTEX_POINT ( 'NONE', #163 ) ;
#280 = AXIS2_PLACEMENT_3D ( 'NONE', #99, #158, #270 ) ;
#281 = CARTESIAN_POINT ( 'NONE',  ( -1.500000000000000222, 0.000000000000000000, 78.00000000000000000 ) ) ;
#282 = APPROVAL_DATE_TIME ( #196, #231 ) ;
#283 = EDGE_LOOP ( 'NONE', ( #73, #202 ) ) ;
#284 = CIRCLE ( 'NONE', #121, 2.799999999999999822 ) ;
#285 = EDGE_CURVE ( 'NONE', #263, #274, #334, .T. ) ;
#286 = PERSON_AND_ORGANIZATION_ROLE ( 'design_owner' ) ;
#287 = APPLICATION_PROTOCOL_DEFINITION ( 'international standard', 'config_control_design', 1994, #325 ) ;
#288 = LINE ( 'NONE', #25, #204 ) ;
#289 = CC_DESIGN_PERSON_AND_ORGANIZATION_ASSIGNMENT ( #379, #286, ( #6 ) ) ;
#290 = ORIENTED_EDGE ( 'NONE', *, *, #236, .F. ) ;
#291 = DIRECTION ( 'NONE',  ( 1.000000000000000000, 0.000000000000000000, -0.000000000000000000 ) ) ;
#292 = CIRCLE ( 'NONE', #370, 5.000000000000000000 ) ;
#293 = FACE_OUTER_BOUND ( 'NONE', #29, .T. ) ;
#294 = EDGE_LOOP ( 'NONE', ( #76, #176 ) ) ;
#295 = EDGE_CURVE ( 'NONE', #233, #274, #234, .T. ) ;
#296 = CIRCLE ( 'NONE', #212, 2.500000000000000000 ) ;
#297 = DIRECTION ( 'NONE',  ( 0.000000000000000000, 0.000000000000000000, 1.000000000000000000 ) ) ;
#298 = PRODUCT_DEFINITION_FORMATION_WITH_SPECIFIED_SOURCE ( 'LIBOVOLNÝ', '', #6, .NOT_KNOWN. ) ;
#299 = ADVANCED_FACE ( 'NONE', ( #275 ), #13, .T. ) ;
#300 = CIRCLE ( 'NONE', #161, 1.500000000000000222 ) ;
#301 = CARTESIAN_POINT ( 'NONE',  ( 0.000000000000000000, 0.000000000000000000, 3.000000000000000000 ) ) ;
#302 = ORIENTED_EDGE ( 'NONE', *, *, #295, .T. ) ;
#303 = CARTESIAN_POINT ( 'NONE',  ( 0.000000000000000000, 0.000000000000000000, 3.299999999999997158 ) ) ;
#304 = EDGE_LOOP ( 'NONE', ( #168, #369 ) ) ;
#305 = DIRECTION ( 'NONE',  ( 0.000000000000000000, 0.000000000000000000, 1.000000000000000000 ) ) ;
#306 = EDGE_LOOP ( 'NONE', ( #195, #381, #126, #253 ) ) ;
#307 = EDGE_CURVE ( 'NONE', #216, #279, #208, .T. ) ;
#308 = DIRECTION ( 'NONE',  ( 0.000000000000000000, -1.000000000000000000, 0.000000000000000000 ) ) ;
#309 = CALENDAR_DATE ( 2022, 10, 7 ) ;
#310 = FACE_OUTER_BOUND ( 'NONE', #187, .T. ) ;
#311 = APPROVAL_PERSON_ORGANIZATION ( #95, #98, #138 ) ;
#312 =( NAMED_UNIT ( * ) PLANE_ANGLE_UNIT ( ) SI_UNIT ( $, .RADIAN. ) );
#313 = CC_DESIGN_PERSON_AND_ORGANIZATION_ASSIGNMENT ( #262, #26, ( #298 ) ) ;
#314 = EDGE_LOOP ( 'NONE', ( #44, #20, #84, #94 ) ) ;
#315 = PERSON_AND_ORGANIZATION_ROLE ( 'classification_officer' ) ;
#316 = DIRECTION ( 'NONE',  ( 0.000000000000000000, 0.000000000000000000, 1.000000000000000000 ) ) ;
#317 = CIRCLE ( 'NONE', #1, 5.000000000000000000 ) ;
#318 = CALENDAR_DATE ( 2022, 10, 7 ) ;
#319 = DIRECTION ( 'NONE',  ( 0.000000000000000000, 0.000000000000000000, 1.000000000000000000 ) ) ;
#320 = PLANE ( 'NONE',  #164 ) ;
#321 = CARTESIAN_POINT ( 'NONE',  ( -2.799999999999999822, 3.429011037612588783E-16, 3.299999999999997158 ) ) ;
#322 = LOCAL_TIME ( 11, 18, 20.00000000000000000, #200 ) ;
#323 = CARTESIAN_POINT ( 'NONE',  ( 1.500000000000000222, 1.836970198721030181E-16, 78.00000000000000000 ) ) ;
#324 = ADVANCED_FACE ( 'NONE', ( #106 ), #247, .T. ) ;
#325 = APPLICATION_CONTEXT ( 'configuration controlled 3d designs of mechanical parts and assemblies' ) ;
#326 = AXIS2_PLACEMENT_3D ( 'NONE', #209, #327, #291 ) ;
#327 = DIRECTION ( 'NONE',  ( 0.000000000000000000, 0.000000000000000000, 1.000000000000000000 ) ) ;
#328 = EDGE_CURVE ( 'NONE', #162, #216, #124, .T. ) ;
#329 = CARTESIAN_POINT ( 'NONE',  ( 0.000000000000000000, 0.000000000000000000, 78.00000000000000000 ) ) ;
#330 = LOCAL_TIME ( 11, 18, 20.00000000000000000, #254 ) ;
#331 = DIRECTION ( 'NONE',  ( -1.000000000000000000, 0.000000000000000000, 0.000000000000000000 ) ) ;
#332 = CARTESIAN_POINT ( 'NONE',  ( 1.500000000000000222, 1.836970198721030181E-16, 0.000000000000000000 ) ) ;
#333 = VERTEX_POINT ( 'NONE', #80 ) ;
#334 = LINE ( 'NONE', #49, #221 ) ;
#335 = VERTEX_POINT ( 'NONE', #193 ) ;
#336 = AXIS2_PLACEMENT_3D ( 'NONE', #243, #114, #135 ) ;
#337 = CYLINDRICAL_SURFACE ( 'NONE', #192, 1.500000000000000222 ) ;
#338 = ORIENTED_EDGE ( 'NONE', *, *, #285, .F. ) ;
#339 = APPROVAL_DATE_TIME ( #59, #98 ) ;
#340 = VERTEX_POINT ( 'NONE', #332 ) ;
#341 = EDGE_CURVE ( 'NONE', #91, #155, #14, .T. ) ;
#342 = DATE_TIME_ROLE ( 'creation_date' ) ;
#343 = AXIS2_PLACEMENT_3D ( 'NONE', #303, #113, #220 ) ;
#344 = ORIENTED_EDGE ( 'NONE', *, *, #307, .F. ) ;
#345 = APPROVAL_STATUS ( 'not_yet_approved' ) ;
#346 = DIRECTION ( 'NONE',  ( -0.000000000000000000, -0.000000000000000000, -1.000000000000000000 ) ) ;
#347 = DATE_TIME_ROLE ( 'classification_date' ) ;
#348 = ORIENTED_EDGE ( 'NONE', *, *, #34, .F. ) ;
#349 = APPLICATION_CONTEXT ( 'configuration controlled 3d designs of mechanical parts and assemblies' ) ;
#350 = CIRCLE ( 'NONE', #239, 1.500000000000000222 ) ;
#351 = DIRECTION ( 'NONE',  ( 0.000000000000000000, 0.000000000000000000, -1.000000000000000000 ) ) ;
#352 = DIRECTION ( 'NONE',  ( 1.000000000000000000, 0.000000000000000000, -0.000000000000000000 ) ) ;
#353 = ADVANCED_FACE ( 'NONE', ( #19 ), #361, .F. ) ;
#354 = CARTESIAN_POINT ( 'NONE',  ( 2.500000000000000000, 3.061616997868383141E-16, 3.299999999999997158 ) ) ;
#355 = FACE_OUTER_BOUND ( 'NONE', #251, .T. ) ;
#356 = CARTESIAN_POINT ( 'NONE',  ( 0.000000000000000000, 0.000000000000000000, 3.000000000000000000 ) ) ;
#357 = ORIENTED_EDGE ( 'NONE', *, *, #75, .F. ) ;
#358 = EDGE_CURVE ( 'NONE', #197, #340, #45, .T. ) ;
#359 = FACE_OUTER_BOUND ( 'NONE', #276, .T. ) ;
#360 = DIRECTION ( 'NONE',  ( 0.000000000000000000, 0.000000000000000000, -1.000000000000000000 ) ) ;
#361 = TOROIDAL_SURFACE ( 'NONE', #336, 2.799999999999999822, 0.2999999999999999889 ) ;
#362 = ORIENTED_EDGE ( 'NONE', *, *, #224, .T. ) ;
#363 = CARTESIAN_POINT ( 'NONE',  ( 0.000000000000000000, 0.000000000000000000, 78.00000000000000000 ) ) ;
#364 = ORIENTED_EDGE ( 'NONE', *, *, #48, .F. ) ;
#365 = CIRCLE ( 'NONE', #128, 1.500000000000000222 ) ;
#366 = DIRECTION ( 'NONE',  ( -1.000000000000000000, 0.000000000000000000, 0.000000000000000000 ) ) ;
#367 = ADVANCED_FACE ( 'NONE', ( #127 ), #337, .F. ) ;
#368 = DIRECTION ( 'NONE',  ( -0.000000000000000000, -0.000000000000000000, -1.000000000000000000 ) ) ;
#369 = ORIENTED_EDGE ( 'NONE', *, *, #272, .F. ) ;
#370 = AXIS2_PLACEMENT_3D ( 'NONE', #77, #215, #110 ) ;
#371 = PRODUCT_DEFINITION ( 'NEZNÁMÝ', '', #298, #81 ) ;
#372 = VECTOR ( 'NONE', #119, 1000.000000000000000 ) ;
#373 = CARTESIAN_POINT ( 'NONE',  ( 0.000000000000000000, 0.000000000000000000, 78.00000000000000000 ) ) ;
#374 =( NAMED_UNIT ( * ) SI_UNIT ( $, .STERADIAN. ) SOLID_ANGLE_UNIT ( ) );
#375 = ORIENTED_EDGE ( 'NONE', *, *, #141, .T. ) ;
#376 = AXIS2_PLACEMENT_3D ( 'NONE', #132, #42, #249 ) ;
#377 = CALENDAR_DATE ( 2022, 10, 7 ) ;
#378 = DIRECTION ( 'NONE',  ( 1.000000000000000000, 0.000000000000000000, 0.000000000000000000 ) ) ;
#379 = PERSON_AND_ORGANIZATION ( #105, #157 ) ;
#380 = PRODUCT_RELATED_PRODUCT_CATEGORY ( 'detail', '', ( #6 ) ) ;
#381 = ORIENTED_EDGE ( 'NONE', *, *, #285, .T. ) ;
ENDSEC;
END-ISO-10303-21;
