ISO-10303-21;
HEADER;
FILE_DESCRIPTION (( 'STEP AP203' ),
    '1' );
FILE_NAME ('0a88.STEP',
    '2022-07-10T09:08:28',
    ( '' ),
    ( '' ),
    'SwSTEP 2.0',
    'SolidWorks 2019',
    '' );
FILE_SCHEMA (( 'CONFIG_CONTROL_DESIGN' ));
ENDSEC;

DATA;
#1 = FACE_BOUND ( 'NONE', #10, .T. ) ;
#2 = ORIENTED_EDGE ( 'NONE', *, *, #117, .T. ) ;
#3 = DIRECTION ( 'NONE',  ( 1.000000000000000000, 0.000000000000000000, 0.000000000000000000 ) ) ;
#4 = CARTESIAN_POINT ( 'NONE',  ( -4.000000000000000000, 0.000000000000000000, 5.500000000000005329 ) ) ;
#5 = ORIENTED_EDGE ( 'NONE', *, *, #117, .F. ) ;
#6 = ADVANCED_FACE ( 'NONE', ( #221, #342 ), #288, .T. ) ;
#7 = CARTESIAN_POINT ( 'NONE',  ( -4.000000000000000000, 0.000000000000000000, 130.0000000000000000 ) ) ;
#8 = CIRCLE ( 'NONE', #32, 2.600000000000000089 ) ;
#9 = CARTESIAN_POINT ( 'NONE',  ( 0.000000000000000000, 0.000000000000000000, 130.0000000000000000 ) ) ;
#10 = EDGE_LOOP ( 'NONE', ( #2, #78 ) ) ;
#11 = DIRECTION ( 'NONE',  ( 0.000000000000000000, 0.000000000000000000, -1.000000000000000000 ) ) ;
#12 = VERTEX_POINT ( 'NONE', #252 ) ;
#13 = EDGE_CURVE ( 'NONE', #329, #364, #115, .T. ) ;
#14 = APPLICATION_PROTOCOL_DEFINITION ( 'international standard', 'config_control_design', 1994, #279 ) ;
#15 = ORIENTED_EDGE ( 'NONE', *, *, #227, .F. ) ;
#16 = FACE_OUTER_BOUND ( 'NONE', #177, .T. ) ;
#17 = PERSON_AND_ORGANIZATION ( #357, #306 ) ;
#18 = CARTESIAN_POINT ( 'NONE',  ( 0.000000000000000000, 0.000000000000000000, 5.000000000000000000 ) ) ;
#19 = PERSON_AND_ORGANIZATION ( #357, #306 ) ;
#20 = AXIS2_PLACEMENT_3D ( 'NONE', #148, #330, #328 ) ;
#21 = PERSON_AND_ORGANIZATION_ROLE ( 'classification_officer' ) ;
#22 = CARTESIAN_POINT ( 'NONE',  ( -4.500000000000000888, 5.510910596163088569E-16, 5.000000000000002665 ) ) ;
#23 = EDGE_CURVE ( 'NONE', #329, #193, #197, .T. ) ;
#24 = SHAPE_DEFINITION_REPRESENTATION ( #343, #132 ) ;
#25 = AXIS2_PLACEMENT_3D ( 'NONE', #257, #172, #168 ) ;
#26 = PERSON_AND_ORGANIZATION_ROLE ( 'creator' ) ;
#27 = DATE_TIME_ROLE ( 'classification_date' ) ;
#28 = ADVANCED_FACE ( 'NONE', ( #107 ), #108, .F. ) ;
#29 = CARTESIAN_POINT ( 'NONE',  ( 0.000000000000000000, 0.000000000000000000, 130.0000000000000000 ) ) ;
#30 = CARTESIAN_POINT ( 'NONE',  ( -2.600000000000000089, 0.000000000000000000, 130.0000000000000000 ) ) ;
#31 = ORIENTED_EDGE ( 'NONE', *, *, #43, .F. ) ;
#32 = AXIS2_PLACEMENT_3D ( 'NONE', #9, #71, #327 ) ;
#33 = AXIS2_PLACEMENT_3D ( 'NONE', #273, #127, #219 ) ;
#34 = CARTESIAN_POINT ( 'NONE',  ( 7.000000000000000000, 8.572527594031473190E-16, 0.000000000000000000 ) ) ;
#35 = DIRECTION ( 'NONE',  ( 0.000000000000000000, 0.000000000000000000, 1.000000000000000000 ) ) ;
#36 = VERTEX_POINT ( 'NONE', #347 ) ;
#37 = EDGE_CURVE ( 'NONE', #213, #157, #169, .T. ) ;
#38 = DIRECTION ( 'NONE',  ( 0.000000000000000000, 0.000000000000000000, 1.000000000000000000 ) ) ;
#39 = ORIENTED_EDGE ( 'NONE', *, *, #43, .T. ) ;
#40 = DIRECTION ( 'NONE',  ( 0.000000000000000000, 0.000000000000000000, 1.000000000000000000 ) ) ;
#41 = AXIS2_PLACEMENT_3D ( 'NONE', #192, #196, #338 ) ;
#42 = ORIENTED_EDGE ( 'NONE', *, *, #144, .F. ) ;
#43 = EDGE_CURVE ( 'NONE', #260, #262, #322, .T. ) ;
#44 = EDGE_LOOP ( 'NONE', ( #121, #94 ) ) ;
#45 =( NAMED_UNIT ( * ) PLANE_ANGLE_UNIT ( ) SI_UNIT ( $, .RADIAN. ) );
#46 = PRODUCT ( '0a88', '0a88', '', ( #156 ) ) ;
#47 = VERTEX_POINT ( 'NONE', #202 ) ;
#48 = APPROVAL_ROLE ( '' ) ;
#49 = CIRCLE ( 'NONE', #291, 2.600000000000000089 ) ;
#50 = CC_DESIGN_SECURITY_CLASSIFICATION ( #81, ( #92 ) ) ;
#51 = CYLINDRICAL_SURFACE ( 'NONE', #65, 7.000000000000000000 ) ;
#52 = DIRECTION ( 'NONE',  ( 0.000000000000000000, 0.000000000000000000, 1.000000000000000000 ) ) ;
#53 = CYLINDRICAL_SURFACE ( 'NONE', #41, 7.000000000000000000 ) ;
#54 = CARTESIAN_POINT ( 'NONE',  ( 4.000000000000000000, 4.898587196589412829E-16, 130.0000000000000000 ) ) ;
#55 = CARTESIAN_POINT ( 'NONE',  ( -4.500000000000000888, 5.510910596163089556E-16, 5.500000000000005329 ) ) ;
#56 = AXIS2_PLACEMENT_3D ( 'NONE', #55, #59, #313 ) ;
#57 = APPROVAL_STATUS ( 'not_yet_approved' ) ;
#58 = APPROVAL ( #312, 'NEURÈENÝ' ) ;
#59 = DIRECTION ( 'NONE',  ( 1.224646799147353207E-16, 1.000000000000000000, -0.000000000000000000 ) ) ;
#60 = APPROVAL_DATE_TIME ( #350, #131 ) ;
#61 = CIRCLE ( 'NONE', #231, 4.500000000000000888 ) ;
#62 = CC_DESIGN_APPROVAL ( #58, ( #286 ) ) ;
#63 = CARTESIAN_POINT ( 'NONE',  ( 0.000000000000000000, 0.000000000000000000, 0.000000000000000000 ) ) ;
#64 = CARTESIAN_POINT ( 'NONE',  ( -7.000000000000000000, 0.000000000000000000, 5.000000000000000000 ) ) ;
#65 = AXIS2_PLACEMENT_3D ( 'NONE', #85, #195, #278 ) ;
#66 = DIRECTION ( 'NONE',  ( -0.000000000000000000, -0.000000000000000000, -1.000000000000000000 ) ) ;
#67 = EDGE_CURVE ( 'NONE', #183, #213, #352, .T. ) ;
#68 = EDGE_LOOP ( 'NONE', ( #238, #268, #72, #98 ) ) ;
#69 = FACE_OUTER_BOUND ( 'NONE', #68, .T. ) ;
#70 = ORIENTED_EDGE ( 'NONE', *, *, #13, .F. ) ;
#71 = DIRECTION ( 'NONE',  ( 0.000000000000000000, 0.000000000000000000, 1.000000000000000000 ) ) ;
#72 = ORIENTED_EDGE ( 'NONE', *, *, #37, .T. ) ;
#73 = CC_DESIGN_DATE_AND_TIME_ASSIGNMENT ( #135, #225, ( #286 ) ) ;
#74 = DATE_AND_TIME ( #283, #321 ) ;
#75 = EDGE_LOOP ( 'NONE', ( #102, #76, #250, #300 ) ) ;
#76 = ORIENTED_EDGE ( 'NONE', *, *, #280, .T. ) ;
#77 = APPLICATION_PROTOCOL_DEFINITION ( 'international standard', 'config_control_design', 1994, #159 ) ;
#78 = ORIENTED_EDGE ( 'NONE', *, *, #293, .T. ) ;
#79 =( LENGTH_UNIT ( ) NAMED_UNIT ( * ) SI_UNIT ( .MILLI., .METRE. ) );
#80 = AXIS2_PLACEMENT_3D ( 'NONE', #242, #247, #210 ) ;
#81 = SECURITY_CLASSIFICATION ( '', '', #174 ) ;
#82 = ADVANCED_FACE ( 'NONE', ( #140 ), #51, .T. ) ;
#83 = CARTESIAN_POINT ( 'NONE',  ( 2.600000000000000089, 3.184081677783118191E-16, 130.0000000000000000 ) ) ;
#84 = DIRECTION ( 'NONE',  ( 1.000000000000000000, 0.000000000000000000, -0.000000000000000000 ) ) ;
#85 = CARTESIAN_POINT ( 'NONE',  ( 0.000000000000000000, 0.000000000000000000, 5.000000000000000000 ) ) ;
#86 = DIRECTION ( 'NONE',  ( 0.000000000000000000, 0.000000000000000000, -1.000000000000000000 ) ) ;
#87 = APPROVAL_PERSON_ORGANIZATION ( #19, #298, #203 ) ;
#88 = DIRECTION ( 'NONE',  ( -0.000000000000000000, -0.000000000000000000, -1.000000000000000000 ) ) ;
#89 = DIRECTION ( 'NONE',  ( 1.000000000000000000, 0.000000000000000000, 0.000000000000000000 ) ) ;
#90 = CARTESIAN_POINT ( 'NONE',  ( -2.600000000000000089, 0.000000000000000000, 0.000000000000000000 ) ) ;
#91 = AXIS2_PLACEMENT_3D ( 'NONE', #246, #209, #269 ) ;
#92 = PRODUCT_DEFINITION_FORMATION_WITH_SPECIFIED_SOURCE ( 'LIBOVOLNÝ', '', #46, .NOT_KNOWN. ) ;
#93 = CARTESIAN_POINT ( 'NONE',  ( 0.000000000000000000, 0.000000000000000000, 130.0000000000000000 ) ) ;
#94 = ORIENTED_EDGE ( 'NONE', *, *, #253, .T. ) ;
#95 = PLANE ( 'NONE',  #366 ) ;
#96 = ORIENTED_EDGE ( 'NONE', *, *, #379, .T. ) ;
#97 = DIRECTION ( 'NONE',  ( 0.000000000000000000, 0.000000000000000000, 1.000000000000000000 ) ) ;
#98 = ORIENTED_EDGE ( 'NONE', *, *, #293, .F. ) ;
#99 = AXIS2_PLACEMENT_3D ( 'NONE', #239, #263, #185 ) ;
#100 = EDGE_LOOP ( 'NONE', ( #15, #337, #353, #311 ) ) ;
#101 = DIRECTION ( 'NONE',  ( 0.000000000000000000, 0.000000000000000000, 1.000000000000000000 ) ) ;
#102 = ORIENTED_EDGE ( 'NONE', *, *, #369, .F. ) ;
#103 = EDGE_CURVE ( 'NONE', #262, #130, #259, .T. ) ;
#104 = DIRECTION ( 'NONE',  ( 0.000000000000000000, 0.000000000000000000, 1.000000000000000000 ) ) ;
#105 = VECTOR ( 'NONE', #66, 1000.000000000000000 ) ;
#106 = APPROVAL_PERSON_ORGANIZATION ( #17, #58, #48 ) ;
#107 = FACE_OUTER_BOUND ( 'NONE', #75, .T. ) ;
#108 = CYLINDRICAL_SURFACE ( 'NONE', #335, 2.600000000000000089 ) ;
#109 = EDGE_CURVE ( 'NONE', #213, #262, #138, .T. ) ;
#110 = PERSON_AND_ORGANIZATION ( #357, #306 ) ;
#111 = COORDINATED_UNIVERSAL_TIME_OFFSET ( 1, 0, .AHEAD. ) ;
#112 = AXIS2_PLACEMENT_3D ( 'NONE', #178, #40, #3 ) ;
#113 = MANIFOLD_SOLID_BREP ( 'Odebrat vysunutím3', #255 ) ;
#114 = DIRECTION ( 'NONE',  ( -1.000000000000000000, 0.000000000000000000, 0.000000000000000000 ) ) ;
#115 = CIRCLE ( 'NONE', #236, 2.600000000000000089 ) ;
#116 = CARTESIAN_POINT ( 'NONE',  ( 4.000000000000000000, 4.898587196589412829E-16, 5.500000000000005329 ) ) ;
#117 = EDGE_CURVE ( 'NONE', #157, #130, #61, .T. ) ;
#118 = DESIGN_CONTEXT ( 'detailed design', #159, 'design' ) ;
#119 = DIRECTION ( 'NONE',  ( 1.000000000000000000, 0.000000000000000000, 0.000000000000000000 ) ) ;
#120 = CARTESIAN_POINT ( 'NONE',  ( 0.000000000000000000, 0.000000000000000000, 5.000000000000000000 ) ) ;
#121 = ORIENTED_EDGE ( 'NONE', *, *, #351, .T. ) ;
#122 = VECTOR ( 'NONE', #376, 1000.000000000000000 ) ;
#123 = DIRECTION ( 'NONE',  ( -1.000000000000000000, 0.000000000000000000, 0.000000000000000000 ) ) ;
#124 = EDGE_LOOP ( 'NONE', ( #270, #248 ) ) ;
#125 = CYLINDRICAL_SURFACE ( 'NONE', #80, 4.000000000000000000 ) ;
#126 = ORIENTED_EDGE ( 'NONE', *, *, #319, .F. ) ;
#127 = DIRECTION ( 'NONE',  ( 0.000000000000000000, 0.000000000000000000, 1.000000000000000000 ) ) ;
#128 = ORIENTED_EDGE ( 'NONE', *, *, #13, .T. ) ;
#129 = PERSON_AND_ORGANIZATION_ROLE ( 'design_owner' ) ;
#130 = VERTEX_POINT ( 'NONE', #22 ) ;
#131 = APPROVAL ( #57, 'NEURÈENÝ' ) ;
#132 = ADVANCED_BREP_SHAPE_REPRESENTATION ( '0a88', ( #113, #139 ), #244 ) ;
#133 = COORDINATED_UNIVERSAL_TIME_OFFSET ( 1, 0, .AHEAD. ) ;
#134 = DIRECTION ( 'NONE',  ( 0.000000000000000000, 0.000000000000000000, -1.000000000000000000 ) ) ;
#135 = DATE_AND_TIME ( #308, #207 ) ;
#136 = DIRECTION ( 'NONE',  ( -0.000000000000000000, -0.000000000000000000, -1.000000000000000000 ) ) ;
#137 = APPROVAL_STATUS ( 'not_yet_approved' ) ;
#138 = CIRCLE ( 'NONE', #25, 4.000000000000000000 ) ;
#139 = AXIS2_PLACEMENT_3D ( 'NONE', #370, #101, #275 ) ;
#140 = FACE_OUTER_BOUND ( 'NONE', #100, .T. ) ;
#141 = CARTESIAN_POINT ( 'NONE',  ( 4.500000000000000888, 0.000000000000000000, 5.000000000000002665 ) ) ;
#142 = CIRCLE ( 'NONE', #112, 4.000000000000000000 ) ;
#143 = PERSON_AND_ORGANIZATION_ROLE ( 'design_supplier' ) ;
#144 = EDGE_CURVE ( 'NONE', #193, #47, #153, .T. ) ;
#145 = CC_DESIGN_DATE_AND_TIME_ASSIGNMENT ( #377, #27, ( #81 ) ) ;
#146 = AXIS2_PLACEMENT_3D ( 'NONE', #93, #35, #151 ) ;
#147 = CIRCLE ( 'NONE', #226, 7.000000000000000000 ) ;
#148 = CARTESIAN_POINT ( 'NONE',  ( 0.000000000000000000, 0.000000000000000000, 5.000000000000000000 ) ) ;
#149 = CYLINDRICAL_SURFACE ( 'NONE', #277, 4.000000000000000000 ) ;
#150 = ORIENTED_EDGE ( 'NONE', *, *, #103, .T. ) ;
#151 = DIRECTION ( 'NONE',  ( 1.000000000000000000, 0.000000000000000000, 0.000000000000000000 ) ) ;
#152 = ORIENTED_EDGE ( 'NONE', *, *, #369, .T. ) ;
#153 = CIRCLE ( 'NONE', #296, 2.600000000000000089 ) ;
#154 = APPROVAL_PERSON_ORGANIZATION ( #110, #131, #171 ) ;
#155 = DIRECTION ( 'NONE',  ( 0.000000000000000000, 0.000000000000000000, 1.000000000000000000 ) ) ;
#156 = MECHANICAL_CONTEXT ( 'NONE', #279, 'mechanical' ) ;
#157 = VERTEX_POINT ( 'NONE', #141 ) ;
#158 =( NAMED_UNIT ( * ) SI_UNIT ( $, .STERADIAN. ) SOLID_ANGLE_UNIT ( ) );
#159 = APPLICATION_CONTEXT ( 'configuration controlled 3d designs of mechanical parts and assemblies' ) ;
#160 = EDGE_LOOP ( 'NONE', ( #334, #182, #215, #31 ) ) ;
#161 = CC_DESIGN_PERSON_AND_ORGANIZATION_ASSIGNMENT ( #167, #372, ( #286 ) ) ;
#162 = VECTOR ( 'NONE', #320, 1000.000000000000000 ) ;
#163 = DIRECTION ( 'NONE',  ( 1.000000000000000000, 0.000000000000000000, 0.000000000000000000 ) ) ;
#164 = DIRECTION ( 'NONE',  ( 1.000000000000000000, 0.000000000000000000, 0.000000000000000000 ) ) ;
#165 = CARTESIAN_POINT ( 'NONE',  ( 2.600000000000000089, 3.184081677783118191E-16, 130.0000000000000000 ) ) ;
#166 = CARTESIAN_POINT ( 'NONE',  ( 0.000000000000000000, 0.000000000000000000, 0.000000000000000000 ) ) ;
#167 = PERSON_AND_ORGANIZATION ( #357, #306 ) ;
#168 = DIRECTION ( 'NONE',  ( 1.000000000000000000, 0.000000000000000000, 0.000000000000000000 ) ) ;
#169 = CIRCLE ( 'NONE', #359, 0.5000000000000004441 ) ;
#170 = CARTESIAN_POINT ( 'NONE',  ( 4.500000000000000888, 0.000000000000000000, 5.500000000000005329 ) ) ;
#171 = APPROVAL_ROLE ( '' ) ;
#172 = DIRECTION ( 'NONE',  ( 0.000000000000000000, 0.000000000000000000, 1.000000000000000000 ) ) ;
#173 = AXIS2_PLACEMENT_3D ( 'NONE', #378, #134, #373 ) ;
#174 = SECURITY_CLASSIFICATION_LEVEL ( 'unclassified' ) ;
#175 = ADVANCED_FACE ( 'NONE', ( #16 ), #258, .F. ) ;
#176 = LINE ( 'NONE', #240, #224 ) ;
#177 = EDGE_LOOP ( 'NONE', ( #128, #152, #339, #380 ) ) ;
#178 = CARTESIAN_POINT ( 'NONE',  ( 0.000000000000000000, 0.000000000000000000, 130.0000000000000000 ) ) ;
#179 = CIRCLE ( 'NONE', #194, 4.500000000000000888 ) ;
#180 = CC_DESIGN_APPROVAL ( #131, ( #81 ) ) ;
#181 = CARTESIAN_POINT ( 'NONE',  ( 7.000000000000000000, 8.572527594031473190E-16, 5.000000000000000000 ) ) ;
#182 = ORIENTED_EDGE ( 'NONE', *, *, #67, .T. ) ;
#183 = VERTEX_POINT ( 'NONE', #344 ) ;
#184 = ADVANCED_FACE ( 'NONE', ( #254 ), #149, .T. ) ;
#185 = DIRECTION ( 'NONE',  ( 1.000000000000000000, 0.000000000000000000, 0.000000000000000000 ) ) ;
#186 = VERTEX_POINT ( 'NONE', #64 ) ;
#187 = AXIS2_PLACEMENT_3D ( 'NONE', #331, #155, #299 ) ;
#188 = ORIENTED_EDGE ( 'NONE', *, *, #303, .F. ) ;
#189 = DIRECTION ( 'NONE',  ( 1.000000000000000000, 0.000000000000000000, 0.000000000000000000 ) ) ;
#190 = ADVANCED_FACE ( 'NONE', ( #69 ), #264, .F. ) ;
#191 = ORIENTED_EDGE ( 'NONE', *, *, #234, .T. ) ;
#192 = CARTESIAN_POINT ( 'NONE',  ( 0.000000000000000000, 0.000000000000000000, 5.000000000000000000 ) ) ;
#193 = VERTEX_POINT ( 'NONE', #90 ) ;
#194 = AXIS2_PLACEMENT_3D ( 'NONE', #120, #358, #333 ) ;
#195 = DIRECTION ( 'NONE',  ( -0.000000000000000000, -0.000000000000000000, -1.000000000000000000 ) ) ;
#196 = DIRECTION ( 'NONE',  ( -0.000000000000000000, -0.000000000000000000, -1.000000000000000000 ) ) ;
#197 = LINE ( 'NONE', #374, #122 ) ;
#198 = COORDINATED_UNIVERSAL_TIME_OFFSET ( 1, 0, .AHEAD. ) ;
#199 = DIRECTION ( 'NONE',  ( 1.000000000000000000, 0.000000000000000000, 0.000000000000000000 ) ) ;
#200 = AXIS2_PLACEMENT_3D ( 'NONE', #304, #355, #89 ) ;
#201 = LOCAL_TIME ( 11, 8, 28.00000000000000000, #381 ) ;
#202 = CARTESIAN_POINT ( 'NONE',  ( 2.600000000000000089, 3.184081677783118191E-16, 0.000000000000000000 ) ) ;
#203 = APPROVAL_ROLE ( '' ) ;
#204 = ADVANCED_FACE ( 'NONE', ( #1, #301 ), #295, .T. ) ;
#205 = UNCERTAINTY_MEASURE_WITH_UNIT (LENGTH_MEASURE( 1.000000000000000082E-05 ), #79, 'distance_accuracy_value', 'NONE');
#206 = TOROIDAL_SURFACE ( 'NONE', #326, 4.500000000000000888, 0.5000000000000000000 ) ;
#207 = LOCAL_TIME ( 11, 8, 28.00000000000000000, #222 ) ;
#208 = DIRECTION ( 'NONE',  ( -0.000000000000000000, -0.000000000000000000, -1.000000000000000000 ) ) ;
#209 = DIRECTION ( 'NONE',  ( 0.000000000000000000, 0.000000000000000000, 1.000000000000000000 ) ) ;
#210 = DIRECTION ( 'NONE',  ( -1.000000000000000000, 0.000000000000000000, 0.000000000000000000 ) ) ;
#211 = FACE_BOUND ( 'NONE', #309, .T. ) ;
#212 = EDGE_CURVE ( 'NONE', #12, #276, #348, .T. ) ;
#213 = VERTEX_POINT ( 'NONE', #116 ) ;
#214 = CARTESIAN_POINT ( 'NONE',  ( 0.000000000000000000, 0.000000000000000000, 0.000000000000000000 ) ) ;
#215 = ORIENTED_EDGE ( 'NONE', *, *, #109, .T. ) ;
#216 = CARTESIAN_POINT ( 'NONE',  ( 0.000000000000000000, 0.000000000000000000, 5.000000000000000000 ) ) ;
#217 = EDGE_LOOP ( 'NONE', ( #70, #274 ) ) ;
#218 = CC_DESIGN_PERSON_AND_ORGANIZATION_ASSIGNMENT ( #285, #143, ( #92 ) ) ;
#219 = DIRECTION ( 'NONE',  ( 1.000000000000000000, 0.000000000000000000, 0.000000000000000000 ) ) ;
#220 = ORIENTED_EDGE ( 'NONE', *, *, #37, .F. ) ;
#221 = FACE_BOUND ( 'NONE', #217, .T. ) ;
#222 = COORDINATED_UNIVERSAL_TIME_OFFSET ( 1, 0, .AHEAD. ) ;
#223 = CARTESIAN_POINT ( 'NONE',  ( 0.000000000000000000, 0.000000000000000000, 130.0000000000000000 ) ) ;
#224 = VECTOR ( 'NONE', #294, 1000.000000000000000 ) ;
#225 = DATE_TIME_ROLE ( 'creation_date' ) ;
#226 = AXIS2_PLACEMENT_3D ( 'NONE', #216, #97, #163 ) ;
#227 = EDGE_CURVE ( 'NONE', #36, #276, #361, .T. ) ;
#228 = DIRECTION ( 'NONE',  ( -0.000000000000000000, -0.000000000000000000, -1.000000000000000000 ) ) ;
#229 = CALENDAR_DATE ( 2022, 10, 7 ) ;
#230 = EDGE_CURVE ( 'NONE', #262, #213, #243, .T. ) ;
#231 = AXIS2_PLACEMENT_3D ( 'NONE', #18, #88, #287 ) ;
#232 = APPROVAL_DATE_TIME ( #289, #298 ) ;
#233 = ORIENTED_EDGE ( 'NONE', *, *, #230, .T. ) ;
#234 = EDGE_CURVE ( 'NONE', #183, #260, #315, .T. ) ;
#235 = DIRECTION ( 'NONE',  ( 0.000000000000000000, 0.000000000000000000, -1.000000000000000000 ) ) ;
#236 = AXIS2_PLACEMENT_3D ( 'NONE', #223, #52, #199 ) ;
#237 = CIRCLE ( 'NONE', #33, 7.000000000000000000 ) ;
#238 = ORIENTED_EDGE ( 'NONE', *, *, #103, .F. ) ;
#239 = CARTESIAN_POINT ( 'NONE',  ( 0.000000000000000000, 0.000000000000000000, 5.500000000000005329 ) ) ;
#240 = CARTESIAN_POINT ( 'NONE',  ( -7.000000000000000000, 0.000000000000000000, 5.000000000000000000 ) ) ;
#241 = PRODUCT_RELATED_PRODUCT_CATEGORY ( 'detail', '', ( #46 ) ) ;
#242 = CARTESIAN_POINT ( 'NONE',  ( 0.000000000000000000, 0.000000000000000000, 130.0000000000000000 ) ) ;
#243 = CIRCLE ( 'NONE', #99, 4.000000000000000000 ) ;
#244 =( GEOMETRIC_REPRESENTATION_CONTEXT ( 3 ) GLOBAL_UNCERTAINTY_ASSIGNED_CONTEXT ( ( #205 ) ) GLOBAL_UNIT_ASSIGNED_CONTEXT ( ( #79, #45, #158 ) ) REPRESENTATION_CONTEXT ( 'NONE', 'WORKASPACE' ) );
#245 = ORIENTED_EDGE ( 'NONE', *, *, #227, .T. ) ;
#246 = CARTESIAN_POINT ( 'NONE',  ( 0.000000000000000000, 0.000000000000000000, 0.000000000000000000 ) ) ;
#247 = DIRECTION ( 'NONE',  ( -0.000000000000000000, -0.000000000000000000, -1.000000000000000000 ) ) ;
#248 = ORIENTED_EDGE ( 'NONE', *, *, #379, .F. ) ;
#249 = ADVANCED_FACE ( 'NONE', ( #211, #265 ), #95, .F. ) ;
#250 = ORIENTED_EDGE ( 'NONE', *, *, #23, .T. ) ;
#251 = EDGE_LOOP ( 'NONE', ( #307, #245, #96, #360 ) ) ;
#252 = CARTESIAN_POINT ( 'NONE',  ( -7.000000000000000000, 0.000000000000000000, 0.000000000000000000 ) ) ;
#253 = EDGE_CURVE ( 'NONE', #36, #186, #297, .T. ) ;
#254 = FACE_OUTER_BOUND ( 'NONE', #362, .T. ) ;
#255 = CLOSED_SHELL ( 'NONE', ( #175, #346, #314, #341, #82, #204, #249, #184, #6, #190, #28 ) ) ;
#256 = FACE_OUTER_BOUND ( 'NONE', #251, .T. ) ;
#257 = CARTESIAN_POINT ( 'NONE',  ( 0.000000000000000000, 0.000000000000000000, 5.500000000000005329 ) ) ;
#258 = CYLINDRICAL_SURFACE ( 'NONE', #173, 2.600000000000000089 ) ;
#259 = CIRCLE ( 'NONE', #56, 0.5000000000000004441 ) ;
#260 = VERTEX_POINT ( 'NONE', #7 ) ;
#261 = PERSON_AND_ORGANIZATION ( #357, #306 ) ;
#262 = VERTEX_POINT ( 'NONE', #4 ) ;
#263 = DIRECTION ( 'NONE',  ( 0.000000000000000000, 0.000000000000000000, 1.000000000000000000 ) ) ;
#264 = TOROIDAL_SURFACE ( 'NONE', #187, 4.500000000000000888, 0.5000000000000000000 ) ;
#265 = FACE_OUTER_BOUND ( 'NONE', #124, .T. ) ;
#266 = CC_DESIGN_PERSON_AND_ORGANIZATION_ASSIGNMENT ( #292, #21, ( #81 ) ) ;
#267 = DIRECTION ( 'NONE',  ( 1.000000000000000000, 0.000000000000000000, -0.000000000000000000 ) ) ;
#268 = ORIENTED_EDGE ( 'NONE', *, *, #109, .F. ) ;
#269 = DIRECTION ( 'NONE',  ( 1.000000000000000000, 0.000000000000000000, 0.000000000000000000 ) ) ;
#270 = ORIENTED_EDGE ( 'NONE', *, *, #212, .F. ) ;
#271 = FACE_OUTER_BOUND ( 'NONE', #160, .T. ) ;
#272 = CC_DESIGN_PERSON_AND_ORGANIZATION_ASSIGNMENT ( #261, #26, ( #92 ) ) ;
#273 = CARTESIAN_POINT ( 'NONE',  ( 0.000000000000000000, 0.000000000000000000, 0.000000000000000000 ) ) ;
#274 = ORIENTED_EDGE ( 'NONE', *, *, #280, .F. ) ;
#275 = DIRECTION ( 'NONE',  ( 1.000000000000000000, 0.000000000000000000, 0.000000000000000000 ) ) ;
#276 = VERTEX_POINT ( 'NONE', #34 ) ;
#277 = AXIS2_PLACEMENT_3D ( 'NONE', #356, #208, #123 ) ;
#278 = DIRECTION ( 'NONE',  ( -1.000000000000000000, 0.000000000000000000, 0.000000000000000000 ) ) ;
#279 = APPLICATION_CONTEXT ( 'configuration controlled 3d designs of mechanical parts and assemblies' ) ;
#280 = EDGE_CURVE ( 'NONE', #364, #329, #8, .T. ) ;
#281 = CARTESIAN_POINT ( 'NONE',  ( 0.000000000000000000, 0.000000000000000000, 5.500000000000005329 ) ) ;
#282 = DIRECTION ( 'NONE',  ( 0.000000000000000000, -1.000000000000000000, 0.000000000000000000 ) ) ;
#283 = CALENDAR_DATE ( 2022, 10, 7 ) ;
#284 = AXIS2_PLACEMENT_3D ( 'NONE', #29, #104, #84 ) ;
#285 = PERSON_AND_ORGANIZATION ( #357, #306 ) ;
#286 = PRODUCT_DEFINITION ( 'NEZNÁMÝ', '', #92, #118 ) ;
#287 = DIRECTION ( 'NONE',  ( 1.000000000000000000, 0.000000000000000000, 0.000000000000000000 ) ) ;
#288 = PLANE ( 'NONE',  #284 ) ;
#289 = DATE_AND_TIME ( #290, #349 ) ;
#290 = CALENDAR_DATE ( 2022, 10, 7 ) ;
#291 = AXIS2_PLACEMENT_3D ( 'NONE', #63, #363, #119 ) ;
#292 = PERSON_AND_ORGANIZATION ( #357, #306 ) ;
#293 = EDGE_CURVE ( 'NONE', #130, #157, #179, .T. ) ;
#294 = DIRECTION ( 'NONE',  ( -0.000000000000000000, -0.000000000000000000, -1.000000000000000000 ) ) ;
#295 = PLANE ( 'NONE',  #20 ) ;
#296 = AXIS2_PLACEMENT_3D ( 'NONE', #166, #136, #164 ) ;
#297 = CIRCLE ( 'NONE', #200, 7.000000000000000000 ) ;
#298 = APPROVAL ( #137, 'NEURÈENÝ' ) ;
#299 = DIRECTION ( 'NONE',  ( 1.000000000000000000, 0.000000000000000000, 0.000000000000000000 ) ) ;
#300 = ORIENTED_EDGE ( 'NONE', *, *, #144, .T. ) ;
#301 = FACE_OUTER_BOUND ( 'NONE', #44, .T. ) ;
#302 = EDGE_LOOP ( 'NONE', ( #325, #191 ) ) ;
#303 = EDGE_CURVE ( 'NONE', #260, #183, #142, .T. ) ;
#304 = CARTESIAN_POINT ( 'NONE',  ( 0.000000000000000000, 0.000000000000000000, 5.000000000000000000 ) ) ;
#305 = VECTOR ( 'NONE', #228, 1000.000000000000000 ) ;
#306 = ORGANIZATION ( 'NEURÈENÝ', 'NEURÈENÝ', '' ) ;
#307 = ORIENTED_EDGE ( 'NONE', *, *, #253, .F. ) ;
#308 = CALENDAR_DATE ( 2022, 10, 7 ) ;
#309 = EDGE_LOOP ( 'NONE', ( #42, #126 ) ) ;
#310 = DIRECTION ( 'NONE',  ( 0.000000000000000000, 0.000000000000000000, 1.000000000000000000 ) ) ;
#311 = ORIENTED_EDGE ( 'NONE', *, *, #212, .T. ) ;
#312 = APPROVAL_STATUS ( 'not_yet_approved' ) ;
#313 = DIRECTION ( 'NONE',  ( -1.000000000000000000, 1.224646799147351482E-16, 0.000000000000000000 ) ) ;
#314 = ADVANCED_FACE ( 'NONE', ( #271 ), #125, .T. ) ;
#315 = CIRCLE ( 'NONE', #146, 4.000000000000000000 ) ;
#316 = CARTESIAN_POINT ( 'NONE',  ( 0.000000000000000000, 0.000000000000000000, 130.0000000000000000 ) ) ;
#317 = FACE_OUTER_BOUND ( 'NONE', #332, .T. ) ;
#318 = CARTESIAN_POINT ( 'NONE',  ( -4.000000000000000000, 0.000000000000000000, 130.0000000000000000 ) ) ;
#319 = EDGE_CURVE ( 'NONE', #47, #193, #49, .T. ) ;
#320 = DIRECTION ( 'NONE',  ( -0.000000000000000000, -0.000000000000000000, -1.000000000000000000 ) ) ;
#321 = LOCAL_TIME ( 11, 8, 28.00000000000000000, #133 ) ;
#322 = LINE ( 'NONE', #318, #305 ) ;
#323 = CALENDAR_DATE ( 2022, 10, 7 ) ;
#324 = EDGE_CURVE ( 'NONE', #186, #12, #176, .T. ) ;
#325 = ORIENTED_EDGE ( 'NONE', *, *, #303, .T. ) ;
#326 = AXIS2_PLACEMENT_3D ( 'NONE', #281, #310, #189 ) ;
#327 = DIRECTION ( 'NONE',  ( 1.000000000000000000, 0.000000000000000000, 0.000000000000000000 ) ) ;
#328 = DIRECTION ( 'NONE',  ( 1.000000000000000000, 0.000000000000000000, -0.000000000000000000 ) ) ;
#329 = VERTEX_POINT ( 'NONE', #30 ) ;
#330 = DIRECTION ( 'NONE',  ( 0.000000000000000000, 0.000000000000000000, 1.000000000000000000 ) ) ;
#331 = CARTESIAN_POINT ( 'NONE',  ( 0.000000000000000000, 0.000000000000000000, 5.500000000000005329 ) ) ;
#332 = EDGE_LOOP ( 'NONE', ( #368, #150, #5, #220 ) ) ;
#333 = DIRECTION ( 'NONE',  ( 1.000000000000000000, 0.000000000000000000, 0.000000000000000000 ) ) ;
#334 = ORIENTED_EDGE ( 'NONE', *, *, #234, .F. ) ;
#335 = AXIS2_PLACEMENT_3D ( 'NONE', #316, #235, #114 ) ;
#336 = CC_DESIGN_APPROVAL ( #298, ( #92 ) ) ;
#337 = ORIENTED_EDGE ( 'NONE', *, *, #351, .F. ) ;
#338 = DIRECTION ( 'NONE',  ( -1.000000000000000000, 0.000000000000000000, 0.000000000000000000 ) ) ;
#339 = ORIENTED_EDGE ( 'NONE', *, *, #319, .T. ) ;
#340 = PERSON_AND_ORGANIZATION ( #357, #306 ) ;
#341 = ADVANCED_FACE ( 'NONE', ( #256 ), #53, .T. ) ;
#342 = FACE_OUTER_BOUND ( 'NONE', #302, .T. ) ;
#343 = PRODUCT_DEFINITION_SHAPE ( 'NONE', 'NONE',  #286 ) ;
#344 = CARTESIAN_POINT ( 'NONE',  ( 4.000000000000000000, 4.898587196589412829E-16, 130.0000000000000000 ) ) ;
#345 = APPROVAL_DATE_TIME ( #74, #58 ) ;
#346 = ADVANCED_FACE ( 'NONE', ( #317 ), #206, .F. ) ;
#347 = CARTESIAN_POINT ( 'NONE',  ( 7.000000000000000000, 8.572527594031473190E-16, 5.000000000000000000 ) ) ;
#348 = CIRCLE ( 'NONE', #91, 7.000000000000000000 ) ;
#349 = LOCAL_TIME ( 11, 8, 28.00000000000000000, #198 ) ;
#350 = DATE_AND_TIME ( #229, #375 ) ;
#351 = EDGE_CURVE ( 'NONE', #186, #36, #147, .T. ) ;
#352 = LINE ( 'NONE', #54, #162 ) ;
#353 = ORIENTED_EDGE ( 'NONE', *, *, #324, .T. ) ;
#354 = CC_DESIGN_PERSON_AND_ORGANIZATION_ASSIGNMENT ( #340, #129, ( #46 ) ) ;
#355 = DIRECTION ( 'NONE',  ( 0.000000000000000000, 0.000000000000000000, 1.000000000000000000 ) ) ;
#356 = CARTESIAN_POINT ( 'NONE',  ( 0.000000000000000000, 0.000000000000000000, 130.0000000000000000 ) ) ;
#357 = PERSON ( 'NEURÈENÝ', 'NEURÈENÝ', 'NEURÈENÝ', ('NEURÈENÝ'), ('NEURÈENÝ'), ('NEURÈENÝ') ) ;
#358 = DIRECTION ( 'NONE',  ( -0.000000000000000000, -0.000000000000000000, -1.000000000000000000 ) ) ;
#359 = AXIS2_PLACEMENT_3D ( 'NONE', #170, #282, #86 ) ;
#360 = ORIENTED_EDGE ( 'NONE', *, *, #324, .F. ) ;
#361 = LINE ( 'NONE', #181, #105 ) ;
#362 = EDGE_LOOP ( 'NONE', ( #371, #188, #39, #233 ) ) ;
#363 = DIRECTION ( 'NONE',  ( -0.000000000000000000, -0.000000000000000000, -1.000000000000000000 ) ) ;
#364 = VERTEX_POINT ( 'NONE', #165 ) ;
#365 = LINE ( 'NONE', #83, #367 ) ;
#366 = AXIS2_PLACEMENT_3D ( 'NONE', #214, #38, #267 ) ;
#367 = VECTOR ( 'NONE', #11, 1000.000000000000000 ) ;
#368 = ORIENTED_EDGE ( 'NONE', *, *, #230, .F. ) ;
#369 = EDGE_CURVE ( 'NONE', #364, #47, #365, .T. ) ;
#370 = CARTESIAN_POINT ( 'NONE',  ( 0.000000000000000000, 0.000000000000000000, 0.000000000000000000 ) ) ;
#371 = ORIENTED_EDGE ( 'NONE', *, *, #67, .F. ) ;
#372 = PERSON_AND_ORGANIZATION_ROLE ( 'creator' ) ;
#373 = DIRECTION ( 'NONE',  ( -1.000000000000000000, 0.000000000000000000, 0.000000000000000000 ) ) ;
#374 = CARTESIAN_POINT ( 'NONE',  ( -2.600000000000000089, 0.000000000000000000, 130.0000000000000000 ) ) ;
#375 = LOCAL_TIME ( 11, 8, 28.00000000000000000, #111 ) ;
#376 = DIRECTION ( 'NONE',  ( 0.000000000000000000, 0.000000000000000000, -1.000000000000000000 ) ) ;
#377 = DATE_AND_TIME ( #323, #201 ) ;
#378 = CARTESIAN_POINT ( 'NONE',  ( 0.000000000000000000, 0.000000000000000000, 130.0000000000000000 ) ) ;
#379 = EDGE_CURVE ( 'NONE', #276, #12, #237, .T. ) ;
#380 = ORIENTED_EDGE ( 'NONE', *, *, #23, .F. ) ;
#381 = COORDINATED_UNIVERSAL_TIME_OFFSET ( 1, 0, .AHEAD. ) ;
ENDSEC;
END-ISO-10303-21;
