ISO-10303-21;
HEADER;
FILE_DESCRIPTION (( 'STEP AP203' ),
    '1' );
FILE_NAME ('c85e.STEP',
    '2022-07-10T09:04:03',
    ( '' ),
    ( '' ),
    'SwSTEP 2.0',
    'SolidWorks 2019',
    '' );
FILE_SCHEMA (( 'CONFIG_CONTROL_DESIGN' ));
ENDSEC;

DATA;
#1 = CYLINDRICAL_SURFACE ( 'NONE', #113, 6.000000000000000888 ) ;
#2 = CARTESIAN_POINT ( 'NONE',  ( 0.000000000000000000, 0.000000000000000000, 167.0000000000000000 ) ) ;
#3 = DATE_TIME_ROLE ( 'creation_date' ) ;
#4 = PRODUCT_DEFINITION_FORMATION_WITH_SPECIFIED_SOURCE ( 'LIBOVOLNÝ', '', #331, .NOT_KNOWN. ) ;
#5 = CARTESIAN_POINT ( 'NONE',  ( 0.000000000000000000, 0.000000000000000000, 7.000000000000000000 ) ) ;
#6 = ORIENTED_EDGE ( 'NONE', *, *, #233, .T. ) ;
#7 = APPROVAL_STATUS ( 'not_yet_approved' ) ;
#8 = DIRECTION ( 'NONE',  ( 1.000000000000000000, 0.000000000000000000, 0.000000000000000000 ) ) ;
#9 = APPROVAL_ROLE ( '' ) ;
#10 = CC_DESIGN_PERSON_AND_ORGANIZATION_ASSIGNMENT ( #269, #66, ( #119 ) ) ;
#11 = DIRECTION ( 'NONE',  ( 0.000000000000000000, 0.000000000000000000, 1.000000000000000000 ) ) ;
#12 = EDGE_LOOP ( 'NONE', ( #114, #225 ) ) ;
#13 = AXIS2_PLACEMENT_3D ( 'NONE', #50, #29, #166 ) ;
#14 = CIRCLE ( 'NONE', #292, 4.000000000000000000 ) ;
#15 = EDGE_CURVE ( 'NONE', #272, #222, #210, .T. ) ;
#16 = ORIENTED_EDGE ( 'NONE', *, *, #251, .T. ) ;
#17 = ORIENTED_EDGE ( 'NONE', *, *, #131, .T. ) ;
#18 = ORIENTED_EDGE ( 'NONE', *, *, #52, .F. ) ;
#19 = CIRCLE ( 'NONE', #62, 0.7000000000000000666 ) ;
#20 = CLOSED_SHELL ( 'NONE', ( #141, #67, #262, #176, #312, #379, #360, #107, #22, #268, #82 ) ) ;
#21 = DIRECTION ( 'NONE',  ( 0.000000000000000000, 0.000000000000000000, -1.000000000000000000 ) ) ;
#22 = ADVANCED_FACE ( 'NONE', ( #314, #111 ), #55, .T. ) ;
#23 = ORIENTED_EDGE ( 'NONE', *, *, #184, .T. ) ;
#24 = CARTESIAN_POINT ( 'NONE',  ( 0.000000000000000000, 0.000000000000000000, 7.000000000000000000 ) ) ;
#25 = DIRECTION ( 'NONE',  ( 1.000000000000000000, 0.000000000000000000, 0.000000000000000000 ) ) ;
#26 = APPROVAL_PERSON_ORGANIZATION ( #299, #104, #264 ) ;
#27 = MECHANICAL_CONTEXT ( 'NONE', #270, 'mechanical' ) ;
#28 = UNCERTAINTY_MEASURE_WITH_UNIT (LENGTH_MEASURE( 1.000000000000000082E-05 ), #147, 'distance_accuracy_value', 'NONE');
#29 = DIRECTION ( 'NONE',  ( 0.000000000000000000, -1.000000000000000000, 0.000000000000000000 ) ) ;
#30 = EDGE_CURVE ( 'NONE', #152, #348, #132, .T. ) ;
#31 = PLANE ( 'NONE',  #142 ) ;
#32 = VECTOR ( 'NONE', #49, 1000.000000000000000 ) ;
#33 = CYLINDRICAL_SURFACE ( 'NONE', #231, 4.000000000000000000 ) ;
#34 = DATE_AND_TIME ( #306, #236 ) ;
#35 = EDGE_CURVE ( 'NONE', #189, #68, #237, .T. ) ;
#36 = LINE ( 'NONE', #293, #248 ) ;
#37 = PERSON_AND_ORGANIZATION ( #178, #329 ) ;
#38 = CARTESIAN_POINT ( 'NONE',  ( 0.000000000000000000, 0.000000000000000000, 167.0000000000000000 ) ) ;
#39 = ORIENTED_EDGE ( 'NONE', *, *, #35, .T. ) ;
#40 = LOCAL_TIME ( 11, 4, 3.000000000000000000, #296 ) ;
#41 = CARTESIAN_POINT ( 'NONE',  ( 6.000000000000000888, 7.347880794884120722E-16, 7.700000000000012612 ) ) ;
#42 = APPROVAL ( #43, 'NEURÈENÝ' ) ;
#43 = APPROVAL_STATUS ( 'not_yet_approved' ) ;
#44 = ORIENTED_EDGE ( 'NONE', *, *, #320, .F. ) ;
#45 = CARTESIAN_POINT ( 'NONE',  ( 0.000000000000000000, 0.000000000000000000, 0.000000000000000000 ) ) ;
#46 = CIRCLE ( 'NONE', #349, 10.00000000000000000 ) ;
#47 = CC_DESIGN_APPROVAL ( #279, ( #356 ) ) ;
#48 = CIRCLE ( 'NONE', #101, 4.000000000000000000 ) ;
#49 = DIRECTION ( 'NONE',  ( -0.000000000000000000, -0.000000000000000000, -1.000000000000000000 ) ) ;
#50 = CARTESIAN_POINT ( 'NONE',  ( 6.700000000000001066, 0.000000000000000000, 7.700000000000012612 ) ) ;
#51 =( NAMED_UNIT ( * ) SI_UNIT ( $, .STERADIAN. ) SOLID_ANGLE_UNIT ( ) );
#52 = EDGE_CURVE ( 'NONE', #189, #249, #78, .T. ) ;
#53 = FACE_OUTER_BOUND ( 'NONE', #183, .T. ) ;
#54 = DIRECTION ( 'NONE',  ( 1.224646799147353207E-16, 1.000000000000000000, -0.000000000000000000 ) ) ;
#55 = PLANE ( 'NONE',  #244 ) ;
#56 = FACE_OUTER_BOUND ( 'NONE', #258, .T. ) ;
#57 = DIRECTION ( 'NONE',  ( 1.000000000000000000, 0.000000000000000000, 0.000000000000000000 ) ) ;
#58 = VERTEX_POINT ( 'NONE', #286 ) ;
#59 = APPROVAL_STATUS ( 'not_yet_approved' ) ;
#60 = DIRECTION ( 'NONE',  ( 0.000000000000000000, 0.000000000000000000, 1.000000000000000000 ) ) ;
#61 = EDGE_CURVE ( 'NONE', #191, #247, #291, .T. ) ;
#62 = AXIS2_PLACEMENT_3D ( 'NONE', #284, #54, #170 ) ;
#63 = CIRCLE ( 'NONE', #332, 4.000000000000000000 ) ;
#64 = CALENDAR_DATE ( 2022, 10, 7 ) ;
#65 = CARTESIAN_POINT ( 'NONE',  ( 0.000000000000000000, 0.000000000000000000, 167.0000000000000000 ) ) ;
#66 = PERSON_AND_ORGANIZATION_ROLE ( 'classification_officer' ) ;
#67 = ADVANCED_FACE ( 'NONE', ( #53 ), #120, .F. ) ;
#68 = VERTEX_POINT ( 'NONE', #85 ) ;
#69 = APPROVAL_ROLE ( '' ) ;
#70 = LOCAL_TIME ( 11, 4, 3.000000000000000000, #180 ) ;
#71 = CARTESIAN_POINT ( 'NONE',  ( -6.000000000000000888, 0.000000000000000000, 167.0000000000000000 ) ) ;
#72 = EDGE_LOOP ( 'NONE', ( #338, #267 ) ) ;
#73 = DIRECTION ( 'NONE',  ( -0.000000000000000000, -0.000000000000000000, -1.000000000000000000 ) ) ;
#74 = AXIS2_PLACEMENT_3D ( 'NONE', #340, #276, #307 ) ;
#75 = ORIENTED_EDGE ( 'NONE', *, *, #326, .T. ) ;
#76 = EDGE_CURVE ( 'NONE', #152, #247, #146, .T. ) ;
#77 = EDGE_LOOP ( 'NONE', ( #75, #311 ) ) ;
#78 = CIRCLE ( 'NONE', #281, 6.000000000000000888 ) ;
#79 = ORIENTED_EDGE ( 'NONE', *, *, #196, .T. ) ;
#80 = AXIS2_PLACEMENT_3D ( 'NONE', #65, #365, #89 ) ;
#81 = DIRECTION ( 'NONE',  ( -1.000000000000000000, 0.000000000000000000, 0.000000000000000000 ) ) ;
#82 = ADVANCED_FACE ( 'NONE', ( #177 ), #33, .F. ) ;
#83 = DIRECTION ( 'NONE',  ( 0.000000000000000000, 0.000000000000000000, 1.000000000000000000 ) ) ;
#84 = PERSON_AND_ORGANIZATION ( #178, #329 ) ;
#85 = CARTESIAN_POINT ( 'NONE',  ( 6.700000000000001066, 0.000000000000000000, 7.000000000000006217 ) ) ;
#86 = CIRCLE ( 'NONE', #275, 6.000000000000000888 ) ;
#87 =( NAMED_UNIT ( * ) PLANE_ANGLE_UNIT ( ) SI_UNIT ( $, .RADIAN. ) );
#88 = DIRECTION ( 'NONE',  ( 1.000000000000000000, 0.000000000000000000, 0.000000000000000000 ) ) ;
#89 = DIRECTION ( 'NONE',  ( -1.000000000000000000, 0.000000000000000000, 0.000000000000000000 ) ) ;
#90 = FACE_OUTER_BOUND ( 'NONE', #179, .T. ) ;
#91 = CALENDAR_DATE ( 2022, 10, 7 ) ;
#92 = CIRCLE ( 'NONE', #167, 6.700000000000001066 ) ;
#93 = PRODUCT_DEFINITION_SHAPE ( 'NONE', 'NONE',  #356 ) ;
#94 = DIRECTION ( 'NONE',  ( 0.000000000000000000, 0.000000000000000000, 1.000000000000000000 ) ) ;
#95 = APPROVAL_DATE_TIME ( #156, #42 ) ;
#96 = CC_DESIGN_DATE_AND_TIME_ASSIGNMENT ( #34, #3, ( #356 ) ) ;
#97 = FACE_OUTER_BOUND ( 'NONE', #278, .T. ) ;
#98 = ORIENTED_EDGE ( 'NONE', *, *, #61, .T. ) ;
#99 = ORIENTED_EDGE ( 'NONE', *, *, #135, .F. ) ;
#100 = PERSON_AND_ORGANIZATION_ROLE ( 'creator' ) ;
#101 = AXIS2_PLACEMENT_3D ( 'NONE', #151, #263, #239 ) ;
#102 = CARTESIAN_POINT ( 'NONE',  ( -6.700000000000001066, 8.205133554287267548E-16, 7.000000000000006217 ) ) ;
#103 = EDGE_LOOP ( 'NONE', ( #116, #23, #308, #187 ) ) ;
#104 = APPROVAL ( #7, 'NEURÈENÝ' ) ;
#105 = ORIENTED_EDGE ( 'NONE', *, *, #76, .T. ) ;
#106 = ORIENTED_EDGE ( 'NONE', *, *, #184, .F. ) ;
#107 = ADVANCED_FACE ( 'NONE', ( #298 ), #1, .T. ) ;
#108 = CARTESIAN_POINT ( 'NONE',  ( 4.000000000000000000, 4.898587196589411843E-16, 167.0000000000000000 ) ) ;
#109 = DIRECTION ( 'NONE',  ( -0.000000000000000000, -0.000000000000000000, -1.000000000000000000 ) ) ;
#110 = VECTOR ( 'NONE', #260, 1000.000000000000000 ) ;
#111 = FACE_OUTER_BOUND ( 'NONE', #12, .T. ) ;
#112 = AXIS2_PLACEMENT_3D ( 'NONE', #238, #143, #88 ) ;
#113 = AXIS2_PLACEMENT_3D ( 'NONE', #38, #295, #172 ) ;
#114 = ORIENTED_EDGE ( 'NONE', *, *, #15, .T. ) ;
#115 = FACE_BOUND ( 'NONE', #72, .T. ) ;
#116 = ORIENTED_EDGE ( 'NONE', *, *, #297, .F. ) ;
#117 = DIRECTION ( 'NONE',  ( 1.000000000000000000, 0.000000000000000000, -0.000000000000000000 ) ) ;
#118 = CYLINDRICAL_SURFACE ( 'NONE', #80, 4.000000000000000000 ) ;
#119 = SECURITY_CLASSIFICATION ( '', '', #333 ) ;
#120 = TOROIDAL_SURFACE ( 'NONE', #274, 6.700000000000001066, 0.6999999999999999556 ) ;
#121 = CC_DESIGN_PERSON_AND_ORGANIZATION_ASSIGNMENT ( #37, #245, ( #356 ) ) ;
#122 = ORIENTED_EDGE ( 'NONE', *, *, #15, .F. ) ;
#123 = COORDINATED_UNIVERSAL_TIME_OFFSET ( 1, 0, .AHEAD. ) ;
#124 = DIRECTION ( 'NONE',  ( 0.000000000000000000, 0.000000000000000000, 1.000000000000000000 ) ) ;
#125 = EDGE_CURVE ( 'NONE', #216, #378, #63, .T. ) ;
#126 = DATE_AND_TIME ( #91, #70 ) ;
#127 = DIRECTION ( 'NONE',  ( -0.000000000000000000, -0.000000000000000000, -1.000000000000000000 ) ) ;
#128 = COORDINATED_UNIVERSAL_TIME_OFFSET ( 1, 0, .AHEAD. ) ;
#129 = EDGE_LOOP ( 'NONE', ( #366, #18, #39, #145 ) ) ;
#130 = AXIS2_PLACEMENT_3D ( 'NONE', #351, #138, #367 ) ;
#131 = EDGE_CURVE ( 'NONE', #313, #58, #48, .T. ) ;
#132 = CIRCLE ( 'NONE', #173, 10.00000000000000000 ) ;
#133 = ORIENTED_EDGE ( 'NONE', *, *, #371, .T. ) ;
#134 = ORIENTED_EDGE ( 'NONE', *, *, #202, .F. ) ;
#135 = EDGE_CURVE ( 'NONE', #247, #191, #203, .T. ) ;
#136 = VECTOR ( 'NONE', #153, 1000.000000000000000 ) ;
#137 = DIRECTION ( 'NONE',  ( 0.000000000000000000, 0.000000000000000000, 1.000000000000000000 ) ) ;
#138 = DIRECTION ( 'NONE',  ( 0.000000000000000000, 0.000000000000000000, 1.000000000000000000 ) ) ;
#139 = CARTESIAN_POINT ( 'NONE',  ( 0.000000000000000000, 0.000000000000000000, 167.0000000000000000 ) ) ;
#140 = APPLICATION_PROTOCOL_DEFINITION ( 'international standard', 'config_control_design', 1994, #270 ) ;
#141 = ADVANCED_FACE ( 'NONE', ( #97 ), #118, .F. ) ;
#142 = AXIS2_PLACEMENT_3D ( 'NONE', #24, #199, #235 ) ;
#143 = DIRECTION ( 'NONE',  ( 0.000000000000000000, 0.000000000000000000, 1.000000000000000000 ) ) ;
#144 = DIRECTION ( 'NONE',  ( -0.000000000000000000, -0.000000000000000000, -1.000000000000000000 ) ) ;
#145 = ORIENTED_EDGE ( 'NONE', *, *, #289, .F. ) ;
#146 = LINE ( 'NONE', #325, #110 ) ;
#147 =( LENGTH_UNIT ( ) NAMED_UNIT ( * ) SI_UNIT ( .MILLI., .METRE. ) );
#148 = CARTESIAN_POINT ( 'NONE',  ( 0.000000000000000000, 0.000000000000000000, 0.000000000000000000 ) ) ;
#149 = PERSON_AND_ORGANIZATION ( #178, #329 ) ;
#150 = CARTESIAN_POINT ( 'NONE',  ( 0.000000000000000000, 0.000000000000000000, 167.0000000000000000 ) ) ;
#151 = CARTESIAN_POINT ( 'NONE',  ( 0.000000000000000000, 0.000000000000000000, 167.0000000000000000 ) ) ;
#152 = VERTEX_POINT ( 'NONE', #207 ) ;
#153 = DIRECTION ( 'NONE',  ( -0.000000000000000000, -0.000000000000000000, -1.000000000000000000 ) ) ;
#154 = ORIENTED_EDGE ( 'NONE', *, *, #165, .F. ) ;
#155 = DIRECTION ( 'NONE',  ( -0.000000000000000000, -0.000000000000000000, -1.000000000000000000 ) ) ;
#156 = DATE_AND_TIME ( #364, #255 ) ;
#157 = EDGE_CURVE ( 'NONE', #348, #152, #46, .T. ) ;
#158 = ORIENTED_EDGE ( 'NONE', *, *, #30, .T. ) ;
#159 = AXIS2_PLACEMENT_3D ( 'NONE', #5, #214, #337 ) ;
#160 = DIRECTION ( 'NONE',  ( 1.000000000000000000, 0.000000000000000000, 0.000000000000000000 ) ) ;
#161 = ORIENTED_EDGE ( 'NONE', *, *, #76, .F. ) ;
#162 = ORIENTED_EDGE ( 'NONE', *, *, #157, .T. ) ;
#163 = ORIENTED_EDGE ( 'NONE', *, *, #61, .F. ) ;
#164 = DIRECTION ( 'NONE',  ( 1.000000000000000000, 0.000000000000000000, 0.000000000000000000 ) ) ;
#165 = EDGE_CURVE ( 'NONE', #222, #189, #36, .T. ) ;
#166 = DIRECTION ( 'NONE',  ( 0.000000000000000000, 0.000000000000000000, -1.000000000000000000 ) ) ;
#167 = AXIS2_PLACEMENT_3D ( 'NONE', #362, #144, #164 ) ;
#168 = EDGE_LOOP ( 'NONE', ( #99, #163 ) ) ;
#169 = PRODUCT_RELATED_PRODUCT_CATEGORY ( 'detail', '', ( #331 ) ) ;
#170 = DIRECTION ( 'NONE',  ( -1.000000000000000000, 1.224646799147353454E-16, 0.000000000000000000 ) ) ;
#171 = ORIENTED_EDGE ( 'NONE', *, *, #251, .F. ) ;
#172 = DIRECTION ( 'NONE',  ( -1.000000000000000000, 0.000000000000000000, 0.000000000000000000 ) ) ;
#173 = AXIS2_PLACEMENT_3D ( 'NONE', #355, #282, #319 ) ;
#174 = DIRECTION ( 'NONE',  ( 1.000000000000000000, 0.000000000000000000, 0.000000000000000000 ) ) ;
#175 = DATE_AND_TIME ( #64, #211 ) ;
#176 = ADVANCED_FACE ( 'NONE', ( #90 ), #209, .T. ) ;
#177 = FACE_OUTER_BOUND ( 'NONE', #103, .T. ) ;
#178 = PERSON ( 'NEURÈENÝ', 'NEURÈENÝ', 'NEURÈENÝ', ('NEURÈENÝ'), ('NEURÈENÝ'), ('NEURÈENÝ') ) ;
#179 = EDGE_LOOP ( 'NONE', ( #309, #79, #98, #161 ) ) ;
#180 = COORDINATED_UNIVERSAL_TIME_OFFSET ( 1, 0, .AHEAD. ) ;
#181 = AXIS2_PLACEMENT_3D ( 'NONE', #335, #94, #363 ) ;
#182 = DIRECTION ( 'NONE',  ( 1.000000000000000000, 0.000000000000000000, 0.000000000000000000 ) ) ;
#183 = EDGE_LOOP ( 'NONE', ( #302, #133, #370, #219 ) ) ;
#184 = EDGE_CURVE ( 'NONE', #58, #313, #14, .T. ) ;
#185 = PERSON_AND_ORGANIZATION ( #178, #329 ) ;
#186 = FACE_OUTER_BOUND ( 'NONE', #193, .T. ) ;
#187 = ORIENTED_EDGE ( 'NONE', *, *, #125, .T. ) ;
#188 = CARTESIAN_POINT ( 'NONE',  ( 0.000000000000000000, 0.000000000000000000, 7.700000000000012612 ) ) ;
#189 = VERTEX_POINT ( 'NONE', #41 ) ;
#190 = AXIS2_PLACEMENT_3D ( 'NONE', #304, #73, #160 ) ;
#191 = VERTEX_POINT ( 'NONE', #300 ) ;
#192 = MANIFOLD_SOLID_BREP ( 'Odebrat vysunutím3', #20 ) ;
#193 = EDGE_LOOP ( 'NONE', ( #134, #277, #373, #171 ) ) ;
#194 = ORIENTED_EDGE ( 'NONE', *, *, #297, .T. ) ;
#195 = FACE_OUTER_BOUND ( 'NONE', #129, .T. ) ;
#196 = EDGE_CURVE ( 'NONE', #348, #191, #215, .T. ) ;
#197 = CARTESIAN_POINT ( 'NONE',  ( -4.000000000000000000, 0.000000000000000000, 167.0000000000000000 ) ) ;
#198 = DIRECTION ( 'NONE',  ( 1.000000000000000000, 0.000000000000000000, 0.000000000000000000 ) ) ;
#199 = DIRECTION ( 'NONE',  ( 0.000000000000000000, 0.000000000000000000, 1.000000000000000000 ) ) ;
#200 = CARTESIAN_POINT ( 'NONE',  ( 0.000000000000000000, 0.000000000000000000, 0.000000000000000000 ) ) ;
#201 = CARTESIAN_POINT ( 'NONE',  ( 4.000000000000000000, 4.898587196589411843E-16, 0.000000000000000000 ) ) ;
#202 = EDGE_CURVE ( 'NONE', #222, #272, #254, .T. ) ;
#203 = CIRCLE ( 'NONE', #181, 10.00000000000000000 ) ;
#204 = CARTESIAN_POINT ( 'NONE',  ( 0.000000000000000000, 0.000000000000000000, 7.700000000000012612 ) ) ;
#205 = DIRECTION ( 'NONE',  ( 1.000000000000000000, 0.000000000000000000, 0.000000000000000000 ) ) ;
#206 = PERSON_AND_ORGANIZATION_ROLE ( 'design_owner' ) ;
#207 = CARTESIAN_POINT ( 'NONE',  ( -10.00000000000000000, 0.000000000000000000, 7.000000000000000000 ) ) ;
#208 = CARTESIAN_POINT ( 'NONE',  ( 0.000000000000000000, 0.000000000000000000, 0.000000000000000000 ) ) ;
#209 = CYLINDRICAL_SURFACE ( 'NONE', #159, 10.00000000000000000 ) ;
#210 = CIRCLE ( 'NONE', #212, 6.000000000000000888 ) ;
#211 = LOCAL_TIME ( 11, 4, 3.000000000000000000, #217 ) ;
#212 = AXIS2_PLACEMENT_3D ( 'NONE', #256, #352, #198 ) ;
#213 = DIRECTION ( 'NONE',  ( 1.000000000000000000, 0.000000000000000000, 0.000000000000000000 ) ) ;
#214 = DIRECTION ( 'NONE',  ( -0.000000000000000000, -0.000000000000000000, -1.000000000000000000 ) ) ;
#215 = LINE ( 'NONE', #271, #32 ) ;
#216 = VERTEX_POINT ( 'NONE', #316 ) ;
#217 = COORDINATED_UNIVERSAL_TIME_OFFSET ( 1, 0, .AHEAD. ) ;
#218 = CARTESIAN_POINT ( 'NONE',  ( 6.000000000000000888, 7.347880794884120722E-16, 167.0000000000000000 ) ) ;
#219 = ORIENTED_EDGE ( 'NONE', *, *, #35, .F. ) ;
#220 = DIRECTION ( 'NONE',  ( 0.000000000000000000, 0.000000000000000000, 1.000000000000000000 ) ) ;
#221 = DESIGN_CONTEXT ( 'detailed design', #288, 'design' ) ;
#222 = VERTEX_POINT ( 'NONE', #218 ) ;
#223 = EDGE_LOOP ( 'NONE', ( #345, #358, #105, #243 ) ) ;
#224 = CIRCLE ( 'NONE', #301, 4.000000000000000000 ) ;
#225 = ORIENTED_EDGE ( 'NONE', *, *, #202, .T. ) ;
#226 = FACE_OUTER_BOUND ( 'NONE', #223, .T. ) ;
#227 = CYLINDRICAL_SURFACE ( 'NONE', #229, 10.00000000000000000 ) ;
#228 = AXIS2_PLACEMENT_3D ( 'NONE', #200, #137, #321 ) ;
#229 = AXIS2_PLACEMENT_3D ( 'NONE', #252, #109, #81 ) ;
#230 = DIRECTION ( 'NONE',  ( 1.000000000000000000, 0.000000000000000000, -0.000000000000000000 ) ) ;
#231 = AXIS2_PLACEMENT_3D ( 'NONE', #150, #361, #330 ) ;
#232 = DIRECTION ( 'NONE',  ( 0.000000000000000000, 0.000000000000000000, -1.000000000000000000 ) ) ;
#233 = EDGE_CURVE ( 'NONE', #378, #216, #224, .T. ) ;
#234 = DIRECTION ( 'NONE',  ( 0.000000000000000000, 0.000000000000000000, 1.000000000000000000 ) ) ;
#235 = DIRECTION ( 'NONE',  ( 1.000000000000000000, 0.000000000000000000, -0.000000000000000000 ) ) ;
#236 = LOCAL_TIME ( 11, 4, 3.000000000000000000, #128 ) ;
#237 = CIRCLE ( 'NONE', #13, 0.7000000000000000666 ) ;
#238 = CARTESIAN_POINT ( 'NONE',  ( 0.000000000000000000, 0.000000000000000000, 0.000000000000000000 ) ) ;
#239 = DIRECTION ( 'NONE',  ( 1.000000000000000000, 0.000000000000000000, 0.000000000000000000 ) ) ;
#240 = EDGE_CURVE ( 'NONE', #249, #189, #86, .T. ) ;
#241 = CC_DESIGN_APPROVAL ( #42, ( #119 ) ) ;
#242 = CC_DESIGN_PERSON_AND_ORGANIZATION_ASSIGNMENT ( #343, #303, ( #4 ) ) ;
#243 = ORIENTED_EDGE ( 'NONE', *, *, #135, .T. ) ;
#244 = AXIS2_PLACEMENT_3D ( 'NONE', #139, #375, #230 ) ;
#245 = PERSON_AND_ORGANIZATION_ROLE ( 'creator' ) ;
#246 = VECTOR ( 'NONE', #232, 1000.000000000000000 ) ;
#247 = VERTEX_POINT ( 'NONE', #369 ) ;
#248 = VECTOR ( 'NONE', #381, 1000.000000000000000 ) ;
#249 = VERTEX_POINT ( 'NONE', #374 ) ;
#250 = LINE ( 'NONE', #108, #353 ) ;
#251 = EDGE_CURVE ( 'NONE', #272, #249, #344, .T. ) ;
#252 = CARTESIAN_POINT ( 'NONE',  ( 0.000000000000000000, 0.000000000000000000, 7.000000000000000000 ) ) ;
#253 = VERTEX_POINT ( 'NONE', #102 ) ;
#254 = CIRCLE ( 'NONE', #130, 6.000000000000000888 ) ;
#255 = LOCAL_TIME ( 11, 4, 3.000000000000000000, #123 ) ;
#256 = CARTESIAN_POINT ( 'NONE',  ( 0.000000000000000000, 0.000000000000000000, 167.0000000000000000 ) ) ;
#257 = CC_DESIGN_DATE_AND_TIME_ASSIGNMENT ( #175, #294, ( #119 ) ) ;
#258 = EDGE_LOOP ( 'NONE', ( #158, #162 ) ) ;
#259 = APPROVAL_PERSON_ORGANIZATION ( #185, #42, #9 ) ;
#260 = DIRECTION ( 'NONE',  ( -0.000000000000000000, -0.000000000000000000, -1.000000000000000000 ) ) ;
#261 = EDGE_LOOP ( 'NONE', ( #154, #122, #16, #317 ) ) ;
#262 = ADVANCED_FACE ( 'NONE', ( #186 ), #283, .T. ) ;
#263 = DIRECTION ( 'NONE',  ( 0.000000000000000000, 0.000000000000000000, 1.000000000000000000 ) ) ;
#264 = APPROVAL_ROLE ( '' ) ;
#265 = APPROVAL_DATE_TIME ( #336, #279 ) ;
#266 = TOROIDAL_SURFACE ( 'NONE', #376, 6.700000000000001066, 0.6999999999999999556 ) ;
#267 = ORIENTED_EDGE ( 'NONE', *, *, #233, .F. ) ;
#268 = ADVANCED_FACE ( 'NONE', ( #195 ), #266, .F. ) ;
#269 = PERSON_AND_ORGANIZATION ( #178, #329 ) ;
#270 = APPLICATION_CONTEXT ( 'configuration controlled 3d designs of mechanical parts and assemblies' ) ;
#271 = CARTESIAN_POINT ( 'NONE',  ( 10.00000000000000000, 1.224646799147353256E-15, 7.000000000000000000 ) ) ;
#272 = VERTEX_POINT ( 'NONE', #347 ) ;
#273 = CARTESIAN_POINT ( 'NONE',  ( 0.000000000000000000, 0.000000000000000000, 7.700000000000012612 ) ) ;
#274 = AXIS2_PLACEMENT_3D ( 'NONE', #204, #287, #205 ) ;
#275 = AXIS2_PLACEMENT_3D ( 'NONE', #188, #11, #8 ) ;
#276 = DIRECTION ( 'NONE',  ( -0.000000000000000000, -0.000000000000000000, -1.000000000000000000 ) ) ;
#277 = ORIENTED_EDGE ( 'NONE', *, *, #165, .T. ) ;
#278 = EDGE_LOOP ( 'NONE', ( #17, #194, #6, #44 ) ) ;
#279 = APPROVAL ( #59, 'NEURÈENÝ' ) ;
#280 = CC_DESIGN_APPROVAL ( #104, ( #4 ) ) ;
#281 = AXIS2_PLACEMENT_3D ( 'NONE', #285, #234, #25 ) ;
#282 = DIRECTION ( 'NONE',  ( 0.000000000000000000, 0.000000000000000000, 1.000000000000000000 ) ) ;
#283 = CYLINDRICAL_SURFACE ( 'NONE', #74, 6.000000000000000888 ) ;
#284 = CARTESIAN_POINT ( 'NONE',  ( -6.700000000000001066, 8.205133554287267548E-16, 7.700000000000012612 ) ) ;
#285 = CARTESIAN_POINT ( 'NONE',  ( 0.000000000000000000, 0.000000000000000000, 7.700000000000012612 ) ) ;
#286 = CARTESIAN_POINT ( 'NONE',  ( 4.000000000000000000, 4.898587196589411843E-16, 167.0000000000000000 ) ) ;
#287 = DIRECTION ( 'NONE',  ( 0.000000000000000000, 0.000000000000000000, 1.000000000000000000 ) ) ;
#288 = APPLICATION_CONTEXT ( 'configuration controlled 3d designs of mechanical parts and assemblies' ) ;
#289 = EDGE_CURVE ( 'NONE', #253, #68, #315, .T. ) ;
#290 = PLANE ( 'NONE',  #310 ) ;
#291 = CIRCLE ( 'NONE', #228, 10.00000000000000000 ) ;
#292 = AXIS2_PLACEMENT_3D ( 'NONE', #2, #124, #213 ) ;
#293 = CARTESIAN_POINT ( 'NONE',  ( 6.000000000000000888, 7.347880794884120722E-16, 167.0000000000000000 ) ) ;
#294 = DATE_TIME_ROLE ( 'classification_date' ) ;
#295 = DIRECTION ( 'NONE',  ( -0.000000000000000000, -0.000000000000000000, -1.000000000000000000 ) ) ;
#296 = COORDINATED_UNIVERSAL_TIME_OFFSET ( 1, 0, .AHEAD. ) ;
#297 = EDGE_CURVE ( 'NONE', #58, #378, #250, .T. ) ;
#298 = FACE_OUTER_BOUND ( 'NONE', #261, .T. ) ;
#299 = PERSON_AND_ORGANIZATION ( #178, #329 ) ;
#300 = CARTESIAN_POINT ( 'NONE',  ( 10.00000000000000000, 1.224646799147353256E-15, 0.000000000000000000 ) ) ;
#301 = AXIS2_PLACEMENT_3D ( 'NONE', #45, #155, #354 ) ;
#302 = ORIENTED_EDGE ( 'NONE', *, *, #240, .F. ) ;
#303 = PERSON_AND_ORGANIZATION_ROLE ( 'design_supplier' ) ;
#304 = CARTESIAN_POINT ( 'NONE',  ( 0.000000000000000000, 0.000000000000000000, 7.000000000000000000 ) ) ;
#305 = EDGE_LOOP ( 'NONE', ( #342, #106 ) ) ;
#306 = CALENDAR_DATE ( 2022, 10, 7 ) ;
#307 = DIRECTION ( 'NONE',  ( -1.000000000000000000, 0.000000000000000000, 0.000000000000000000 ) ) ;
#308 = ORIENTED_EDGE ( 'NONE', *, *, #320, .T. ) ;
#309 = ORIENTED_EDGE ( 'NONE', *, *, #157, .F. ) ;
#310 = AXIS2_PLACEMENT_3D ( 'NONE', #208, #83, #117 ) ;
#311 = ORIENTED_EDGE ( 'NONE', *, *, #289, .T. ) ;
#312 = ADVANCED_FACE ( 'NONE', ( #226 ), #227, .T. ) ;
#313 = VERTEX_POINT ( 'NONE', #197 ) ;
#314 = FACE_BOUND ( 'NONE', #305, .T. ) ;
#315 = CIRCLE ( 'NONE', #190, 6.700000000000001066 ) ;
#316 = CARTESIAN_POINT ( 'NONE',  ( -4.000000000000000000, 0.000000000000000000, 0.000000000000000000 ) ) ;
#317 = ORIENTED_EDGE ( 'NONE', *, *, #240, .T. ) ;
#318 = LINE ( 'NONE', #380, #246 ) ;
#319 = DIRECTION ( 'NONE',  ( 1.000000000000000000, 0.000000000000000000, 0.000000000000000000 ) ) ;
#320 = EDGE_CURVE ( 'NONE', #313, #216, #318, .T. ) ;
#321 = DIRECTION ( 'NONE',  ( 1.000000000000000000, 0.000000000000000000, 0.000000000000000000 ) ) ;
#322 = PERSON_AND_ORGANIZATION ( #178, #329 ) ;
#323 =( GEOMETRIC_REPRESENTATION_CONTEXT ( 3 ) GLOBAL_UNCERTAINTY_ASSIGNED_CONTEXT ( ( #28 ) ) GLOBAL_UNIT_ASSIGNED_CONTEXT ( ( #147, #87, #51 ) ) REPRESENTATION_CONTEXT ( 'NONE', 'WORKASPACE' ) );
#324 = FACE_OUTER_BOUND ( 'NONE', #168, .T. ) ;
#325 = CARTESIAN_POINT ( 'NONE',  ( -10.00000000000000000, 0.000000000000000000, 7.000000000000000000 ) ) ;
#326 = EDGE_CURVE ( 'NONE', #68, #253, #92, .T. ) ;
#327 = CARTESIAN_POINT ( 'NONE',  ( 0.000000000000000000, 0.000000000000000000, 7.000000000000000000 ) ) ;
#328 = SHAPE_DEFINITION_REPRESENTATION ( #93, #350 ) ;
#329 = ORGANIZATION ( 'NEURÈENÝ', 'NEURÈENÝ', '' ) ;
#330 = DIRECTION ( 'NONE',  ( -1.000000000000000000, 0.000000000000000000, 0.000000000000000000 ) ) ;
#331 = PRODUCT ( 'c85e', 'c85e', '', ( #27 ) ) ;
#332 = AXIS2_PLACEMENT_3D ( 'NONE', #148, #127, #174 ) ;
#333 = SECURITY_CLASSIFICATION_LEVEL ( 'unclassified' ) ;
#334 = CC_DESIGN_PERSON_AND_ORGANIZATION_ASSIGNMENT ( #149, #100, ( #4 ) ) ;
#335 = CARTESIAN_POINT ( 'NONE',  ( 0.000000000000000000, 0.000000000000000000, 0.000000000000000000 ) ) ;
#336 = DATE_AND_TIME ( #339, #40 ) ;
#337 = DIRECTION ( 'NONE',  ( -1.000000000000000000, 0.000000000000000000, 0.000000000000000000 ) ) ;
#338 = ORIENTED_EDGE ( 'NONE', *, *, #125, .F. ) ;
#339 = CALENDAR_DATE ( 2022, 10, 7 ) ;
#340 = CARTESIAN_POINT ( 'NONE',  ( 0.000000000000000000, 0.000000000000000000, 167.0000000000000000 ) ) ;
#341 = CC_DESIGN_SECURITY_CLASSIFICATION ( #119, ( #4 ) ) ;
#342 = ORIENTED_EDGE ( 'NONE', *, *, #131, .F. ) ;
#343 = PERSON_AND_ORGANIZATION ( #178, #329 ) ;
#344 = LINE ( 'NONE', #71, #136 ) ;
#345 = ORIENTED_EDGE ( 'NONE', *, *, #196, .F. ) ;
#346 = CC_DESIGN_PERSON_AND_ORGANIZATION_ASSIGNMENT ( #84, #206, ( #331 ) ) ;
#347 = CARTESIAN_POINT ( 'NONE',  ( -6.000000000000000888, 0.000000000000000000, 167.0000000000000000 ) ) ;
#348 = VERTEX_POINT ( 'NONE', #357 ) ;
#349 = AXIS2_PLACEMENT_3D ( 'NONE', #327, #60, #57 ) ;
#350 = ADVANCED_BREP_SHAPE_REPRESENTATION ( 'c85e', ( #192, #112 ), #323 ) ;
#351 = CARTESIAN_POINT ( 'NONE',  ( 0.000000000000000000, 0.000000000000000000, 167.0000000000000000 ) ) ;
#352 = DIRECTION ( 'NONE',  ( 0.000000000000000000, 0.000000000000000000, 1.000000000000000000 ) ) ;
#353 = VECTOR ( 'NONE', #21, 1000.000000000000000 ) ;
#354 = DIRECTION ( 'NONE',  ( 1.000000000000000000, 0.000000000000000000, 0.000000000000000000 ) ) ;
#355 = CARTESIAN_POINT ( 'NONE',  ( 0.000000000000000000, 0.000000000000000000, 7.000000000000000000 ) ) ;
#356 = PRODUCT_DEFINITION ( 'NEZNÁMÝ', '', #4, #221 ) ;
#357 = CARTESIAN_POINT ( 'NONE',  ( 10.00000000000000000, 1.224646799147353256E-15, 7.000000000000000000 ) ) ;
#358 = ORIENTED_EDGE ( 'NONE', *, *, #30, .F. ) ;
#359 = FACE_BOUND ( 'NONE', #77, .T. ) ;
#360 = ADVANCED_FACE ( 'NONE', ( #115, #324 ), #290, .F. ) ;
#361 = DIRECTION ( 'NONE',  ( 0.000000000000000000, 0.000000000000000000, -1.000000000000000000 ) ) ;
#362 = CARTESIAN_POINT ( 'NONE',  ( 0.000000000000000000, 0.000000000000000000, 7.000000000000000000 ) ) ;
#363 = DIRECTION ( 'NONE',  ( 1.000000000000000000, 0.000000000000000000, 0.000000000000000000 ) ) ;
#364 = CALENDAR_DATE ( 2022, 10, 7 ) ;
#365 = DIRECTION ( 'NONE',  ( 0.000000000000000000, 0.000000000000000000, -1.000000000000000000 ) ) ;
#366 = ORIENTED_EDGE ( 'NONE', *, *, #371, .F. ) ;
#367 = DIRECTION ( 'NONE',  ( 1.000000000000000000, 0.000000000000000000, 0.000000000000000000 ) ) ;
#368 = APPROVAL_DATE_TIME ( #126, #104 ) ;
#369 = CARTESIAN_POINT ( 'NONE',  ( -10.00000000000000000, 0.000000000000000000, 0.000000000000000000 ) ) ;
#370 = ORIENTED_EDGE ( 'NONE', *, *, #326, .F. ) ;
#371 = EDGE_CURVE ( 'NONE', #249, #253, #19, .T. ) ;
#372 = APPROVAL_PERSON_ORGANIZATION ( #322, #279, #69 ) ;
#373 = ORIENTED_EDGE ( 'NONE', *, *, #52, .T. ) ;
#374 = CARTESIAN_POINT ( 'NONE',  ( -6.000000000000000888, 0.000000000000000000, 7.700000000000012612 ) ) ;
#375 = DIRECTION ( 'NONE',  ( 0.000000000000000000, 0.000000000000000000, 1.000000000000000000 ) ) ;
#376 = AXIS2_PLACEMENT_3D ( 'NONE', #273, #220, #182 ) ;
#377 = APPLICATION_PROTOCOL_DEFINITION ( 'international standard', 'config_control_design', 1994, #288 ) ;
#378 = VERTEX_POINT ( 'NONE', #201 ) ;
#379 = ADVANCED_FACE ( 'NONE', ( #359, #56 ), #31, .T. ) ;
#380 = CARTESIAN_POINT ( 'NONE',  ( -4.000000000000000000, 0.000000000000000000, 167.0000000000000000 ) ) ;
#381 = DIRECTION ( 'NONE',  ( -0.000000000000000000, -0.000000000000000000, -1.000000000000000000 ) ) ;
ENDSEC;
END-ISO-10303-21;
