ISO-10303-21;
HEADER;
FILE_DESCRIPTION (( 'STEP AP203' ),
    '1' );
FILE_NAME ('4021.STEP',
    '2022-07-10T09:11:52',
    ( '' ),
    ( '' ),
    'SwSTEP 2.0',
    'SolidWorks 2019',
    '' );
FILE_SCHEMA (( 'CONFIG_CONTROL_DESIGN' ));
ENDSEC;

DATA;
#1 = CARTESIAN_POINT ( 'NONE',  ( 0.000000000000000000, 0.000000000000000000, 255.0000000000000000 ) ) ;
#2 = CARTESIAN_POINT ( 'NONE',  ( 0.000000000000000000, 0.000000000000000000, 255.0000000000000000 ) ) ;
#3 = LINE ( 'NONE', #141, #65 ) ;
#4 = APPROVAL_PERSON_ORGANIZATION ( #201, #157, #174 ) ;
#5 = DIRECTION ( 'NONE',  ( 0.000000000000000000, 0.000000000000000000, 1.000000000000000000 ) ) ;
#6 = DIRECTION ( 'NONE',  ( 1.000000000000000000, 0.000000000000000000, 0.000000000000000000 ) ) ;
#7 = CARTESIAN_POINT ( 'NONE',  ( 4.500000000000000888, 0.000000000000000000, 5.000000000000002665 ) ) ;
#8 = TOROIDAL_SURFACE ( 'NONE', #299, 4.500000000000000888, 0.5000000000000000000 ) ;
#9 = FACE_OUTER_BOUND ( 'NONE', #249, .T. ) ;
#10 = LINE ( 'NONE', #95, #255 ) ;
#11 = AXIS2_PLACEMENT_3D ( 'NONE', #358, #58, #22 ) ;
#12 = DIRECTION ( 'NONE',  ( 1.224646799147353207E-16, 1.000000000000000000, -0.000000000000000000 ) ) ;
#13 = PERSON_AND_ORGANIZATION_ROLE ( 'design_supplier' ) ;
#14 = VERTEX_POINT ( 'NONE', #374 ) ;
#15 = ORIENTED_EDGE ( 'NONE', *, *, #105, .T. ) ;
#16 = ADVANCED_BREP_SHAPE_REPRESENTATION ( '4021', ( #89, #216 ), #375 ) ;
#17 = DIRECTION ( 'NONE',  ( -1.000000000000000000, 0.000000000000000000, 0.000000000000000000 ) ) ;
#18 = ORIENTED_EDGE ( 'NONE', *, *, #302, .F. ) ;
#19 = PERSON_AND_ORGANIZATION ( #212, #120 ) ;
#20 = ORIENTED_EDGE ( 'NONE', *, *, #213, .T. ) ;
#21 = ORIENTED_EDGE ( 'NONE', *, *, #354, .T. ) ;
#22 = DIRECTION ( 'NONE',  ( 1.000000000000000000, 0.000000000000000000, 0.000000000000000000 ) ) ;
#23 = CIRCLE ( 'NONE', #194, 4.000000000000000000 ) ;
#24 = LINE ( 'NONE', #92, #86 ) ;
#25 = EDGE_CURVE ( 'NONE', #220, #258, #227, .T. ) ;
#26 = CALENDAR_DATE ( 2022, 10, 7 ) ;
#27 = CARTESIAN_POINT ( 'NONE',  ( 4.000000000000000000, 4.898587196589412829E-16, 5.500000000000005329 ) ) ;
#28 = PLANE ( 'NONE',  #241 ) ;
#29 = AXIS2_PLACEMENT_3D ( 'NONE', #2, #57, #211 ) ;
#30 = CARTESIAN_POINT ( 'NONE',  ( 0.000000000000000000, 0.000000000000000000, 255.0000000000000000 ) ) ;
#31 = DIRECTION ( 'NONE',  ( -1.000000000000000000, 0.000000000000000000, 0.000000000000000000 ) ) ;
#32 = CYLINDRICAL_SURFACE ( 'NONE', #133, 7.000000000000000000 ) ;
#33 = EDGE_CURVE ( 'NONE', #263, #377, #273, .T. ) ;
#34 = CARTESIAN_POINT ( 'NONE',  ( -7.000000000000000000, 0.000000000000000000, 5.000000000000000000 ) ) ;
#35 = CIRCLE ( 'NONE', #48, 4.000000000000000000 ) ;
#36 = DIRECTION ( 'NONE',  ( 0.000000000000000000, 0.000000000000000000, 1.000000000000000000 ) ) ;
#37 = DIRECTION ( 'NONE',  ( 1.000000000000000000, 0.000000000000000000, 0.000000000000000000 ) ) ;
#38 = PERSON_AND_ORGANIZATION ( #212, #120 ) ;
#39 = ORIENTED_EDGE ( 'NONE', *, *, #361, .F. ) ;
#40 = LOCAL_TIME ( 11, 11, 52.00000000000000000, #199 ) ;
#41 = ORIENTED_EDGE ( 'NONE', *, *, #307, .F. ) ;
#42 = COORDINATED_UNIVERSAL_TIME_OFFSET ( 1, 0, .AHEAD. ) ;
#43 = EDGE_LOOP ( 'NONE', ( #349, #370, #170, #158 ) ) ;
#44 = EDGE_CURVE ( 'NONE', #200, #263, #261, .T. ) ;
#45 = DATE_AND_TIME ( #287, #40 ) ;
#46 = ORIENTED_EDGE ( 'NONE', *, *, #315, .T. ) ;
#47 = AXIS2_PLACEMENT_3D ( 'NONE', #297, #88, #110 ) ;
#48 = AXIS2_PLACEMENT_3D ( 'NONE', #276, #247, #124 ) ;
#49 = ORIENTED_EDGE ( 'NONE', *, *, #269, .F. ) ;
#50 = CC_DESIGN_DATE_AND_TIME_ASSIGNMENT ( #238, #204, ( #87 ) ) ;
#51 = DIRECTION ( 'NONE',  ( 1.000000000000000000, 0.000000000000000000, 0.000000000000000000 ) ) ;
#52 = EDGE_CURVE ( 'NONE', #14, #192, #309, .T. ) ;
#53 = DIRECTION ( 'NONE',  ( 0.000000000000000000, 0.000000000000000000, 1.000000000000000000 ) ) ;
#54 = APPROVAL_DATE_TIME ( #244, #157 ) ;
#55 = CIRCLE ( 'NONE', #153, 7.000000000000000000 ) ;
#56 = DIRECTION ( 'NONE',  ( -1.000000000000000000, 0.000000000000000000, 0.000000000000000000 ) ) ;
#57 = DIRECTION ( 'NONE',  ( 0.000000000000000000, 0.000000000000000000, 1.000000000000000000 ) ) ;
#58 = DIRECTION ( 'NONE',  ( 0.000000000000000000, 0.000000000000000000, 1.000000000000000000 ) ) ;
#59 = DIRECTION ( 'NONE',  ( -0.000000000000000000, -0.000000000000000000, -1.000000000000000000 ) ) ;
#60 = CIRCLE ( 'NONE', #125, 7.000000000000000000 ) ;
#61 = APPROVAL ( #319, 'NEURÈENÝ' ) ;
#62 = DIRECTION ( 'NONE',  ( 0.000000000000000000, 0.000000000000000000, -1.000000000000000000 ) ) ;
#63 = DIRECTION ( 'NONE',  ( 0.000000000000000000, 0.000000000000000000, 1.000000000000000000 ) ) ;
#64 = ORIENTED_EDGE ( 'NONE', *, *, #278, .T. ) ;
#65 = VECTOR ( 'NONE', #380, 1000.000000000000000 ) ;
#66 = CARTESIAN_POINT ( 'NONE',  ( 0.000000000000000000, 0.000000000000000000, 5.000000000000000000 ) ) ;
#67 = AXIS2_PLACEMENT_3D ( 'NONE', #90, #171, #214 ) ;
#68 = CC_DESIGN_APPROVAL ( #157, ( #87 ) ) ;
#69 = DIRECTION ( 'NONE',  ( -0.000000000000000000, -0.000000000000000000, -1.000000000000000000 ) ) ;
#70 = APPROVAL_ROLE ( '' ) ;
#71 = CYLINDRICAL_SURFACE ( 'NONE', #367, 2.100000000000000089 ) ;
#72 = VERTEX_POINT ( 'NONE', #328 ) ;
#73 = PERSON_AND_ORGANIZATION_ROLE ( 'design_owner' ) ;
#74 = ORIENTED_EDGE ( 'NONE', *, *, #197, .T. ) ;
#75 = DATE_AND_TIME ( #225, #327 ) ;
#76 = ORIENTED_EDGE ( 'NONE', *, *, #354, .F. ) ;
#77 = APPLICATION_PROTOCOL_DEFINITION ( 'international standard', 'config_control_design', 1994, #181 ) ;
#78 = VERTEX_POINT ( 'NONE', #240 ) ;
#79 = APPROVAL ( #262, 'NEURÈENÝ' ) ;
#80 = CC_DESIGN_SECURITY_CLASSIFICATION ( #87, ( #243 ) ) ;
#81 = ORIENTED_EDGE ( 'NONE', *, *, #52, .T. ) ;
#82 = ADVANCED_FACE ( 'NONE', ( #83, #304 ), #28, .T. ) ;
#83 = FACE_BOUND ( 'NONE', #379, .T. ) ;
#84 = CLOSED_SHELL ( 'NONE', ( #381, #150, #111, #233, #218, #231, #251, #371, #82, #357, #118 ) ) ;
#85 = CARTESIAN_POINT ( 'NONE',  ( 0.000000000000000000, 0.000000000000000000, 5.000000000000000000 ) ) ;
#86 = VECTOR ( 'NONE', #322, 1000.000000000000000 ) ;
#87 = SECURITY_CLASSIFICATION ( '', '', #369 ) ;
#88 = DIRECTION ( 'NONE',  ( -0.000000000000000000, -0.000000000000000000, -1.000000000000000000 ) ) ;
#89 = MANIFOLD_SOLID_BREP ( 'Odebrat vysunutím3', #84 ) ;
#90 = CARTESIAN_POINT ( 'NONE',  ( 0.000000000000000000, 0.000000000000000000, 5.000000000000000000 ) ) ;
#91 = PRODUCT_DEFINITION_SHAPE ( 'NONE', 'NONE',  #223 ) ;
#92 = CARTESIAN_POINT ( 'NONE',  ( 4.000000000000000000, 4.898587196589412829E-16, 255.0000000000000000 ) ) ;
#93 = LINE ( 'NONE', #217, #187 ) ;
#94 = DIRECTION ( 'NONE',  ( 1.000000000000000000, 0.000000000000000000, 0.000000000000000000 ) ) ;
#95 = CARTESIAN_POINT ( 'NONE',  ( -4.000000000000000000, 0.000000000000000000, 255.0000000000000000 ) ) ;
#96 = COORDINATED_UNIVERSAL_TIME_OFFSET ( 1, 0, .AHEAD. ) ;
#97 = PERSON_AND_ORGANIZATION ( #212, #120 ) ;
#98 = VERTEX_POINT ( 'NONE', #27 ) ;
#99 = ORIENTED_EDGE ( 'NONE', *, *, #307, .T. ) ;
#100 = CIRCLE ( 'NONE', #355, 2.100000000000000089 ) ;
#101 = APPROVAL_ROLE ( '' ) ;
#102 = ORIENTED_EDGE ( 'NONE', *, *, #203, .F. ) ;
#103 =( NAMED_UNIT ( * ) PLANE_ANGLE_UNIT ( ) SI_UNIT ( $, .RADIAN. ) );
#104 = ORIENTED_EDGE ( 'NONE', *, *, #335, .T. ) ;
#105 = EDGE_CURVE ( 'NONE', #220, #72, #3, .T. ) ;
#106 = AXIS2_PLACEMENT_3D ( 'NONE', #353, #242, #113 ) ;
#107 = EDGE_LOOP ( 'NONE', ( #41, #49 ) ) ;
#108 = AXIS2_PLACEMENT_3D ( 'NONE', #336, #312, #281 ) ;
#109 = FACE_OUTER_BOUND ( 'NONE', #346, .T. ) ;
#110 = DIRECTION ( 'NONE',  ( 1.000000000000000000, 0.000000000000000000, 0.000000000000000000 ) ) ;
#111 = ADVANCED_FACE ( 'NONE', ( #109 ), #351, .T. ) ;
#112 = CIRCLE ( 'NONE', #285, 0.5000000000000004441 ) ;
#113 = DIRECTION ( 'NONE',  ( 1.000000000000000000, 0.000000000000000000, 0.000000000000000000 ) ) ;
#114 = DIRECTION ( 'NONE',  ( 0.000000000000000000, 0.000000000000000000, -1.000000000000000000 ) ) ;
#115 = CC_DESIGN_PERSON_AND_ORGANIZATION_ASSIGNMENT ( #97, #350, ( #87 ) ) ;
#116 = DIRECTION ( 'NONE',  ( 1.000000000000000000, 0.000000000000000000, 0.000000000000000000 ) ) ;
#117 = EDGE_LOOP ( 'NONE', ( #256, #132, #288, #164 ) ) ;
#118 = ADVANCED_FACE ( 'NONE', ( #324 ), #326, .F. ) ;
#119 = DIRECTION ( 'NONE',  ( 0.000000000000000000, 0.000000000000000000, 1.000000000000000000 ) ) ;
#120 = ORGANIZATION ( 'NEURÈENÝ', 'NEURÈENÝ', '' ) ;
#121 = CARTESIAN_POINT ( 'NONE',  ( 0.000000000000000000, 0.000000000000000000, 0.000000000000000000 ) ) ;
#122 = DIRECTION ( 'NONE',  ( 1.000000000000000000, 0.000000000000000000, 0.000000000000000000 ) ) ;
#123 = CIRCLE ( 'NONE', #348, 2.100000000000000089 ) ;
#124 = DIRECTION ( 'NONE',  ( 1.000000000000000000, 0.000000000000000000, 0.000000000000000000 ) ) ;
#125 = AXIS2_PLACEMENT_3D ( 'NONE', #121, #248, #94 ) ;
#126 = CARTESIAN_POINT ( 'NONE',  ( 0.000000000000000000, 0.000000000000000000, 255.0000000000000000 ) ) ;
#127 = EDGE_LOOP ( 'NONE', ( #286, #296 ) ) ;
#128 = DIRECTION ( 'NONE',  ( -1.000000000000000000, 0.000000000000000000, 0.000000000000000000 ) ) ;
#129 = ORIENTED_EDGE ( 'NONE', *, *, #308, .F. ) ;
#130 = AXIS2_PLACEMENT_3D ( 'NONE', #30, #176, #175 ) ;
#131 = PERSON_AND_ORGANIZATION ( #212, #120 ) ;
#132 = ORIENTED_EDGE ( 'NONE', *, *, #315, .F. ) ;
#133 = AXIS2_PLACEMENT_3D ( 'NONE', #279, #183, #31 ) ;
#134 = DIRECTION ( 'NONE',  ( 0.000000000000000000, 0.000000000000000000, -1.000000000000000000 ) ) ;
#135 = ORIENTED_EDGE ( 'NONE', *, *, #25, .T. ) ;
#136 = PERSON_AND_ORGANIZATION ( #212, #120 ) ;
#137 = EDGE_LOOP ( 'NONE', ( #341, #292, #378, #99 ) ) ;
#138 = AXIS2_PLACEMENT_3D ( 'NONE', #1, #268, #239 ) ;
#139 = CALENDAR_DATE ( 2022, 10, 7 ) ;
#140 = FACE_OUTER_BOUND ( 'NONE', #137, .T. ) ;
#141 = CARTESIAN_POINT ( 'NONE',  ( 7.000000000000000000, 8.572527594031473190E-16, 5.000000000000000000 ) ) ;
#142 = DESIGN_CONTEXT ( 'detailed design', #181, 'design' ) ;
#143 = CARTESIAN_POINT ( 'NONE',  ( -4.500000000000000888, 5.510910596163089556E-16, 5.500000000000005329 ) ) ;
#144 = PRODUCT ( '4021', '4021', '', ( #161 ) ) ;
#145 = CIRCLE ( 'NONE', #360, 0.5000000000000004441 ) ;
#146 = CC_DESIGN_PERSON_AND_ORGANIZATION_ASSIGNMENT ( #228, #343, ( #223 ) ) ;
#147 = DIRECTION ( 'NONE',  ( 0.000000000000000000, 0.000000000000000000, 1.000000000000000000 ) ) ;
#148 = DIRECTION ( 'NONE',  ( -1.000000000000000000, 1.224646799147351482E-16, 0.000000000000000000 ) ) ;
#149 = EDGE_LOOP ( 'NONE', ( #74, #198, #320, #162 ) ) ;
#150 = ADVANCED_FACE ( 'NONE', ( #275 ), #177, .F. ) ;
#151 = CARTESIAN_POINT ( 'NONE',  ( 0.000000000000000000, 0.000000000000000000, 0.000000000000000000 ) ) ;
#152 = CARTESIAN_POINT ( 'NONE',  ( 0.000000000000000000, 0.000000000000000000, 0.000000000000000000 ) ) ;
#153 = AXIS2_PLACEMENT_3D ( 'NONE', #151, #119, #116 ) ;
#154 = DIRECTION ( 'NONE',  ( -0.000000000000000000, -0.000000000000000000, -1.000000000000000000 ) ) ;
#155 = CARTESIAN_POINT ( 'NONE',  ( 0.000000000000000000, 0.000000000000000000, 5.500000000000005329 ) ) ;
#156 = PERSON_AND_ORGANIZATION_ROLE ( 'creator' ) ;
#157 = APPROVAL ( #325, 'NEURÈENÝ' ) ;
#158 = ORIENTED_EDGE ( 'NONE', *, *, #182, .T. ) ;
#159 = AXIS2_PLACEMENT_3D ( 'NONE', #126, #373, #128 ) ;
#160 = APPLICATION_CONTEXT ( 'configuration controlled 3d designs of mechanical parts and assemblies' ) ;
#161 = MECHANICAL_CONTEXT ( 'NONE', #160, 'mechanical' ) ;
#162 = ORIENTED_EDGE ( 'NONE', *, *, #33, .F. ) ;
#163 = DATE_TIME_ROLE ( 'creation_date' ) ;
#164 = ORIENTED_EDGE ( 'NONE', *, *, #213, .F. ) ;
#165 = CIRCLE ( 'NONE', #106, 2.100000000000000089 ) ;
#166 = FACE_OUTER_BOUND ( 'NONE', #195, .T. ) ;
#167 = ORIENTED_EDGE ( 'NONE', *, *, #208, .T. ) ;
#168 = AXIS2_PLACEMENT_3D ( 'NONE', #66, #63, #333 ) ;
#169 = CYLINDRICAL_SURFACE ( 'NONE', #159, 4.000000000000000000 ) ;
#170 = ORIENTED_EDGE ( 'NONE', *, *, #33, .T. ) ;
#171 = DIRECTION ( 'NONE',  ( -0.000000000000000000, -0.000000000000000000, -1.000000000000000000 ) ) ;
#172 = CARTESIAN_POINT ( 'NONE',  ( 2.100000000000000089, 2.571758278209441957E-16, 255.0000000000000000 ) ) ;
#173 = CIRCLE ( 'NONE', #210, 4.000000000000000000 ) ;
#174 = APPROVAL_ROLE ( '' ) ;
#175 = DIRECTION ( 'NONE',  ( 1.000000000000000000, 0.000000000000000000, 0.000000000000000000 ) ) ;
#176 = DIRECTION ( 'NONE',  ( 0.000000000000000000, 0.000000000000000000, 1.000000000000000000 ) ) ;
#177 = TOROIDAL_SURFACE ( 'NONE', #11, 4.500000000000000888, 0.5000000000000000000 ) ;
#178 = CARTESIAN_POINT ( 'NONE',  ( 0.000000000000000000, 0.000000000000000000, 255.0000000000000000 ) ) ;
#179 = CC_DESIGN_APPROVAL ( #79, ( #243 ) ) ;
#180 = LINE ( 'NONE', #359, #230 ) ;
#181 = APPLICATION_CONTEXT ( 'configuration controlled 3d designs of mechanical parts and assemblies' ) ;
#182 = EDGE_CURVE ( 'NONE', #377, #347, #165, .T. ) ;
#183 = DIRECTION ( 'NONE',  ( -0.000000000000000000, -0.000000000000000000, -1.000000000000000000 ) ) ;
#184 = FACE_BOUND ( 'NONE', #127, .T. ) ;
#185 = ORIENTED_EDGE ( 'NONE', *, *, #269, .T. ) ;
#186 = DIRECTION ( 'NONE',  ( 0.000000000000000000, 0.000000000000000000, 1.000000000000000000 ) ) ;
#187 = VECTOR ( 'NONE', #62, 1000.000000000000000 ) ;
#188 = PLANE ( 'NONE',  #168 ) ;
#189 = CC_DESIGN_PERSON_AND_ORGANIZATION_ASSIGNMENT ( #19, #13, ( #243 ) ) ;
#190 = APPROVAL_DATE_TIME ( #45, #61 ) ;
#191 = AXIS2_PLACEMENT_3D ( 'NONE', #298, #114, #356 ) ;
#192 = VERTEX_POINT ( 'NONE', #245 ) ;
#193 = CIRCLE ( 'NONE', #108, 7.000000000000000000 ) ;
#194 = AXIS2_PLACEMENT_3D ( 'NONE', #282, #339, #122 ) ;
#195 = EDGE_LOOP ( 'NONE', ( #102, #18, #104, #21 ) ) ;
#196 = DIRECTION ( 'NONE',  ( 1.000000000000000000, 0.000000000000000000, 0.000000000000000000 ) ) ;
#197 = EDGE_CURVE ( 'NONE', #263, #200, #123, .T. ) ;
#198 = ORIENTED_EDGE ( 'NONE', *, *, #364, .T. ) ;
#199 = COORDINATED_UNIVERSAL_TIME_OFFSET ( 1, 0, .AHEAD. ) ;
#200 = VERTEX_POINT ( 'NONE', #172 ) ;
#201 = PERSON_AND_ORGANIZATION ( #212, #120 ) ;
#202 = ORIENTED_EDGE ( 'NONE', *, *, #208, .F. ) ;
#203 = EDGE_CURVE ( 'NONE', #14, #98, #24, .T. ) ;
#204 = DATE_TIME_ROLE ( 'classification_date' ) ;
#205 = DIRECTION ( 'NONE',  ( 1.000000000000000000, 0.000000000000000000, -0.000000000000000000 ) ) ;
#206 = VECTOR ( 'NONE', #272, 1000.000000000000000 ) ;
#207 = COORDINATED_UNIVERSAL_TIME_OFFSET ( 1, 0, .AHEAD. ) ;
#208 = EDGE_CURVE ( 'NONE', #267, #78, #311, .T. ) ;
#209 = DIRECTION ( 'NONE',  ( -0.000000000000000000, -0.000000000000000000, -1.000000000000000000 ) ) ;
#210 = AXIS2_PLACEMENT_3D ( 'NONE', #215, #36, #6 ) ;
#211 = DIRECTION ( 'NONE',  ( 1.000000000000000000, 0.000000000000000000, 0.000000000000000000 ) ) ;
#212 = PERSON ( 'NEURÈENÝ', 'NEURÈENÝ', 'NEURÈENÝ', ('NEURÈENÝ'), ('NEURÈENÝ'), ('NEURÈENÝ') ) ;
#213 = EDGE_CURVE ( 'NONE', #78, #267, #337, .T. ) ;
#214 = DIRECTION ( 'NONE',  ( 1.000000000000000000, 0.000000000000000000, 0.000000000000000000 ) ) ;
#215 = CARTESIAN_POINT ( 'NONE',  ( 0.000000000000000000, 0.000000000000000000, 255.0000000000000000 ) ) ;
#216 = AXIS2_PLACEMENT_3D ( 'NONE', #232, #376, #196 ) ;
#217 = CARTESIAN_POINT ( 'NONE',  ( 2.100000000000000089, 2.571758278209441957E-16, 255.0000000000000000 ) ) ;
#218 = ADVANCED_FACE ( 'NONE', ( #140 ), #352, .T. ) ;
#219 = FACE_BOUND ( 'NONE', #321, .T. ) ;
#220 = VERTEX_POINT ( 'NONE', #301 ) ;
#221 = FACE_OUTER_BOUND ( 'NONE', #236, .T. ) ;
#222 = CARTESIAN_POINT ( 'NONE',  ( -7.000000000000000000, 0.000000000000000000, 0.000000000000000000 ) ) ;
#223 = PRODUCT_DEFINITION ( 'NEZNÁMÝ', '', #243, #142 ) ;
#224 = EDGE_CURVE ( 'NONE', #290, #78, #145, .T. ) ;
#225 = CALENDAR_DATE ( 2022, 10, 7 ) ;
#226 = ORIENTED_EDGE ( 'NONE', *, *, #197, .F. ) ;
#227 = CIRCLE ( 'NONE', #372, 7.000000000000000000 ) ;
#228 = PERSON_AND_ORGANIZATION ( #212, #120 ) ;
#229 = ORIENTED_EDGE ( 'NONE', *, *, #335, .F. ) ;
#230 = VECTOR ( 'NONE', #69, 1000.000000000000000 ) ;
#231 = ADVANCED_FACE ( 'NONE', ( #219, #221 ), #188, .T. ) ;
#232 = CARTESIAN_POINT ( 'NONE',  ( 0.000000000000000000, 0.000000000000000000, 0.000000000000000000 ) ) ;
#233 = ADVANCED_FACE ( 'NONE', ( #9 ), #32, .T. ) ;
#234 = ORIENTED_EDGE ( 'NONE', *, *, #25, .F. ) ;
#235 = ORIENTED_EDGE ( 'NONE', *, *, #302, .T. ) ;
#236 = EDGE_LOOP ( 'NONE', ( #64, #135 ) ) ;
#237 = APPROVAL_PERSON_ORGANIZATION ( #131, #61, #70 ) ;
#238 = DATE_AND_TIME ( #139, #270 ) ;
#239 = DIRECTION ( 'NONE',  ( -1.000000000000000000, 0.000000000000000000, 0.000000000000000000 ) ) ;
#240 = CARTESIAN_POINT ( 'NONE',  ( -4.500000000000000888, 5.510910596163088569E-16, 5.000000000000002665 ) ) ;
#241 = AXIS2_PLACEMENT_3D ( 'NONE', #274, #147, #205 ) ;
#242 = DIRECTION ( 'NONE',  ( -0.000000000000000000, -0.000000000000000000, -1.000000000000000000 ) ) ;
#243 = PRODUCT_DEFINITION_FORMATION_WITH_SPECIFIED_SOURCE ( 'LIBOVOLNÝ', '', #144, .NOT_KNOWN. ) ;
#244 = DATE_AND_TIME ( #26, #264 ) ;
#245 = CARTESIAN_POINT ( 'NONE',  ( -4.000000000000000000, 0.000000000000000000, 255.0000000000000000 ) ) ;
#246 = CARTESIAN_POINT ( 'NONE',  ( 0.000000000000000000, 0.000000000000000000, 5.000000000000000000 ) ) ;
#247 = DIRECTION ( 'NONE',  ( 0.000000000000000000, 0.000000000000000000, 1.000000000000000000 ) ) ;
#248 = DIRECTION ( 'NONE',  ( 0.000000000000000000, 0.000000000000000000, 1.000000000000000000 ) ) ;
#249 = EDGE_LOOP ( 'NONE', ( #234, #15, #185, #39 ) ) ;
#250 = PRODUCT_RELATED_PRODUCT_CATEGORY ( 'detail', '', ( #144 ) ) ;
#251 = ADVANCED_FACE ( 'NONE', ( #184, #252 ), #334, .F. ) ;
#252 = FACE_OUTER_BOUND ( 'NONE', #107, .T. ) ;
#253 = FACE_OUTER_BOUND ( 'NONE', #117, .T. ) ;
#254 = DIRECTION ( 'NONE',  ( 1.000000000000000000, 0.000000000000000000, 0.000000000000000000 ) ) ;
#255 = VECTOR ( 'NONE', #154, 1000.000000000000000 ) ;
#256 = ORIENTED_EDGE ( 'NONE', *, *, #224, .F. ) ;
#257 =( NAMED_UNIT ( * ) SI_UNIT ( $, .STERADIAN. ) SOLID_ANGLE_UNIT ( ) );
#258 = VERTEX_POINT ( 'NONE', #34 ) ;
#259 = FACE_OUTER_BOUND ( 'NONE', #149, .T. ) ;
#260 = VERTEX_POINT ( 'NONE', #222 ) ;
#261 = CIRCLE ( 'NONE', #29, 2.100000000000000089 ) ;
#262 = APPROVAL_STATUS ( 'not_yet_approved' ) ;
#263 = VERTEX_POINT ( 'NONE', #331 ) ;
#264 = LOCAL_TIME ( 11, 11, 52.00000000000000000, #323 ) ;
#265 = ORIENTED_EDGE ( 'NONE', *, *, #44, .F. ) ;
#266 = PERSON_AND_ORGANIZATION ( #212, #120 ) ;
#267 = VERTEX_POINT ( 'NONE', #7 ) ;
#268 = DIRECTION ( 'NONE',  ( -0.000000000000000000, -0.000000000000000000, -1.000000000000000000 ) ) ;
#269 = EDGE_CURVE ( 'NONE', #72, #260, #55, .T. ) ;
#270 = LOCAL_TIME ( 11, 11, 52.00000000000000000, #207 ) ;
#271 = SHAPE_DEFINITION_REPRESENTATION ( #91, #16 ) ;
#272 = DIRECTION ( 'NONE',  ( 0.000000000000000000, 0.000000000000000000, -1.000000000000000000 ) ) ;
#273 = LINE ( 'NONE', #305, #206 ) ;
#274 = CARTESIAN_POINT ( 'NONE',  ( 0.000000000000000000, 0.000000000000000000, 255.0000000000000000 ) ) ;
#275 = FACE_OUTER_BOUND ( 'NONE', #317, .T. ) ;
#276 = CARTESIAN_POINT ( 'NONE',  ( 0.000000000000000000, 0.000000000000000000, 5.500000000000005329 ) ) ;
#277 = ORIENTED_EDGE ( 'NONE', *, *, #224, .T. ) ;
#278 = EDGE_CURVE ( 'NONE', #258, #220, #193, .T. ) ;
#279 = CARTESIAN_POINT ( 'NONE',  ( 0.000000000000000000, 0.000000000000000000, 5.000000000000000000 ) ) ;
#280 = LOCAL_TIME ( 11, 11, 52.00000000000000000, #96 ) ;
#281 = DIRECTION ( 'NONE',  ( 1.000000000000000000, 0.000000000000000000, 0.000000000000000000 ) ) ;
#282 = CARTESIAN_POINT ( 'NONE',  ( 0.000000000000000000, 0.000000000000000000, 5.500000000000005329 ) ) ;
#283 = DIRECTION ( 'NONE',  ( 0.000000000000000000, 0.000000000000000000, 1.000000000000000000 ) ) ;
#284 = APPLICATION_PROTOCOL_DEFINITION ( 'international standard', 'config_control_design', 1994, #160 ) ;
#285 = AXIS2_PLACEMENT_3D ( 'NONE', #365, #362, #366 ) ;
#286 = ORIENTED_EDGE ( 'NONE', *, *, #182, .F. ) ;
#287 = CALENDAR_DATE ( 2022, 10, 7 ) ;
#288 = ORIENTED_EDGE ( 'NONE', *, *, #308, .T. ) ;
#289 =( LENGTH_UNIT ( ) NAMED_UNIT ( * ) SI_UNIT ( .MILLI., .METRE. ) );
#290 = VERTEX_POINT ( 'NONE', #368 ) ;
#291 = DATE_AND_TIME ( #340, #280 ) ;
#292 = ORIENTED_EDGE ( 'NONE', *, *, #278, .F. ) ;
#293 = AXIS2_PLACEMENT_3D ( 'NONE', #313, #186, #310 ) ;
#294 = CC_DESIGN_PERSON_AND_ORGANIZATION_ASSIGNMENT ( #136, #73, ( #144 ) ) ;
#295 = CARTESIAN_POINT ( 'NONE',  ( 0.000000000000000000, 0.000000000000000000, 255.0000000000000000 ) ) ;
#296 = ORIENTED_EDGE ( 'NONE', *, *, #303, .F. ) ;
#297 = CARTESIAN_POINT ( 'NONE',  ( 0.000000000000000000, 0.000000000000000000, 5.000000000000000000 ) ) ;
#298 = CARTESIAN_POINT ( 'NONE',  ( 0.000000000000000000, 0.000000000000000000, 255.0000000000000000 ) ) ;
#299 = AXIS2_PLACEMENT_3D ( 'NONE', #155, #283, #254 ) ;
#300 = UNCERTAINTY_MEASURE_WITH_UNIT (LENGTH_MEASURE( 1.000000000000000082E-05 ), #289, 'distance_accuracy_value', 'NONE');
#301 = CARTESIAN_POINT ( 'NONE',  ( 7.000000000000000000, 8.572527594031473190E-16, 5.000000000000000000 ) ) ;
#302 = EDGE_CURVE ( 'NONE', #192, #14, #173, .T. ) ;
#303 = EDGE_CURVE ( 'NONE', #347, #377, #100, .T. ) ;
#304 = FACE_OUTER_BOUND ( 'NONE', #363, .T. ) ;
#305 = CARTESIAN_POINT ( 'NONE',  ( -2.100000000000000089, 0.000000000000000000, 255.0000000000000000 ) ) ;
#306 = CARTESIAN_POINT ( 'NONE',  ( 2.100000000000000089, 2.571758278209441957E-16, 0.000000000000000000 ) ) ;
#307 = EDGE_CURVE ( 'NONE', #260, #72, #60, .T. ) ;
#308 = EDGE_CURVE ( 'NONE', #98, #267, #112, .T. ) ;
#309 = CIRCLE ( 'NONE', #130, 4.000000000000000000 ) ;
#310 = DIRECTION ( 'NONE',  ( 1.000000000000000000, 0.000000000000000000, -0.000000000000000000 ) ) ;
#311 = CIRCLE ( 'NONE', #67, 4.500000000000000888 ) ;
#312 = DIRECTION ( 'NONE',  ( 0.000000000000000000, 0.000000000000000000, 1.000000000000000000 ) ) ;
#313 = CARTESIAN_POINT ( 'NONE',  ( 0.000000000000000000, 0.000000000000000000, 0.000000000000000000 ) ) ;
#314 = APPROVAL_DATE_TIME ( #291, #79 ) ;
#315 = EDGE_CURVE ( 'NONE', #98, #290, #35, .T. ) ;
#316 = CC_DESIGN_DATE_AND_TIME_ASSIGNMENT ( #75, #163, ( #223 ) ) ;
#317 = EDGE_LOOP ( 'NONE', ( #76, #277, #202, #129 ) ) ;
#318 = ORIENTED_EDGE ( 'NONE', *, *, #203, .T. ) ;
#319 = APPROVAL_STATUS ( 'not_yet_approved' ) ;
#320 = ORIENTED_EDGE ( 'NONE', *, *, #303, .T. ) ;
#321 = EDGE_LOOP ( 'NONE', ( #167, #20 ) ) ;
#322 = DIRECTION ( 'NONE',  ( -0.000000000000000000, -0.000000000000000000, -1.000000000000000000 ) ) ;
#323 = COORDINATED_UNIVERSAL_TIME_OFFSET ( 1, 0, .AHEAD. ) ;
#324 = FACE_OUTER_BOUND ( 'NONE', #43, .T. ) ;
#325 = APPROVAL_STATUS ( 'not_yet_approved' ) ;
#326 = CYLINDRICAL_SURFACE ( 'NONE', #191, 2.100000000000000089 ) ;
#327 = LOCAL_TIME ( 11, 11, 52.00000000000000000, #42 ) ;
#328 = CARTESIAN_POINT ( 'NONE',  ( 7.000000000000000000, 8.572527594031473190E-16, 0.000000000000000000 ) ) ;
#329 = DIRECTION ( 'NONE',  ( 1.000000000000000000, 0.000000000000000000, 0.000000000000000000 ) ) ;
#330 = CC_DESIGN_PERSON_AND_ORGANIZATION_ASSIGNMENT ( #38, #156, ( #243 ) ) ;
#331 = CARTESIAN_POINT ( 'NONE',  ( -2.100000000000000089, 0.000000000000000000, 255.0000000000000000 ) ) ;
#332 = AXIS2_PLACEMENT_3D ( 'NONE', #85, #209, #56 ) ;
#333 = DIRECTION ( 'NONE',  ( 1.000000000000000000, 0.000000000000000000, -0.000000000000000000 ) ) ;
#334 = PLANE ( 'NONE',  #293 ) ;
#335 = EDGE_CURVE ( 'NONE', #192, #290, #10, .T. ) ;
#336 = CARTESIAN_POINT ( 'NONE',  ( 0.000000000000000000, 0.000000000000000000, 5.000000000000000000 ) ) ;
#337 = CIRCLE ( 'NONE', #47, 4.500000000000000888 ) ;
#338 = APPROVAL_PERSON_ORGANIZATION ( #266, #79, #101 ) ;
#339 = DIRECTION ( 'NONE',  ( 0.000000000000000000, 0.000000000000000000, 1.000000000000000000 ) ) ;
#340 = CALENDAR_DATE ( 2022, 10, 7 ) ;
#341 = ORIENTED_EDGE ( 'NONE', *, *, #105, .F. ) ;
#342 = CC_DESIGN_APPROVAL ( #61, ( #223 ) ) ;
#343 = PERSON_AND_ORGANIZATION_ROLE ( 'creator' ) ;
#344 = ORIENTED_EDGE ( 'NONE', *, *, #52, .F. ) ;
#345 = CARTESIAN_POINT ( 'NONE',  ( -2.100000000000000089, 0.000000000000000000, 0.000000000000000000 ) ) ;
#346 = EDGE_LOOP ( 'NONE', ( #344, #318, #46, #229 ) ) ;
#347 = VERTEX_POINT ( 'NONE', #306 ) ;
#348 = AXIS2_PLACEMENT_3D ( 'NONE', #178, #53, #51 ) ;
#349 = ORIENTED_EDGE ( 'NONE', *, *, #364, .F. ) ;
#350 = PERSON_AND_ORGANIZATION_ROLE ( 'classification_officer' ) ;
#351 = CYLINDRICAL_SURFACE ( 'NONE', #138, 4.000000000000000000 ) ;
#352 = CYLINDRICAL_SURFACE ( 'NONE', #332, 7.000000000000000000 ) ;
#353 = CARTESIAN_POINT ( 'NONE',  ( 0.000000000000000000, 0.000000000000000000, 0.000000000000000000 ) ) ;
#354 = EDGE_CURVE ( 'NONE', #290, #98, #23, .T. ) ;
#355 = AXIS2_PLACEMENT_3D ( 'NONE', #152, #59, #37 ) ;
#356 = DIRECTION ( 'NONE',  ( -1.000000000000000000, 0.000000000000000000, 0.000000000000000000 ) ) ;
#357 = ADVANCED_FACE ( 'NONE', ( #253 ), #8, .F. ) ;
#358 = CARTESIAN_POINT ( 'NONE',  ( 0.000000000000000000, 0.000000000000000000, 5.500000000000005329 ) ) ;
#359 = CARTESIAN_POINT ( 'NONE',  ( -7.000000000000000000, 0.000000000000000000, 5.000000000000000000 ) ) ;
#360 = AXIS2_PLACEMENT_3D ( 'NONE', #143, #12, #148 ) ;
#361 = EDGE_CURVE ( 'NONE', #258, #260, #180, .T. ) ;
#362 = DIRECTION ( 'NONE',  ( 0.000000000000000000, -1.000000000000000000, 0.000000000000000000 ) ) ;
#363 = EDGE_LOOP ( 'NONE', ( #235, #81 ) ) ;
#364 = EDGE_CURVE ( 'NONE', #200, #347, #93, .T. ) ;
#365 = CARTESIAN_POINT ( 'NONE',  ( 4.500000000000000888, 0.000000000000000000, 5.500000000000005329 ) ) ;
#366 = DIRECTION ( 'NONE',  ( 0.000000000000000000, 0.000000000000000000, -1.000000000000000000 ) ) ;
#367 = AXIS2_PLACEMENT_3D ( 'NONE', #295, #134, #17 ) ;
#368 = CARTESIAN_POINT ( 'NONE',  ( -4.000000000000000000, 0.000000000000000000, 5.500000000000005329 ) ) ;
#369 = SECURITY_CLASSIFICATION_LEVEL ( 'unclassified' ) ;
#370 = ORIENTED_EDGE ( 'NONE', *, *, #44, .T. ) ;
#371 = ADVANCED_FACE ( 'NONE', ( #166 ), #169, .T. ) ;
#372 = AXIS2_PLACEMENT_3D ( 'NONE', #246, #5, #329 ) ;
#373 = DIRECTION ( 'NONE',  ( -0.000000000000000000, -0.000000000000000000, -1.000000000000000000 ) ) ;
#374 = CARTESIAN_POINT ( 'NONE',  ( 4.000000000000000000, 4.898587196589412829E-16, 255.0000000000000000 ) ) ;
#375 =( GEOMETRIC_REPRESENTATION_CONTEXT ( 3 ) GLOBAL_UNCERTAINTY_ASSIGNED_CONTEXT ( ( #300 ) ) GLOBAL_UNIT_ASSIGNED_CONTEXT ( ( #289, #103, #257 ) ) REPRESENTATION_CONTEXT ( 'NONE', 'WORKASPACE' ) );
#376 = DIRECTION ( 'NONE',  ( 0.000000000000000000, 0.000000000000000000, 1.000000000000000000 ) ) ;
#377 = VERTEX_POINT ( 'NONE', #345 ) ;
#378 = ORIENTED_EDGE ( 'NONE', *, *, #361, .T. ) ;
#379 = EDGE_LOOP ( 'NONE', ( #226, #265 ) ) ;
#380 = DIRECTION ( 'NONE',  ( -0.000000000000000000, -0.000000000000000000, -1.000000000000000000 ) ) ;
#381 = ADVANCED_FACE ( 'NONE', ( #259 ), #71, .F. ) ;
ENDSEC;
END-ISO-10303-21;
