ISO-10303-21;
HEADER;
FILE_DESCRIPTION (( 'STEP AP203' ),
    '1' );
FILE_NAME ('92c3.STEP',
    '2022-06-20T09:22:11',
    ( '' ),
    ( '' ),
    'SwSTEP 2.0',
    'SolidWorks 2019',
    '' );
FILE_SCHEMA (( 'CONFIG_CONTROL_DESIGN' ));
ENDSEC;

DATA;
#1 = CC_DESIGN_APPROVAL ( #201, ( #198 ) ) ;
#2 = FACE_BOUND ( 'NONE', #296, .T. ) ;
#3 = DIRECTION ( 'NONE',  ( 1.000000000000000000, 0.000000000000000000, -0.000000000000000000 ) ) ;
#4 = CARTESIAN_POINT ( 'NONE',  ( 0.000000000000000000, 0.000000000000000000, 257.0000000000000000 ) ) ;
#5 = AXIS2_PLACEMENT_3D ( 'NONE', #258, #45, #146 ) ;
#6 = CARTESIAN_POINT ( 'NONE',  ( 9.000000000000000000, 1.102182119232617714E-15, 7.200000000000011724 ) ) ;
#7 = DIRECTION ( 'NONE',  ( -1.000000000000000000, 0.000000000000000000, 0.000000000000000000 ) ) ;
#8 = CARTESIAN_POINT ( 'NONE',  ( 0.000000000000000000, 0.000000000000000000, 7.000000000000000000 ) ) ;
#9 = EDGE_LOOP ( 'NONE', ( #156, #113 ) ) ;
#10 =( NAMED_UNIT ( * ) PLANE_ANGLE_UNIT ( ) SI_UNIT ( $, .RADIAN. ) );
#11 = ORIENTED_EDGE ( 'NONE', *, *, #284, .F. ) ;
#12 = CALENDAR_DATE ( 2022, 20, 6 ) ;
#13 = TOROIDAL_SURFACE ( 'NONE', #77, 9.199999999999999289, 0.2000000000000000111 ) ;
#14 = ORIENTED_EDGE ( 'NONE', *, *, #37, .T. ) ;
#15 = DATE_AND_TIME ( #20, #127 ) ;
#16 = DIRECTION ( 'NONE',  ( 1.000000000000000000, 0.000000000000000000, 0.000000000000000000 ) ) ;
#17 = ORIENTED_EDGE ( 'NONE', *, *, #261, .F. ) ;
#18 = PERSON_AND_ORGANIZATION ( #107, #244 ) ;
#19 = ADVANCED_FACE ( 'NONE', ( #306 ), #34, .T. ) ;
#20 = CALENDAR_DATE ( 2022, 20, 6 ) ;
#21 = ORIENTED_EDGE ( 'NONE', *, *, #44, .T. ) ;
#22 = AXIS2_PLACEMENT_3D ( 'NONE', #4, #196, #288 ) ;
#23 = CC_DESIGN_APPROVAL ( #245, ( #263 ) ) ;
#24 = DIRECTION ( 'NONE',  ( -1.000000000000000000, 0.000000000000000000, 0.000000000000000000 ) ) ;
#25 = AXIS2_PLACEMENT_3D ( 'NONE', #307, #101, #305 ) ;
#26 = DIRECTION ( 'NONE',  ( 0.000000000000000000, 0.000000000000000000, 1.000000000000000000 ) ) ;
#27 = CYLINDRICAL_SURFACE ( 'NONE', #31, 9.000000000000000000 ) ;
#28 = ADVANCED_FACE ( 'NONE', ( #56 ), #175, .T. ) ;
#29 = MANIFOLD_SOLID_BREP ( 'Zaoblit1', #286 ) ;
#30 = FACE_OUTER_BOUND ( 'NONE', #248, .T. ) ;
#31 = AXIS2_PLACEMENT_3D ( 'NONE', #271, #172, #102 ) ;
#32 = LOCAL_TIME ( 11, 22, 11.00000000000000000, #203 ) ;
#33 = DIRECTION ( 'NONE',  ( -0.000000000000000000, -0.000000000000000000, -1.000000000000000000 ) ) ;
#34 = CYLINDRICAL_SURFACE ( 'NONE', #163, 12.00000000000000178 ) ;
#35 = ORIENTED_EDGE ( 'NONE', *, *, #284, .T. ) ;
#36 = EDGE_LOOP ( 'NONE', ( #212, #235, #246, #134 ) ) ;
#37 = EDGE_CURVE ( 'NONE', #182, #290, #158, .T. ) ;
#38 = PERSON_AND_ORGANIZATION ( #107, #244 ) ;
#39 = COORDINATED_UNIVERSAL_TIME_OFFSET ( 1, 0, .AHEAD. ) ;
#40 = APPLICATION_PROTOCOL_DEFINITION ( 'international standard', 'config_control_design', 1994, #86 ) ;
#41 = AXIS2_PLACEMENT_3D ( 'NONE', #61, #260, #24 ) ;
#42 = CIRCLE ( 'NONE', #94, 9.000000000000000000 ) ;
#43 = CC_DESIGN_APPROVAL ( #74, ( #189 ) ) ;
#44 = EDGE_CURVE ( 'NONE', #228, #211, #259, .T. ) ;
#45 = DIRECTION ( 'NONE',  ( 0.000000000000000000, 0.000000000000000000, 1.000000000000000000 ) ) ;
#46 = DIRECTION ( 'NONE',  ( 1.000000000000000000, 0.000000000000000000, 0.000000000000000000 ) ) ;
#47 = EDGE_CURVE ( 'NONE', #211, #228, #186, .T. ) ;
#48 = CARTESIAN_POINT ( 'NONE',  ( -12.00000000000000178, 0.000000000000000000, 7.000000000000000000 ) ) ;
#49 = AXIS2_PLACEMENT_3D ( 'NONE', #71, #165, #124 ) ;
#50 = CARTESIAN_POINT ( 'NONE',  ( 12.00000000000000178, 1.469576158976824144E-15, 0.000000000000000000 ) ) ;
#51 = VECTOR ( 'NONE', #33, 1000.000000000000000 ) ;
#52 = CC_DESIGN_SECURITY_CLASSIFICATION ( #189, ( #198 ) ) ;
#53 = EDGE_CURVE ( 'NONE', #290, #88, #105, .T. ) ;
#54 = DIRECTION ( 'NONE',  ( -1.000000000000000000, 0.000000000000000000, 0.000000000000000000 ) ) ;
#55 = DIRECTION ( 'NONE',  ( 1.000000000000000000, 0.000000000000000000, 0.000000000000000000 ) ) ;
#56 = FACE_OUTER_BOUND ( 'NONE', #253, .T. ) ;
#57 = DIRECTION ( 'NONE',  ( -1.000000000000000000, 1.224646799147353207E-16, 0.000000000000000000 ) ) ;
#58 = AXIS2_PLACEMENT_3D ( 'NONE', #155, #266, #55 ) ;
#59 = EDGE_LOOP ( 'NONE', ( #173, #181, #276, #21 ) ) ;
#60 = CARTESIAN_POINT ( 'NONE',  ( 12.00000000000000178, 1.469576158976824144E-15, 7.000000000000000000 ) ) ;
#61 = CARTESIAN_POINT ( 'NONE',  ( 0.000000000000000000, 0.000000000000000000, 257.0000000000000000 ) ) ;
#62 = ORIENTED_EDGE ( 'NONE', *, *, #187, .T. ) ;
#63 = PERSON_AND_ORGANIZATION_ROLE ( 'creator' ) ;
#64 = ORIENTED_EDGE ( 'NONE', *, *, #299, .F. ) ;
#65 = APPROVAL_ROLE ( '' ) ;
#66 = ADVANCED_BREP_SHAPE_REPRESENTATION ( '92c3', ( #29, #150 ), #208 ) ;
#67 = VERTEX_POINT ( 'NONE', #122 ) ;
#68 = TOROIDAL_SURFACE ( 'NONE', #5, 9.199999999999999289, 0.2000000000000000111 ) ;
#69 = CIRCLE ( 'NONE', #58, 9.199999999999999289 ) ;
#70 = FACE_OUTER_BOUND ( 'NONE', #109, .T. ) ;
#71 = CARTESIAN_POINT ( 'NONE',  ( 0.000000000000000000, 0.000000000000000000, 0.000000000000000000 ) ) ;
#72 = DIRECTION ( 'NONE',  ( 0.000000000000000000, 0.000000000000000000, 1.000000000000000000 ) ) ;
#73 = DIRECTION ( 'NONE',  ( 1.000000000000000000, 0.000000000000000000, 0.000000000000000000 ) ) ;
#74 = APPROVAL ( #183, 'NEURÈENÝ' ) ;
#75 = CARTESIAN_POINT ( 'NONE',  ( 0.000000000000000000, 0.000000000000000000, 257.0000000000000000 ) ) ;
#76 = CARTESIAN_POINT ( 'NONE',  ( 0.000000000000000000, 0.000000000000000000, 7.000000000000000000 ) ) ;
#77 = AXIS2_PLACEMENT_3D ( 'NONE', #171, #174, #167 ) ;
#78 = DIRECTION ( 'NONE',  ( 0.000000000000000000, 0.000000000000000000, 1.000000000000000000 ) ) ;
#79 = FACE_OUTER_BOUND ( 'NONE', #9, .T. ) ;
#80 = AXIS2_PLACEMENT_3D ( 'NONE', #125, #72, #16 ) ;
#81 = DIRECTION ( 'NONE',  ( 1.000000000000000000, 0.000000000000000000, -0.000000000000000000 ) ) ;
#82 = DIRECTION ( 'NONE',  ( -0.000000000000000000, -0.000000000000000000, -1.000000000000000000 ) ) ;
#83 = ORIENTED_EDGE ( 'NONE', *, *, #133, .T. ) ;
#84 = LOCAL_TIME ( 11, 22, 11.00000000000000000, #39 ) ;
#85 = DATE_AND_TIME ( #12, #141 ) ;
#86 = APPLICATION_CONTEXT ( 'configuration controlled 3d designs of mechanical parts and assemblies' ) ;
#87 = ORIENTED_EDGE ( 'NONE', *, *, #89, .T. ) ;
#88 = VERTEX_POINT ( 'NONE', #100 ) ;
#89 = EDGE_CURVE ( 'NONE', #290, #182, #200, .T. ) ;
#90 = CALENDAR_DATE ( 2022, 20, 6 ) ;
#91 = CARTESIAN_POINT ( 'NONE',  ( 9.000000000000000000, 1.102182119232617714E-15, 257.0000000000000000 ) ) ;
#92 = VERTEX_POINT ( 'NONE', #118 ) ;
#93 = DATE_AND_TIME ( #229, #32 ) ;
#94 = AXIS2_PLACEMENT_3D ( 'NONE', #75, #194, #199 ) ;
#95 = EDGE_CURVE ( 'NONE', #160, #290, #282, .T. ) ;
#96 = VECTOR ( 'NONE', #164, 1000.000000000000000 ) ;
#97 = UNCERTAINTY_MEASURE_WITH_UNIT (LENGTH_MEASURE( 1.000000000000000082E-05 ), #222, 'distance_accuracy_value', 'NONE');
#98 = AXIS2_PLACEMENT_3D ( 'NONE', #8, #78, #151 ) ;
#99 = EDGE_CURVE ( 'NONE', #92, #228, #166, .T. ) ;
#100 = CARTESIAN_POINT ( 'NONE',  ( 9.199999999999999289, 0.000000000000000000, 7.000000000000006217 ) ) ;
#101 = DIRECTION ( 'NONE',  ( 0.000000000000000000, -1.000000000000000000, 0.000000000000000000 ) ) ;
#102 = DIRECTION ( 'NONE',  ( -1.000000000000000000, 0.000000000000000000, 0.000000000000000000 ) ) ;
#103 = ADVANCED_FACE ( 'NONE', ( #210 ), #68, .F. ) ;
#104 = CARTESIAN_POINT ( 'NONE',  ( 12.00000000000000178, 1.469576158976824144E-15, 7.000000000000000000 ) ) ;
#105 = CIRCLE ( 'NONE', #25, 0.1999999999999996503 ) ;
#106 = LINE ( 'NONE', #60, #51 ) ;
#107 = PERSON ( 'NEURÈENÝ', 'NEURÈENÝ', 'NEURÈENÝ', ('NEURÈENÝ'), ('NEURÈENÝ'), ('NEURÈENÝ') ) ;
#108 = CARTESIAN_POINT ( 'NONE',  ( 0.000000000000000000, 0.000000000000000000, 0.000000000000000000 ) ) ;
#109 = EDGE_LOOP ( 'NONE', ( #242, #292 ) ) ;
#110 = CARTESIAN_POINT ( 'NONE',  ( 0.000000000000000000, 0.000000000000000000, 7.000000000000000000 ) ) ;
#111 = ORIENTED_EDGE ( 'NONE', *, *, #53, .F. ) ;
#112 = APPROVAL_STATUS ( 'not_yet_approved' ) ;
#113 = ORIENTED_EDGE ( 'NONE', *, *, #234, .T. ) ;
#114 = APPLICATION_CONTEXT ( 'configuration controlled 3d designs of mechanical parts and assemblies' ) ;
#115 = ADVANCED_FACE ( 'NONE', ( #70 ), #233, .F. ) ;
#116 = VERTEX_POINT ( 'NONE', #104 ) ;
#117 = APPROVAL_ROLE ( '' ) ;
#118 = CARTESIAN_POINT ( 'NONE',  ( -12.00000000000000178, 0.000000000000000000, 7.000000000000000000 ) ) ;
#119 = VERTEX_POINT ( 'NONE', #283 ) ;
#120 = APPROVAL_DATE_TIME ( #93, #201 ) ;
#121 = APPROVAL_PERSON_ORGANIZATION ( #38, #74, #162 ) ;
#122 = CARTESIAN_POINT ( 'NONE',  ( -9.000000000000000000, 0.000000000000000000, 257.0000000000000000 ) ) ;
#123 = AXIS2_PLACEMENT_3D ( 'NONE', #241, #265, #54 ) ;
#124 = DIRECTION ( 'NONE',  ( 1.000000000000000000, 0.000000000000000000, 0.000000000000000000 ) ) ;
#125 = CARTESIAN_POINT ( 'NONE',  ( 0.000000000000000000, 0.000000000000000000, 7.200000000000011724 ) ) ;
#126 = CYLINDRICAL_SURFACE ( 'NONE', #123, 12.00000000000000178 ) ;
#127 = LOCAL_TIME ( 11, 22, 11.00000000000000000, #142 ) ;
#128 = DIRECTION ( 'NONE',  ( -0.000000000000000000, -0.000000000000000000, -1.000000000000000000 ) ) ;
#129 = DIRECTION ( 'NONE',  ( 0.000000000000000000, 0.000000000000000000, 1.000000000000000000 ) ) ;
#130 = VECTOR ( 'NONE', #206, 1000.000000000000000 ) ;
#131 = CARTESIAN_POINT ( 'NONE',  ( -9.000000000000000000, 0.000000000000000000, 7.200000000000011724 ) ) ;
#132 = CIRCLE ( 'NONE', #98, 12.00000000000000178 ) ;
#133 = EDGE_CURVE ( 'NONE', #160, #67, #42, .T. ) ;
#134 = ORIENTED_EDGE ( 'NONE', *, *, #99, .F. ) ;
#135 = LINE ( 'NONE', #289, #298 ) ;
#136 = ORIENTED_EDGE ( 'NONE', *, *, #273, .T. ) ;
#137 = PERSON_AND_ORGANIZATION_ROLE ( 'classification_officer' ) ;
#138 = ORIENTED_EDGE ( 'NONE', *, *, #95, .T. ) ;
#139 = CALENDAR_DATE ( 2022, 20, 6 ) ;
#140 = EDGE_LOOP ( 'NONE', ( #294, #297, #179, #64 ) ) ;
#141 = LOCAL_TIME ( 11, 22, 11.00000000000000000, #224 ) ;
#142 = COORDINATED_UNIVERSAL_TIME_OFFSET ( 1, 0, .AHEAD. ) ;
#143 = PERSON_AND_ORGANIZATION ( #107, #244 ) ;
#144 = DESIGN_CONTEXT ( 'detailed design', #114, 'design' ) ;
#145 = DIRECTION ( 'NONE',  ( 0.000000000000000000, 0.000000000000000000, 1.000000000000000000 ) ) ;
#146 = DIRECTION ( 'NONE',  ( 1.000000000000000000, 0.000000000000000000, 0.000000000000000000 ) ) ;
#147 = ADVANCED_FACE ( 'NONE', ( #152 ), #13, .F. ) ;
#148 = EDGE_CURVE ( 'NONE', #116, #211, #106, .T. ) ;
#149 = DIRECTION ( 'NONE',  ( 1.000000000000000000, 0.000000000000000000, 0.000000000000000000 ) ) ;
#150 = AXIS2_PLACEMENT_3D ( 'NONE', #277, #145, #161 ) ;
#151 = DIRECTION ( 'NONE',  ( 1.000000000000000000, 0.000000000000000000, 0.000000000000000000 ) ) ;
#152 = FACE_OUTER_BOUND ( 'NONE', #140, .T. ) ;
#153 = ADVANCED_FACE ( 'NONE', ( #264 ), #126, .T. ) ;
#154 = EDGE_LOOP ( 'NONE', ( #225, #136, #11, #111 ) ) ;
#155 = CARTESIAN_POINT ( 'NONE',  ( 0.000000000000000000, 0.000000000000000000, 7.000000000000000000 ) ) ;
#156 = ORIENTED_EDGE ( 'NONE', *, *, #178, .T. ) ;
#157 = PERSON_AND_ORGANIZATION_ROLE ( 'creator' ) ;
#158 = CIRCLE ( 'NONE', #80, 9.000000000000000000 ) ;
#159 = DATE_TIME_ROLE ( 'classification_date' ) ;
#160 = VERTEX_POINT ( 'NONE', #219 ) ;
#161 = DIRECTION ( 'NONE',  ( 1.000000000000000000, 0.000000000000000000, 0.000000000000000000 ) ) ;
#162 = APPROVAL_ROLE ( '' ) ;
#163 = AXIS2_PLACEMENT_3D ( 'NONE', #267, #82, #7 ) ;
#164 = DIRECTION ( 'NONE',  ( -0.000000000000000000, -0.000000000000000000, -1.000000000000000000 ) ) ;
#165 = DIRECTION ( 'NONE',  ( 0.000000000000000000, 0.000000000000000000, 1.000000000000000000 ) ) ;
#166 = LINE ( 'NONE', #48, #130 ) ;
#167 = DIRECTION ( 'NONE',  ( 1.000000000000000000, 0.000000000000000000, 0.000000000000000000 ) ) ;
#168 = PRODUCT_DEFINITION_SHAPE ( 'NONE', 'NONE',  #263 ) ;
#169 = DIRECTION ( 'NONE',  ( 0.000000000000000000, 0.000000000000000000, 1.000000000000000000 ) ) ;
#170 = LOCAL_TIME ( 11, 22, 11.00000000000000000, #226 ) ;
#171 = CARTESIAN_POINT ( 'NONE',  ( 0.000000000000000000, 0.000000000000000000, 7.200000000000011724 ) ) ;
#172 = DIRECTION ( 'NONE',  ( -0.000000000000000000, -0.000000000000000000, -1.000000000000000000 ) ) ;
#173 = ORIENTED_EDGE ( 'NONE', *, *, #148, .F. ) ;
#174 = DIRECTION ( 'NONE',  ( 0.000000000000000000, 0.000000000000000000, 1.000000000000000000 ) ) ;
#175 = CYLINDRICAL_SURFACE ( 'NONE', #41, 9.000000000000000000 ) ;
#176 = APPROVAL_PERSON_ORGANIZATION ( #254, #245, #117 ) ;
#177 = ORIENTED_EDGE ( 'NONE', *, *, #133, .F. ) ;
#178 = EDGE_CURVE ( 'NONE', #92, #116, #132, .T. ) ;
#179 = ORIENTED_EDGE ( 'NONE', *, *, #53, .T. ) ;
#180 =( NAMED_UNIT ( * ) SI_UNIT ( $, .STERADIAN. ) SOLID_ANGLE_UNIT ( ) );
#181 = ORIENTED_EDGE ( 'NONE', *, *, #178, .F. ) ;
#182 = VERTEX_POINT ( 'NONE', #131 ) ;
#183 = APPROVAL_STATUS ( 'not_yet_approved' ) ;
#184 = CC_DESIGN_PERSON_AND_ORGANIZATION_ASSIGNMENT ( #230, #63, ( #198 ) ) ;
#185 = PERSON_AND_ORGANIZATION_ROLE ( 'design_owner' ) ;
#186 = CIRCLE ( 'NONE', #49, 12.00000000000000178 ) ;
#187 = EDGE_CURVE ( 'NONE', #67, #182, #135, .T. ) ;
#188 = AXIS2_PLACEMENT_3D ( 'NONE', #110, #291, #237 ) ;
#189 = SECURITY_CLASSIFICATION ( '', '', #295 ) ;
#190 = CARTESIAN_POINT ( 'NONE',  ( 0.000000000000000000, 0.000000000000000000, 7.200000000000011724 ) ) ;
#191 = CIRCLE ( 'NONE', #197, 0.2000000000000005107 ) ;
#192 = CC_DESIGN_PERSON_AND_ORGANIZATION_ASSIGNMENT ( #18, #157, ( #263 ) ) ;
#193 = DIRECTION ( 'NONE',  ( 1.000000000000000000, 0.000000000000000000, -0.000000000000000000 ) ) ;
#194 = DIRECTION ( 'NONE',  ( 0.000000000000000000, 0.000000000000000000, 1.000000000000000000 ) ) ;
#195 = CC_DESIGN_PERSON_AND_ORGANIZATION_ASSIGNMENT ( #247, #185, ( #236 ) ) ;
#196 = DIRECTION ( 'NONE',  ( 0.000000000000000000, 0.000000000000000000, 1.000000000000000000 ) ) ;
#197 = AXIS2_PLACEMENT_3D ( 'NONE', #218, #243, #57 ) ;
#198 = PRODUCT_DEFINITION_FORMATION_WITH_SPECIFIED_SOURCE ( 'LIBOVOLNÝ', '', #236, .NOT_KNOWN. ) ;
#199 = DIRECTION ( 'NONE',  ( 1.000000000000000000, 0.000000000000000000, 0.000000000000000000 ) ) ;
#200 = CIRCLE ( 'NONE', #275, 9.000000000000000000 ) ;
#201 = APPROVAL ( #278, 'NEURÈENÝ' ) ;
#202 = CIRCLE ( 'NONE', #300, 12.00000000000000178 ) ;
#203 = COORDINATED_UNIVERSAL_TIME_OFFSET ( 1, 0, .AHEAD. ) ;
#204 = ORIENTED_EDGE ( 'NONE', *, *, #299, .T. ) ;
#205 = APPROVAL_DATE_TIME ( #15, #74 ) ;
#206 = DIRECTION ( 'NONE',  ( -0.000000000000000000, -0.000000000000000000, -1.000000000000000000 ) ) ;
#207 = DATE_AND_TIME ( #90, #170 ) ;
#208 =( GEOMETRIC_REPRESENTATION_CONTEXT ( 3 ) GLOBAL_UNCERTAINTY_ASSIGNED_CONTEXT ( ( #97 ) ) GLOBAL_UNIT_ASSIGNED_CONTEXT ( ( #222, #10, #180 ) ) REPRESENTATION_CONTEXT ( 'NONE', 'WORKASPACE' ) );
#209 = MECHANICAL_CONTEXT ( 'NONE', #86, 'mechanical' ) ;
#210 = FACE_OUTER_BOUND ( 'NONE', #154, .T. ) ;
#211 = VERTEX_POINT ( 'NONE', #50 ) ;
#212 = ORIENTED_EDGE ( 'NONE', *, *, #234, .F. ) ;
#213 = ADVANCED_FACE ( 'NONE', ( #2, #79 ), #285, .T. ) ;
#214 = AXIS2_PLACEMENT_3D ( 'NONE', #304, #262, #46 ) ;
#215 = CARTESIAN_POINT ( 'NONE',  ( 0.000000000000000000, 0.000000000000000000, 7.000000000000000000 ) ) ;
#216 = DIRECTION ( 'NONE',  ( 0.000000000000000000, 0.000000000000000000, 1.000000000000000000 ) ) ;
#217 = CARTESIAN_POINT ( 'NONE',  ( -12.00000000000000178, 0.000000000000000000, 0.000000000000000000 ) ) ;
#218 = CARTESIAN_POINT ( 'NONE',  ( -9.199999999999999289, 1.126675055215564822E-15, 7.200000000000011724 ) ) ;
#219 = CARTESIAN_POINT ( 'NONE',  ( 9.000000000000000000, 1.102182119232617714E-15, 257.0000000000000000 ) ) ;
#220 = ORIENTED_EDGE ( 'NONE', *, *, #95, .F. ) ;
#221 = ADVANCED_FACE ( 'NONE', ( #240 ), #27, .T. ) ;
#222 =( LENGTH_UNIT ( ) NAMED_UNIT ( * ) SI_UNIT ( .MILLI., .METRE. ) );
#223 = ORIENTED_EDGE ( 'NONE', *, *, #261, .T. ) ;
#224 = COORDINATED_UNIVERSAL_TIME_OFFSET ( 1, 0, .AHEAD. ) ;
#225 = ORIENTED_EDGE ( 'NONE', *, *, #37, .F. ) ;
#226 = COORDINATED_UNIVERSAL_TIME_OFFSET ( 1, 0, .AHEAD. ) ;
#227 = CC_DESIGN_DATE_AND_TIME_ASSIGNMENT ( #207, #159, ( #189 ) ) ;
#228 = VERTEX_POINT ( 'NONE', #217 ) ;
#229 = CALENDAR_DATE ( 2022, 20, 6 ) ;
#230 = PERSON_AND_ORGANIZATION ( #107, #244 ) ;
#231 = CIRCLE ( 'NONE', #188, 9.199999999999999289 ) ;
#232 = CC_DESIGN_PERSON_AND_ORGANIZATION_ASSIGNMENT ( #255, #137, ( #189 ) ) ;
#233 = PLANE ( 'NONE',  #238 ) ;
#234 = EDGE_CURVE ( 'NONE', #116, #92, #202, .T. ) ;
#235 = ORIENTED_EDGE ( 'NONE', *, *, #148, .T. ) ;
#236 = PRODUCT ( '92c3', '92c3', '', ( #209 ) ) ;
#237 = DIRECTION ( 'NONE',  ( 1.000000000000000000, 0.000000000000000000, 0.000000000000000000 ) ) ;
#238 = AXIS2_PLACEMENT_3D ( 'NONE', #108, #129, #193 ) ;
#239 = CARTESIAN_POINT ( 'NONE',  ( 0.000000000000000000, 0.000000000000000000, 257.0000000000000000 ) ) ;
#240 = FACE_OUTER_BOUND ( 'NONE', #303, .T. ) ;
#241 = CARTESIAN_POINT ( 'NONE',  ( 0.000000000000000000, 0.000000000000000000, 7.000000000000000000 ) ) ;
#242 = ORIENTED_EDGE ( 'NONE', *, *, #44, .F. ) ;
#243 = DIRECTION ( 'NONE',  ( 1.224646799147353207E-16, 1.000000000000000000, -0.000000000000000000 ) ) ;
#244 = ORGANIZATION ( 'NEURÈENÝ', 'NEURÈENÝ', '' ) ;
#245 = APPROVAL ( #112, 'NEURÈENÝ' ) ;
#246 = ORIENTED_EDGE ( 'NONE', *, *, #47, .T. ) ;
#247 = PERSON_AND_ORGANIZATION ( #107, #244 ) ;
#248 = EDGE_LOOP ( 'NONE', ( #223, #83 ) ) ;
#249 = PERSON_AND_ORGANIZATION ( #107, #244 ) ;
#250 = PERSON_AND_ORGANIZATION_ROLE ( 'design_supplier' ) ;
#251 = ADVANCED_FACE ( 'NONE', ( #30 ), #268, .T. ) ;
#252 = AXIS2_PLACEMENT_3D ( 'NONE', #239, #26, #81 ) ;
#253 = EDGE_LOOP ( 'NONE', ( #220, #17, #62, #14 ) ) ;
#254 = PERSON_AND_ORGANIZATION ( #107, #244 ) ;
#255 = PERSON_AND_ORGANIZATION ( #107, #244 ) ;
#256 = AXIS2_PLACEMENT_3D ( 'NONE', #215, #216, #3 ) ;
#257 = SHAPE_DEFINITION_REPRESENTATION ( #168, #66 ) ;
#258 = CARTESIAN_POINT ( 'NONE',  ( 0.000000000000000000, 0.000000000000000000, 7.200000000000011724 ) ) ;
#259 = CIRCLE ( 'NONE', #214, 12.00000000000000178 ) ;
#260 = DIRECTION ( 'NONE',  ( -0.000000000000000000, -0.000000000000000000, -1.000000000000000000 ) ) ;
#261 = EDGE_CURVE ( 'NONE', #67, #160, #287, .T. ) ;
#262 = DIRECTION ( 'NONE',  ( 0.000000000000000000, 0.000000000000000000, 1.000000000000000000 ) ) ;
#263 = PRODUCT_DEFINITION ( 'NEZNÁMÝ', '', #198, #144 ) ;
#264 = FACE_OUTER_BOUND ( 'NONE', #59, .T. ) ;
#265 = DIRECTION ( 'NONE',  ( -0.000000000000000000, -0.000000000000000000, -1.000000000000000000 ) ) ;
#266 = DIRECTION ( 'NONE',  ( -0.000000000000000000, -0.000000000000000000, -1.000000000000000000 ) ) ;
#267 = CARTESIAN_POINT ( 'NONE',  ( 0.000000000000000000, 0.000000000000000000, 7.000000000000000000 ) ) ;
#268 = PLANE ( 'NONE',  #252 ) ;
#269 = PRODUCT_RELATED_PRODUCT_CATEGORY ( 'detail', '', ( #236 ) ) ;
#270 = ORIENTED_EDGE ( 'NONE', *, *, #187, .F. ) ;
#271 = CARTESIAN_POINT ( 'NONE',  ( 0.000000000000000000, 0.000000000000000000, 257.0000000000000000 ) ) ;
#272 = DATE_TIME_ROLE ( 'creation_date' ) ;
#273 = EDGE_CURVE ( 'NONE', #182, #119, #191, .T. ) ;
#274 = APPLICATION_PROTOCOL_DEFINITION ( 'international standard', 'config_control_design', 1994, #114 ) ;
#275 = AXIS2_PLACEMENT_3D ( 'NONE', #190, #281, #73 ) ;
#276 = ORIENTED_EDGE ( 'NONE', *, *, #99, .T. ) ;
#277 = CARTESIAN_POINT ( 'NONE',  ( 0.000000000000000000, 0.000000000000000000, 0.000000000000000000 ) ) ;
#278 = APPROVAL_STATUS ( 'not_yet_approved' ) ;
#279 = DATE_AND_TIME ( #139, #84 ) ;
#280 = CC_DESIGN_PERSON_AND_ORGANIZATION_ASSIGNMENT ( #249, #250, ( #198 ) ) ;
#281 = DIRECTION ( 'NONE',  ( 0.000000000000000000, 0.000000000000000000, 1.000000000000000000 ) ) ;
#282 = LINE ( 'NONE', #91, #96 ) ;
#283 = CARTESIAN_POINT ( 'NONE',  ( -9.199999999999999289, 1.126675055215564822E-15, 7.000000000000006217 ) ) ;
#284 = EDGE_CURVE ( 'NONE', #88, #119, #69, .T. ) ;
#285 = PLANE ( 'NONE',  #256 ) ;
#286 = CLOSED_SHELL ( 'NONE', ( #103, #221, #19, #153, #213, #115, #28, #251, #147 ) ) ;
#287 = CIRCLE ( 'NONE', #22, 9.000000000000000000 ) ;
#288 = DIRECTION ( 'NONE',  ( 1.000000000000000000, 0.000000000000000000, 0.000000000000000000 ) ) ;
#289 = CARTESIAN_POINT ( 'NONE',  ( -9.000000000000000000, 0.000000000000000000, 257.0000000000000000 ) ) ;
#290 = VERTEX_POINT ( 'NONE', #6 ) ;
#291 = DIRECTION ( 'NONE',  ( -0.000000000000000000, -0.000000000000000000, -1.000000000000000000 ) ) ;
#292 = ORIENTED_EDGE ( 'NONE', *, *, #47, .F. ) ;
#293 = APPROVAL_DATE_TIME ( #279, #245 ) ;
#294 = ORIENTED_EDGE ( 'NONE', *, *, #273, .F. ) ;
#295 = SECURITY_CLASSIFICATION_LEVEL ( 'unclassified' ) ;
#296 = EDGE_LOOP ( 'NONE', ( #35, #204 ) ) ;
#297 = ORIENTED_EDGE ( 'NONE', *, *, #89, .F. ) ;
#298 = VECTOR ( 'NONE', #128, 1000.000000000000000 ) ;
#299 = EDGE_CURVE ( 'NONE', #119, #88, #231, .T. ) ;
#300 = AXIS2_PLACEMENT_3D ( 'NONE', #76, #169, #149 ) ;
#301 = APPROVAL_PERSON_ORGANIZATION ( #143, #201, #65 ) ;
#302 = CC_DESIGN_DATE_AND_TIME_ASSIGNMENT ( #85, #272, ( #263 ) ) ;
#303 = EDGE_LOOP ( 'NONE', ( #177, #138, #87, #270 ) ) ;
#304 = CARTESIAN_POINT ( 'NONE',  ( 0.000000000000000000, 0.000000000000000000, 0.000000000000000000 ) ) ;
#305 = DIRECTION ( 'NONE',  ( 0.000000000000000000, 0.000000000000000000, -1.000000000000000000 ) ) ;
#306 = FACE_OUTER_BOUND ( 'NONE', #36, .T. ) ;
#307 = CARTESIAN_POINT ( 'NONE',  ( 9.199999999999999289, 0.000000000000000000, 7.200000000000011724 ) ) ;
ENDSEC;
END-ISO-10303-21;
