ISO-10303-21;
HEADER;
FILE_DESCRIPTION (( 'STEP AP203' ),
    '1' );
FILE_NAME ('8b8b.STEP',
    '2022-06-20T09:27:20',
    ( '' ),
    ( '' ),
    'SwSTEP 2.0',
    'SolidWorks 2019',
    '' );
FILE_SCHEMA (( 'CONFIG_CONTROL_DESIGN' ));
ENDSEC;

DATA;
#1 = PRODUCT_RELATED_PRODUCT_CATEGORY ( 'detail', '', ( #204 ) ) ;
#2 = PLANE ( 'NONE',  #23 ) ;
#3 = AXIS2_PLACEMENT_3D ( 'NONE', #155, #77, #28 ) ;
#4 = DATE_AND_TIME ( #173, #63 ) ;
#5 = COORDINATED_UNIVERSAL_TIME_OFFSET ( 1, 0, .AHEAD. ) ;
#6 = CARTESIAN_POINT ( 'NONE',  ( -11.00000000000000000, 0.000000000000000000, 7.000000000000000000 ) ) ;
#7 = CARTESIAN_POINT ( 'NONE',  ( 0.000000000000000000, 0.000000000000000000, 7.199999999999998401 ) ) ;
#8 = APPROVAL_STATUS ( 'not_yet_approved' ) ;
#9 = DIRECTION ( 'NONE',  ( 0.000000000000000000, 0.000000000000000000, 1.000000000000000000 ) ) ;
#10 = DIRECTION ( 'NONE',  ( 1.000000000000000000, 0.000000000000000000, -0.000000000000000000 ) ) ;
#11 = APPROVAL ( #41, 'NEURÈENÝ' ) ;
#12 = AXIS2_PLACEMENT_3D ( 'NONE', #228, #27, #146 ) ;
#13 = DIRECTION ( 'NONE',  ( 0.000000000000000000, 0.000000000000000000, 1.000000000000000000 ) ) ;
#14 = LOCAL_TIME ( 11, 27, 20.00000000000000000, #5 ) ;
#15 = AXIS2_PLACEMENT_3D ( 'NONE', #65, #260, #163 ) ;
#16 = FACE_OUTER_BOUND ( 'NONE', #98, .T. ) ;
#17 = EDGE_LOOP ( 'NONE', ( #262, #169, #214, #143 ) ) ;
#18 = VECTOR ( 'NONE', #274, 1000.000000000000000 ) ;
#19 =( LENGTH_UNIT ( ) NAMED_UNIT ( * ) SI_UNIT ( .MILLI., .METRE. ) );
#20 = VERTEX_POINT ( 'NONE', #165 ) ;
#21 = CARTESIAN_POINT ( 'NONE',  ( -7.200000000000001066, 8.817456953860944275E-16, 6.999999999999999112 ) ) ;
#22 = CARTESIAN_POINT ( 'NONE',  ( 0.000000000000000000, 0.000000000000000000, 0.000000000000000000 ) ) ;
#23 = AXIS2_PLACEMENT_3D ( 'NONE', #99, #207, #10 ) ;
#24 = COORDINATED_UNIVERSAL_TIME_OFFSET ( 1, 0, .AHEAD. ) ;
#25 = AXIS2_PLACEMENT_3D ( 'NONE', #215, #137, #237 ) ;
#26 = EDGE_LOOP ( 'NONE', ( #47, #116, #45, #242 ) ) ;
#27 = DIRECTION ( 'NONE',  ( 0.000000000000000000, 0.000000000000000000, 1.000000000000000000 ) ) ;
#28 = DIRECTION ( 'NONE',  ( -1.000000000000000000, 0.000000000000000000, 0.000000000000000000 ) ) ;
#29 = PERSON_AND_ORGANIZATION ( #179, #231 ) ;
#30 = CARTESIAN_POINT ( 'NONE',  ( 0.000000000000000000, 0.000000000000000000, 132.0000000000000000 ) ) ;
#31 = CARTESIAN_POINT ( 'NONE',  ( 11.00000000000000000, 1.347111479062088405E-15, 0.000000000000000000 ) ) ;
#32 = DIRECTION ( 'NONE',  ( -0.000000000000000000, -0.000000000000000000, -1.000000000000000000 ) ) ;
#33 = CARTESIAN_POINT ( 'NONE',  ( -7.000000000000000888, 0.000000000000000000, 7.199999999999998401 ) ) ;
#34 = FACE_OUTER_BOUND ( 'NONE', #188, .T. ) ;
#35 = LINE ( 'NONE', #87, #296 ) ;
#36 = AXIS2_PLACEMENT_3D ( 'NONE', #174, #54, #122 ) ;
#37 = CARTESIAN_POINT ( 'NONE',  ( 0.000000000000000000, 0.000000000000000000, 0.000000000000000000 ) ) ;
#38 = AXIS2_PLACEMENT_3D ( 'NONE', #68, #40, #46 ) ;
#39 = EDGE_CURVE ( 'NONE', #306, #279, #100, .T. ) ;
#40 = DIRECTION ( 'NONE',  ( -0.000000000000000000, -0.000000000000000000, -1.000000000000000000 ) ) ;
#41 = APPROVAL_STATUS ( 'not_yet_approved' ) ;
#42 = TOROIDAL_SURFACE ( 'NONE', #223, 7.200000000000001066, 0.2000000000000000111 ) ;
#43 = ORIENTED_EDGE ( 'NONE', *, *, #108, .T. ) ;
#44 = AXIS2_PLACEMENT_3D ( 'NONE', #97, #200, #286 ) ;
#45 = ORIENTED_EDGE ( 'NONE', *, *, #289, .T. ) ;
#46 = DIRECTION ( 'NONE',  ( 1.000000000000000000, 0.000000000000000000, 0.000000000000000000 ) ) ;
#47 = ORIENTED_EDGE ( 'NONE', *, *, #275, .F. ) ;
#48 = DATE_AND_TIME ( #142, #258 ) ;
#49 = ADVANCED_FACE ( 'NONE', ( #271 ), #151, .T. ) ;
#50 = ORIENTED_EDGE ( 'NONE', *, *, #39, .T. ) ;
#51 = CARTESIAN_POINT ( 'NONE',  ( 0.000000000000000000, 0.000000000000000000, 7.199999999999998401 ) ) ;
#52 = FACE_OUTER_BOUND ( 'NONE', #17, .T. ) ;
#53 = CARTESIAN_POINT ( 'NONE',  ( 0.000000000000000000, 0.000000000000000000, 7.000000000000000000 ) ) ;
#54 = DIRECTION ( 'NONE',  ( -0.000000000000000000, -0.000000000000000000, -1.000000000000000000 ) ) ;
#55 = FACE_OUTER_BOUND ( 'NONE', #216, .T. ) ;
#56 = ADVANCED_FACE ( 'NONE', ( #55 ), #147, .T. ) ;
#57 = DIRECTION ( 'NONE',  ( -0.000000000000000000, -0.000000000000000000, -1.000000000000000000 ) ) ;
#58 = ADVANCED_FACE ( 'NONE', ( #126 ), #42, .F. ) ;
#59 = CARTESIAN_POINT ( 'NONE',  ( 7.000000000000000888, 8.572527594031474176E-16, 132.0000000000000000 ) ) ;
#60 = DIRECTION ( 'NONE',  ( -0.000000000000000000, -0.000000000000000000, -1.000000000000000000 ) ) ;
#61 = DESIGN_CONTEXT ( 'detailed design', #253, 'design' ) ;
#62 = CC_DESIGN_PERSON_AND_ORGANIZATION_ASSIGNMENT ( #263, #278, ( #204 ) ) ;
#63 = LOCAL_TIME ( 11, 27, 20.00000000000000000, #149 ) ;
#64 = APPROVAL_PERSON_ORGANIZATION ( #123, #198, #144 ) ;
#65 = CARTESIAN_POINT ( 'NONE',  ( 7.200000000000001066, 0.000000000000000000, 7.199999999999998401 ) ) ;
#66 = APPROVAL_DATE_TIME ( #90, #148 ) ;
#67 = VERTEX_POINT ( 'NONE', #229 ) ;
#68 = CARTESIAN_POINT ( 'NONE',  ( 0.000000000000000000, 0.000000000000000000, 7.000000000000000000 ) ) ;
#69 = VECTOR ( 'NONE', #32, 1000.000000000000000 ) ;
#70 = CIRCLE ( 'NONE', #38, 7.200000000000001066 ) ;
#71 = DIRECTION ( 'NONE',  ( 1.224646799147353207E-16, 1.000000000000000000, -0.000000000000000000 ) ) ;
#72 = ORIENTED_EDGE ( 'NONE', *, *, #108, .F. ) ;
#73 = DIRECTION ( 'NONE',  ( 1.000000000000000000, 0.000000000000000000, 0.000000000000000000 ) ) ;
#74 = PERSON_AND_ORGANIZATION_ROLE ( 'classification_officer' ) ;
#75 = CC_DESIGN_APPROVAL ( #148, ( #250 ) ) ;
#76 = CYLINDRICAL_SURFACE ( 'NONE', #36, 7.000000000000000888 ) ;
#77 = DIRECTION ( 'NONE',  ( -0.000000000000000000, -0.000000000000000000, -1.000000000000000000 ) ) ;
#78 = ADVANCED_FACE ( 'NONE', ( #153 ), #233, .F. ) ;
#79 = CIRCLE ( 'NONE', #206, 7.000000000000000888 ) ;
#80 = PERSON_AND_ORGANIZATION ( #179, #231 ) ;
#81 = CIRCLE ( 'NONE', #25, 7.000000000000000888 ) ;
#82 = CARTESIAN_POINT ( 'NONE',  ( 7.000000000000000888, 8.572527594031474176E-16, 132.0000000000000000 ) ) ;
#83 = DIRECTION ( 'NONE',  ( 0.000000000000000000, 0.000000000000000000, 1.000000000000000000 ) ) ;
#84 = APPROVAL_DATE_TIME ( #125, #198 ) ;
#85 = CARTESIAN_POINT ( 'NONE',  ( 0.000000000000000000, 0.000000000000000000, 7.199999999999998401 ) ) ;
#86 = AXIS2_PLACEMENT_3D ( 'NONE', #37, #132, #234 ) ;
#87 = CARTESIAN_POINT ( 'NONE',  ( -11.00000000000000000, 0.000000000000000000, 7.000000000000000000 ) ) ;
#88 = CC_DESIGN_PERSON_AND_ORGANIZATION_ASSIGNMENT ( #80, #251, ( #106 ) ) ;
#89 = ORIENTED_EDGE ( 'NONE', *, *, #289, .F. ) ;
#90 = DATE_AND_TIME ( #184, #211 ) ;
#91 = ORIENTED_EDGE ( 'NONE', *, *, #161, .F. ) ;
#92 = DIRECTION ( 'NONE',  ( 0.000000000000000000, 0.000000000000000000, 1.000000000000000000 ) ) ;
#93 = VERTEX_POINT ( 'NONE', #31 ) ;
#94 = AXIS2_PLACEMENT_3D ( 'NONE', #272, #57, #156 ) ;
#95 = PERSON_AND_ORGANIZATION_ROLE ( 'creator' ) ;
#96 = ORIENTED_EDGE ( 'NONE', *, *, #154, .T. ) ;
#97 = CARTESIAN_POINT ( 'NONE',  ( 0.000000000000000000, 0.000000000000000000, 0.000000000000000000 ) ) ;
#98 = EDGE_LOOP ( 'NONE', ( #113, #287 ) ) ;
#99 = CARTESIAN_POINT ( 'NONE',  ( 0.000000000000000000, 0.000000000000000000, 132.0000000000000000 ) ) ;
#100 = CIRCLE ( 'NONE', #138, 7.200000000000001066 ) ;
#101 = FACE_BOUND ( 'NONE', #115, .T. ) ;
#102 = AXIS2_PLACEMENT_3D ( 'NONE', #232, #158, #257 ) ;
#103 = ADVANCED_FACE ( 'NONE', ( #101, #34 ), #159, .T. ) ;
#104 = ADVANCED_FACE ( 'NONE', ( #52 ), #76, .T. ) ;
#105 = CALENDAR_DATE ( 2022, 20, 6 ) ;
#106 = PRODUCT_DEFINITION_FORMATION_WITH_SPECIFIED_SOURCE ( 'LIBOVOLNÝ', '', #204, .NOT_KNOWN. ) ;
#107 = AXIS2_PLACEMENT_3D ( 'NONE', #166, #71, #300 ) ;
#108 = EDGE_CURVE ( 'NONE', #218, #264, #79, .T. ) ;
#109 =( NAMED_UNIT ( * ) SI_UNIT ( $, .STERADIAN. ) SOLID_ANGLE_UNIT ( ) );
#110 = VERTEX_POINT ( 'NONE', #6 ) ;
#111 = ORIENTED_EDGE ( 'NONE', *, *, #208, .F. ) ;
#112 = CARTESIAN_POINT ( 'NONE',  ( -7.000000000000000888, 0.000000000000000000, 132.0000000000000000 ) ) ;
#113 = ORIENTED_EDGE ( 'NONE', *, *, #154, .F. ) ;
#114 = EDGE_CURVE ( 'NONE', #20, #93, #176, .T. ) ;
#115 = EDGE_LOOP ( 'NONE', ( #50, #220 ) ) ;
#116 = ORIENTED_EDGE ( 'NONE', *, *, #219, .F. ) ;
#117 = FACE_OUTER_BOUND ( 'NONE', #170, .T. ) ;
#118 = DIRECTION ( 'NONE',  ( 1.000000000000000000, 0.000000000000000000, 0.000000000000000000 ) ) ;
#119 = AXIS2_PLACEMENT_3D ( 'NONE', #205, #13, #238 ) ;
#120 = DIRECTION ( 'NONE',  ( 1.000000000000000000, 0.000000000000000000, 0.000000000000000000 ) ) ;
#121 = PERSON_AND_ORGANIZATION ( #179, #231 ) ;
#122 = DIRECTION ( 'NONE',  ( -1.000000000000000000, 0.000000000000000000, 0.000000000000000000 ) ) ;
#123 = PERSON_AND_ORGANIZATION ( #179, #231 ) ;
#124 = DIRECTION ( 'NONE',  ( -0.000000000000000000, -0.000000000000000000, -1.000000000000000000 ) ) ;
#125 = DATE_AND_TIME ( #105, #224 ) ;
#126 = FACE_OUTER_BOUND ( 'NONE', #140, .T. ) ;
#127 = CIRCLE ( 'NONE', #248, 11.00000000000000000 ) ;
#128 = SHAPE_DEFINITION_REPRESENTATION ( #259, #186 ) ;
#129 = EDGE_CURVE ( 'NONE', #20, #110, #150, .T. ) ;
#130 = CARTESIAN_POINT ( 'NONE',  ( -7.000000000000000888, 0.000000000000000000, 132.0000000000000000 ) ) ;
#131 = AXIS2_PLACEMENT_3D ( 'NONE', #53, #255, #269 ) ;
#132 = DIRECTION ( 'NONE',  ( 0.000000000000000000, 0.000000000000000000, 1.000000000000000000 ) ) ;
#133 = SECURITY_CLASSIFICATION ( '', '', #252 ) ;
#134 = CIRCLE ( 'NONE', #102, 7.000000000000000888 ) ;
#135 = MANIFOLD_SOLID_BREP ( 'Zaoblit1', #175 ) ;
#136 = CC_DESIGN_PERSON_AND_ORGANIZATION_ASSIGNMENT ( #29, #74, ( #133 ) ) ;
#137 = DIRECTION ( 'NONE',  ( 0.000000000000000000, 0.000000000000000000, 1.000000000000000000 ) ) ;
#138 = AXIS2_PLACEMENT_3D ( 'NONE', #280, #124, #120 ) ;
#139 = APPROVAL_ROLE ( '' ) ;
#140 = EDGE_LOOP ( 'NONE', ( #201, #212, #267, #89 ) ) ;
#141 = CIRCLE ( 'NONE', #86, 11.00000000000000000 ) ;
#142 = CALENDAR_DATE ( 2022, 20, 6 ) ;
#143 = ORIENTED_EDGE ( 'NONE', *, *, #235, .T. ) ;
#144 = APPROVAL_ROLE ( '' ) ;
#145 = EDGE_LOOP ( 'NONE', ( #283, #299, #197, #111 ) ) ;
#146 = DIRECTION ( 'NONE',  ( 1.000000000000000000, 0.000000000000000000, 0.000000000000000000 ) ) ;
#147 = CYLINDRICAL_SURFACE ( 'NONE', #131, 11.00000000000000000 ) ;
#148 = APPROVAL ( #298, 'NEURÈENÝ' ) ;
#149 = COORDINATED_UNIVERSAL_TIME_OFFSET ( 1, 0, .AHEAD. ) ;
#150 = CIRCLE ( 'NONE', #12, 11.00000000000000000 ) ;
#151 = CYLINDRICAL_SURFACE ( 'NONE', #3, 11.00000000000000000 ) ;
#152 = CIRCLE ( 'NONE', #273, 7.000000000000000888 ) ;
#153 = FACE_OUTER_BOUND ( 'NONE', #26, .T. ) ;
#154 = EDGE_CURVE ( 'NONE', #67, #93, #192, .T. ) ;
#155 = CARTESIAN_POINT ( 'NONE',  ( 0.000000000000000000, 0.000000000000000000, 7.000000000000000000 ) ) ;
#156 = DIRECTION ( 'NONE',  ( -1.000000000000000000, 0.000000000000000000, 0.000000000000000000 ) ) ;
#157 = DIRECTION ( 'NONE',  ( -0.000000000000000000, -0.000000000000000000, -1.000000000000000000 ) ) ;
#158 = DIRECTION ( 'NONE',  ( 0.000000000000000000, 0.000000000000000000, 1.000000000000000000 ) ) ;
#159 = PLANE ( 'NONE',  #119 ) ;
#160 = CYLINDRICAL_SURFACE ( 'NONE', #94, 7.000000000000000888 ) ;
#161 = EDGE_CURVE ( 'NONE', #110, #20, #127, .T. ) ;
#162 =( GEOMETRIC_REPRESENTATION_CONTEXT ( 3 ) GLOBAL_UNCERTAINTY_ASSIGNED_CONTEXT ( ( #293 ) ) GLOBAL_UNIT_ASSIGNED_CONTEXT ( ( #19, #281, #109 ) ) REPRESENTATION_CONTEXT ( 'NONE', 'WORKASPACE' ) );
#163 = DIRECTION ( 'NONE',  ( 0.000000000000000000, 0.000000000000000000, -1.000000000000000000 ) ) ;
#164 = PERSON_AND_ORGANIZATION ( #179, #231 ) ;
#165 = CARTESIAN_POINT ( 'NONE',  ( 11.00000000000000000, 1.347111479062088405E-15, 7.000000000000000000 ) ) ;
#166 = CARTESIAN_POINT ( 'NONE',  ( -7.200000000000001066, 8.817456953860944275E-16, 7.199999999999998401 ) ) ;
#167 = ORIENTED_EDGE ( 'NONE', *, *, #114, .F. ) ;
#168 = DIRECTION ( 'NONE',  ( 1.000000000000000000, 0.000000000000000000, 0.000000000000000000 ) ) ;
#169 = ORIENTED_EDGE ( 'NONE', *, *, #291, .F. ) ;
#170 = EDGE_LOOP ( 'NONE', ( #297, #43 ) ) ;
#171 = ADVANCED_FACE ( 'NONE', ( #117 ), #2, .T. ) ;
#172 = APPROVAL_PERSON_ORGANIZATION ( #236, #148, #244 ) ;
#173 = CALENDAR_DATE ( 2022, 20, 6 ) ;
#174 = CARTESIAN_POINT ( 'NONE',  ( 0.000000000000000000, 0.000000000000000000, 132.0000000000000000 ) ) ;
#175 = CLOSED_SHELL ( 'NONE', ( #58, #230, #49, #56, #103, #246, #104, #171, #78 ) ) ;
#176 = LINE ( 'NONE', #270, #69 ) ;
#177 = DIRECTION ( 'NONE',  ( 1.000000000000000000, 0.000000000000000000, 0.000000000000000000 ) ) ;
#178 = LINE ( 'NONE', #130, #18 ) ;
#179 = PERSON ( 'NEURÈENÝ', 'NEURÈENÝ', 'NEURÈENÝ', ('NEURÈENÝ'), ('NEURÈENÝ'), ('NEURÈENÝ') ) ;
#180 = FACE_OUTER_BOUND ( 'NONE', #307, .T. ) ;
#181 = DIRECTION ( 'NONE',  ( 0.000000000000000000, 0.000000000000000000, 1.000000000000000000 ) ) ;
#182 = CC_DESIGN_SECURITY_CLASSIFICATION ( #133, ( #106 ) ) ;
#183 = EDGE_CURVE ( 'NONE', #218, #245, #292, .T. ) ;
#184 = CALENDAR_DATE ( 2022, 20, 6 ) ;
#185 = AXIS2_PLACEMENT_3D ( 'NONE', #22, #92, #168 ) ;
#186 = ADVANCED_BREP_SHAPE_REPRESENTATION ( '8b8b', ( #135, #185 ), #162 ) ;
#187 = CARTESIAN_POINT ( 'NONE',  ( 7.200000000000001066, 0.000000000000000000, 6.999999999999999112 ) ) ;
#188 = EDGE_LOOP ( 'NONE', ( #285, #302 ) ) ;
#189 = DIRECTION ( 'NONE',  ( 1.000000000000000000, 0.000000000000000000, -0.000000000000000000 ) ) ;
#190 = CC_DESIGN_DATE_AND_TIME_ASSIGNMENT ( #48, #284, ( #250 ) ) ;
#191 = ORIENTED_EDGE ( 'NONE', *, *, #226, .F. ) ;
#192 = CIRCLE ( 'NONE', #44, 11.00000000000000000 ) ;
#193 = CARTESIAN_POINT ( 'NONE',  ( 7.000000000000000888, 8.572527594031474176E-16, 7.199999999999998401 ) ) ;
#194 = CC_DESIGN_APPROVAL ( #11, ( #106 ) ) ;
#195 = ORIENTED_EDGE ( 'NONE', *, *, #219, .T. ) ;
#196 = APPLICATION_PROTOCOL_DEFINITION ( 'international standard', 'config_control_design', 1994, #202 ) ;
#197 = ORIENTED_EDGE ( 'NONE', *, *, #240, .T. ) ;
#198 = APPROVAL ( #8, 'NEURÈENÝ' ) ;
#199 = CALENDAR_DATE ( 2022, 20, 6 ) ;
#200 = DIRECTION ( 'NONE',  ( 0.000000000000000000, 0.000000000000000000, 1.000000000000000000 ) ) ;
#201 = ORIENTED_EDGE ( 'NONE', *, *, #235, .F. ) ;
#202 = APPLICATION_CONTEXT ( 'configuration controlled 3d designs of mechanical parts and assemblies' ) ;
#203 = DATE_TIME_ROLE ( 'classification_date' ) ;
#204 = PRODUCT ( '8b8b', '8b8b', '', ( #210 ) ) ;
#205 = CARTESIAN_POINT ( 'NONE',  ( 0.000000000000000000, 0.000000000000000000, 7.000000000000000000 ) ) ;
#206 = AXIS2_PLACEMENT_3D ( 'NONE', #30, #290, #254 ) ;
#207 = DIRECTION ( 'NONE',  ( 0.000000000000000000, 0.000000000000000000, 1.000000000000000000 ) ) ;
#208 = EDGE_CURVE ( 'NONE', #110, #67, #35, .T. ) ;
#209 = COORDINATED_UNIVERSAL_TIME_OFFSET ( 1, 0, .AHEAD. ) ;
#210 = MECHANICAL_CONTEXT ( 'NONE', #202, 'mechanical' ) ;
#211 = LOCAL_TIME ( 11, 27, 20.00000000000000000, #217 ) ;
#212 = ORIENTED_EDGE ( 'NONE', *, *, #275, .T. ) ;
#213 = APPLICATION_PROTOCOL_DEFINITION ( 'international standard', 'config_control_design', 1994, #253 ) ;
#214 = ORIENTED_EDGE ( 'NONE', *, *, #226, .T. ) ;
#215 = CARTESIAN_POINT ( 'NONE',  ( 0.000000000000000000, 0.000000000000000000, 132.0000000000000000 ) ) ;
#216 = EDGE_LOOP ( 'NONE', ( #167, #91, #265, #96 ) ) ;
#217 = COORDINATED_UNIVERSAL_TIME_OFFSET ( 1, 0, .AHEAD. ) ;
#218 = VERTEX_POINT ( 'NONE', #82 ) ;
#219 = EDGE_CURVE ( 'NONE', #245, #239, #152, .T. ) ;
#220 = ORIENTED_EDGE ( 'NONE', *, *, #277, .T. ) ;
#221 = CARTESIAN_POINT ( 'NONE',  ( 0.000000000000000000, 0.000000000000000000, 7.000000000000000000 ) ) ;
#222 = DIRECTION ( 'NONE',  ( 1.000000000000000000, 0.000000000000000000, 0.000000000000000000 ) ) ;
#223 = AXIS2_PLACEMENT_3D ( 'NONE', #7, #83, #222 ) ;
#224 = LOCAL_TIME ( 11, 27, 20.00000000000000000, #24 ) ;
#225 = VECTOR ( 'NONE', #60, 1000.000000000000000 ) ;
#226 = EDGE_CURVE ( 'NONE', #264, #239, #178, .T. ) ;
#227 = APPROVAL_DATE_TIME ( #288, #11 ) ;
#228 = CARTESIAN_POINT ( 'NONE',  ( 0.000000000000000000, 0.000000000000000000, 7.000000000000000000 ) ) ;
#229 = CARTESIAN_POINT ( 'NONE',  ( -11.00000000000000000, 0.000000000000000000, 0.000000000000000000 ) ) ;
#230 = ADVANCED_FACE ( 'NONE', ( #180 ), #160, .T. ) ;
#231 = ORGANIZATION ( 'NEURÈENÝ', 'NEURÈENÝ', '' ) ;
#232 = CARTESIAN_POINT ( 'NONE',  ( 0.000000000000000000, 0.000000000000000000, 7.199999999999998401 ) ) ;
#233 = TOROIDAL_SURFACE ( 'NONE', #303, 7.200000000000001066, 0.2000000000000000111 ) ;
#234 = DIRECTION ( 'NONE',  ( 1.000000000000000000, 0.000000000000000000, 0.000000000000000000 ) ) ;
#235 = EDGE_CURVE ( 'NONE', #239, #245, #134, .T. ) ;
#236 = PERSON_AND_ORGANIZATION ( #179, #231 ) ;
#237 = DIRECTION ( 'NONE',  ( 1.000000000000000000, 0.000000000000000000, 0.000000000000000000 ) ) ;
#238 = DIRECTION ( 'NONE',  ( 1.000000000000000000, 0.000000000000000000, -0.000000000000000000 ) ) ;
#239 = VERTEX_POINT ( 'NONE', #33 ) ;
#240 = EDGE_CURVE ( 'NONE', #93, #67, #141, .T. ) ;
#241 = DIRECTION ( 'NONE',  ( 0.000000000000000000, 0.000000000000000000, 1.000000000000000000 ) ) ;
#242 = ORIENTED_EDGE ( 'NONE', *, *, #277, .F. ) ;
#243 = PERSON_AND_ORGANIZATION ( #179, #231 ) ;
#244 = APPROVAL_ROLE ( '' ) ;
#245 = VERTEX_POINT ( 'NONE', #193 ) ;
#246 = ADVANCED_FACE ( 'NONE', ( #16 ), #295, .F. ) ;
#247 = ORIENTED_EDGE ( 'NONE', *, *, #183, .T. ) ;
#248 = AXIS2_PLACEMENT_3D ( 'NONE', #221, #249, #73 ) ;
#249 = DIRECTION ( 'NONE',  ( 0.000000000000000000, 0.000000000000000000, 1.000000000000000000 ) ) ;
#250 = PRODUCT_DEFINITION ( 'NEZNÁMÝ', '', #106, #61 ) ;
#251 = PERSON_AND_ORGANIZATION_ROLE ( 'creator' ) ;
#252 = SECURITY_CLASSIFICATION_LEVEL ( 'unclassified' ) ;
#253 = APPLICATION_CONTEXT ( 'configuration controlled 3d designs of mechanical parts and assemblies' ) ;
#254 = DIRECTION ( 'NONE',  ( 1.000000000000000000, 0.000000000000000000, 0.000000000000000000 ) ) ;
#255 = DIRECTION ( 'NONE',  ( -0.000000000000000000, -0.000000000000000000, -1.000000000000000000 ) ) ;
#256 = CC_DESIGN_PERSON_AND_ORGANIZATION_ASSIGNMENT ( #121, #268, ( #106 ) ) ;
#257 = DIRECTION ( 'NONE',  ( 1.000000000000000000, 0.000000000000000000, 0.000000000000000000 ) ) ;
#258 = LOCAL_TIME ( 11, 27, 20.00000000000000000, #209 ) ;
#259 = PRODUCT_DEFINITION_SHAPE ( 'NONE', 'NONE',  #250 ) ;
#260 = DIRECTION ( 'NONE',  ( 0.000000000000000000, -1.000000000000000000, 0.000000000000000000 ) ) ;
#261 = CIRCLE ( 'NONE', #107, 0.1999999999999996503 ) ;
#262 = ORIENTED_EDGE ( 'NONE', *, *, #183, .F. ) ;
#263 = PERSON_AND_ORGANIZATION ( #179, #231 ) ;
#264 = VERTEX_POINT ( 'NONE', #112 ) ;
#265 = ORIENTED_EDGE ( 'NONE', *, *, #208, .T. ) ;
#266 = APPROVAL_PERSON_ORGANIZATION ( #164, #11, #139 ) ;
#267 = ORIENTED_EDGE ( 'NONE', *, *, #39, .F. ) ;
#268 = PERSON_AND_ORGANIZATION_ROLE ( 'design_supplier' ) ;
#269 = DIRECTION ( 'NONE',  ( -1.000000000000000000, 0.000000000000000000, 0.000000000000000000 ) ) ;
#270 = CARTESIAN_POINT ( 'NONE',  ( 11.00000000000000000, 1.347111479062088405E-15, 7.000000000000000000 ) ) ;
#271 = FACE_OUTER_BOUND ( 'NONE', #145, .T. ) ;
#272 = CARTESIAN_POINT ( 'NONE',  ( 0.000000000000000000, 0.000000000000000000, 132.0000000000000000 ) ) ;
#273 = AXIS2_PLACEMENT_3D ( 'NONE', #85, #181, #177 ) ;
#274 = DIRECTION ( 'NONE',  ( -0.000000000000000000, -0.000000000000000000, -1.000000000000000000 ) ) ;
#275 = EDGE_CURVE ( 'NONE', #239, #279, #261, .T. ) ;
#276 = CARTESIAN_POINT ( 'NONE',  ( 0.000000000000000000, 0.000000000000000000, 0.000000000000000000 ) ) ;
#277 = EDGE_CURVE ( 'NONE', #279, #306, #70, .T. ) ;
#278 = PERSON_AND_ORGANIZATION_ROLE ( 'design_owner' ) ;
#279 = VERTEX_POINT ( 'NONE', #21 ) ;
#280 = CARTESIAN_POINT ( 'NONE',  ( 0.000000000000000000, 0.000000000000000000, 7.000000000000000000 ) ) ;
#281 =( NAMED_UNIT ( * ) PLANE_ANGLE_UNIT ( ) SI_UNIT ( $, .RADIAN. ) );
#282 = CIRCLE ( 'NONE', #15, 0.1999999999999996503 ) ;
#283 = ORIENTED_EDGE ( 'NONE', *, *, #129, .F. ) ;
#284 = DATE_TIME_ROLE ( 'creation_date' ) ;
#285 = ORIENTED_EDGE ( 'NONE', *, *, #161, .T. ) ;
#286 = DIRECTION ( 'NONE',  ( 1.000000000000000000, 0.000000000000000000, 0.000000000000000000 ) ) ;
#287 = ORIENTED_EDGE ( 'NONE', *, *, #240, .F. ) ;
#288 = DATE_AND_TIME ( #199, #14 ) ;
#289 = EDGE_CURVE ( 'NONE', #245, #306, #282, .T. ) ;
#290 = DIRECTION ( 'NONE',  ( 0.000000000000000000, 0.000000000000000000, 1.000000000000000000 ) ) ;
#291 = EDGE_CURVE ( 'NONE', #264, #218, #81, .T. ) ;
#292 = LINE ( 'NONE', #59, #225 ) ;
#293 = UNCERTAINTY_MEASURE_WITH_UNIT (LENGTH_MEASURE( 1.000000000000000082E-05 ), #19, 'distance_accuracy_value', 'NONE');
#294 = CC_DESIGN_PERSON_AND_ORGANIZATION_ASSIGNMENT ( #243, #95, ( #250 ) ) ;
#295 = PLANE ( 'NONE',  #305 ) ;
#296 = VECTOR ( 'NONE', #157, 1000.000000000000000 ) ;
#297 = ORIENTED_EDGE ( 'NONE', *, *, #291, .T. ) ;
#298 = APPROVAL_STATUS ( 'not_yet_approved' ) ;
#299 = ORIENTED_EDGE ( 'NONE', *, *, #114, .T. ) ;
#300 = DIRECTION ( 'NONE',  ( -1.000000000000000000, 1.224646799147358384E-16, 0.000000000000000000 ) ) ;
#301 = CC_DESIGN_DATE_AND_TIME_ASSIGNMENT ( #4, #203, ( #133 ) ) ;
#302 = ORIENTED_EDGE ( 'NONE', *, *, #129, .T. ) ;
#303 = AXIS2_PLACEMENT_3D ( 'NONE', #51, #9, #118 ) ;
#304 = CC_DESIGN_APPROVAL ( #198, ( #133 ) ) ;
#305 = AXIS2_PLACEMENT_3D ( 'NONE', #276, #241, #189 ) ;
#306 = VERTEX_POINT ( 'NONE', #187 ) ;
#307 = EDGE_LOOP ( 'NONE', ( #72, #247, #195, #191 ) ) ;
ENDSEC;
END-ISO-10303-21;
