ISO-10303-21;
HEADER;
FILE_DESCRIPTION (( 'STEP AP203' ),
    '1' );
FILE_NAME ('87f6.STEP',
    '2022-06-20T09:58:23',
    ( '' ),
    ( '' ),
    'SwSTEP 2.0',
    'SolidWorks 2019',
    '' );
FILE_SCHEMA (( 'CONFIG_CONTROL_DESIGN' ));
ENDSEC;

DATA;
#1 = AXIS2_PLACEMENT_3D ( 'NONE', #182, #237, #213 ) ;
#2 = CARTESIAN_POINT ( 'NONE',  ( 0.000000000000000000, 0.000000000000000000, 130.0000000000000000 ) ) ;
#3 = CC_DESIGN_APPROVAL ( #91, ( #50 ) ) ;
#4 = EDGE_CURVE ( 'NONE', #302, #215, #130, .T. ) ;
#5 = DIRECTION ( 'NONE',  ( 0.000000000000000000, -1.000000000000000000, 0.000000000000000000 ) ) ;
#6 = LINE ( 'NONE', #189, #208 ) ;
#7 = FACE_OUTER_BOUND ( 'NONE', #37, .T. ) ;
#8 = DIRECTION ( 'NONE',  ( 1.000000000000000000, 0.000000000000000000, 0.000000000000000000 ) ) ;
#9 = CYLINDRICAL_SURFACE ( 'NONE', #273, 6.000000000000000888 ) ;
#10 = LINE ( 'NONE', #97, #159 ) ;
#11 = ORIENTED_EDGE ( 'NONE', *, *, #252, .F. ) ;
#12 =( GEOMETRIC_REPRESENTATION_CONTEXT ( 3 ) GLOBAL_UNCERTAINTY_ASSIGNED_CONTEXT ( ( #76 ) ) GLOBAL_UNIT_ASSIGNED_CONTEXT ( ( #181, #260, #88 ) ) REPRESENTATION_CONTEXT ( 'NONE', 'WORKASPACE' ) );
#13 = APPROVAL_PERSON_ORGANIZATION ( #154, #307, #275 ) ;
#14 = DIRECTION ( 'NONE',  ( -0.000000000000000000, -0.000000000000000000, -1.000000000000000000 ) ) ;
#15 = APPROVAL_STATUS ( 'not_yet_approved' ) ;
#16 = ORIENTED_EDGE ( 'NONE', *, *, #4, .F. ) ;
#17 = APPLICATION_PROTOCOL_DEFINITION ( 'international standard', 'config_control_design', 1994, #64 ) ;
#18 = PERSON_AND_ORGANIZATION_ROLE ( 'classification_officer' ) ;
#19 = AXIS2_PLACEMENT_3D ( 'NONE', #118, #77, #186 ) ;
#20 = APPROVAL_PERSON_ORGANIZATION ( #157, #83, #40 ) ;
#21 = CC_DESIGN_DATE_AND_TIME_ASSIGNMENT ( #86, #272, ( #50 ) ) ;
#22 = DIRECTION ( 'NONE',  ( -0.000000000000000000, -0.000000000000000000, -1.000000000000000000 ) ) ;
#23 = AXIS2_PLACEMENT_3D ( 'NONE', #122, #167, #49 ) ;
#24 = LOCAL_TIME ( 11, 58, 23.00000000000000000, #110 ) ;
#25 = CARTESIAN_POINT ( 'NONE',  ( 0.000000000000000000, 0.000000000000000000, 5.199999999999996625 ) ) ;
#26 = DIRECTION ( 'NONE',  ( 0.000000000000000000, 0.000000000000000000, 1.000000000000000000 ) ) ;
#27 = DIRECTION ( 'NONE',  ( 1.000000000000000000, 0.000000000000000000, 0.000000000000000000 ) ) ;
#28 = DIRECTION ( 'NONE',  ( -1.000000000000000000, 0.000000000000000000, 0.000000000000000000 ) ) ;
#29 = AXIS2_PLACEMENT_3D ( 'NONE', #169, #30, #120 ) ;
#30 = DIRECTION ( 'NONE',  ( -0.000000000000000000, -0.000000000000000000, -1.000000000000000000 ) ) ;
#31 = AXIS2_PLACEMENT_3D ( 'NONE', #78, #151, #263 ) ;
#32 = FACE_OUTER_BOUND ( 'NONE', #57, .T. ) ;
#33 = CC_DESIGN_APPROVAL ( #307, ( #253 ) ) ;
#34 = DESIGN_CONTEXT ( 'detailed design', #64, 'design' ) ;
#35 = VERTEX_POINT ( 'NONE', #140 ) ;
#36 = ORIENTED_EDGE ( 'NONE', *, *, #94, .F. ) ;
#37 = EDGE_LOOP ( 'NONE', ( #58, #244 ) ) ;
#38 = PERSON_AND_ORGANIZATION ( #66, #219 ) ;
#39 = COORDINATED_UNIVERSAL_TIME_OFFSET ( 1, 0, .AHEAD. ) ;
#40 = APPROVAL_ROLE ( '' ) ;
#41 = CC_DESIGN_SECURITY_CLASSIFICATION ( #131, ( #253 ) ) ;
#42 = EDGE_CURVE ( 'NONE', #35, #173, #256, .T. ) ;
#43 = DATE_AND_TIME ( #205, #121 ) ;
#44 = CARTESIAN_POINT ( 'NONE',  ( 0.000000000000000000, 0.000000000000000000, 0.000000000000000000 ) ) ;
#45 = CC_DESIGN_PERSON_AND_ORGANIZATION_ASSIGNMENT ( #38, #18, ( #131 ) ) ;
#46 = CYLINDRICAL_SURFACE ( 'NONE', #69, 3.000000000000000444 ) ;
#47 = CIRCLE ( 'NONE', #306, 3.000000000000000444 ) ;
#48 = VECTOR ( 'NONE', #74, 1000.000000000000000 ) ;
#49 = DIRECTION ( 'NONE',  ( 1.000000000000000000, 0.000000000000000000, 0.000000000000000000 ) ) ;
#50 = PRODUCT_DEFINITION ( 'NEZNÁMÝ', '', #253, #34 ) ;
#51 = FACE_OUTER_BOUND ( 'NONE', #191, .T. ) ;
#52 = DIRECTION ( 'NONE',  ( -0.000000000000000000, -0.000000000000000000, -1.000000000000000000 ) ) ;
#53 = ORIENTED_EDGE ( 'NONE', *, *, #280, .T. ) ;
#54 = DIRECTION ( 'NONE',  ( 1.000000000000000000, 0.000000000000000000, -0.000000000000000000 ) ) ;
#55 = VERTEX_POINT ( 'NONE', #102 ) ;
#56 = AXIS2_PLACEMENT_3D ( 'NONE', #207, #284, #27 ) ;
#57 = EDGE_LOOP ( 'NONE', ( #299, #123, #53, #268 ) ) ;
#58 = ORIENTED_EDGE ( 'NONE', *, *, #176, .F. ) ;
#59 = ORIENTED_EDGE ( 'NONE', *, *, #192, .T. ) ;
#60 = ORIENTED_EDGE ( 'NONE', *, *, #161, .F. ) ;
#61 = ORIENTED_EDGE ( 'NONE', *, *, #265, .T. ) ;
#62 = APPROVAL_PERSON_ORGANIZATION ( #201, #91, #198 ) ;
#63 = APPLICATION_PROTOCOL_DEFINITION ( 'international standard', 'config_control_design', 1994, #204 ) ;
#64 = APPLICATION_CONTEXT ( 'configuration controlled 3d designs of mechanical parts and assemblies' ) ;
#65 = PERSON_AND_ORGANIZATION_ROLE ( 'design_supplier' ) ;
#66 = PERSON ( 'NEURÈENÝ', 'NEURÈENÝ', 'NEURÈENÝ', ('NEURÈENÝ'), ('NEURÈENÝ'), ('NEURÈENÝ') ) ;
#67 = EDGE_CURVE ( 'NONE', #271, #173, #68, .T. ) ;
#68 = CIRCLE ( 'NONE', #199, 0.2000000000000000944 ) ;
#69 = AXIS2_PLACEMENT_3D ( 'NONE', #2, #282, #210 ) ;
#70 = DIRECTION ( 'NONE',  ( 1.000000000000000000, 0.000000000000000000, -0.000000000000000000 ) ) ;
#71 = CC_DESIGN_PERSON_AND_ORGANIZATION_ASSIGNMENT ( #200, #196, ( #50 ) ) ;
#72 = CIRCLE ( 'NONE', #286, 6.000000000000000888 ) ;
#73 = DIRECTION ( 'NONE',  ( 0.000000000000000000, 0.000000000000000000, 1.000000000000000000 ) ) ;
#74 = DIRECTION ( 'NONE',  ( -0.000000000000000000, -0.000000000000000000, -1.000000000000000000 ) ) ;
#75 = DIRECTION ( 'NONE',  ( 0.000000000000000000, 0.000000000000000000, 1.000000000000000000 ) ) ;
#76 = UNCERTAINTY_MEASURE_WITH_UNIT (LENGTH_MEASURE( 1.000000000000000082E-05 ), #181, 'distance_accuracy_value', 'NONE');
#77 = DIRECTION ( 'NONE',  ( 0.000000000000000000, 0.000000000000000000, 1.000000000000000000 ) ) ;
#78 = CARTESIAN_POINT ( 'NONE',  ( 0.000000000000000000, 0.000000000000000000, 5.000000000000000000 ) ) ;
#79 = ADVANCED_FACE ( 'NONE', ( #51 ), #220, .T. ) ;
#80 = AXIS2_PLACEMENT_3D ( 'NONE', #25, #163, #8 ) ;
#81 = ORIENTED_EDGE ( 'NONE', *, *, #176, .T. ) ;
#82 = DATE_AND_TIME ( #104, #160 ) ;
#83 = APPROVAL ( #251, 'NEURÈENÝ' ) ;
#84 = ORIENTED_EDGE ( 'NONE', *, *, #67, .T. ) ;
#85 = ORIENTED_EDGE ( 'NONE', *, *, #87, .T. ) ;
#86 = DATE_AND_TIME ( #174, #177 ) ;
#87 = EDGE_CURVE ( 'NONE', #215, #171, #101, .T. ) ;
#88 =( NAMED_UNIT ( * ) SI_UNIT ( $, .STERADIAN. ) SOLID_ANGLE_UNIT ( ) );
#89 = DATE_AND_TIME ( #304, #24 ) ;
#90 = APPROVAL_DATE_TIME ( #43, #83 ) ;
#91 = APPROVAL ( #301, 'NEURÈENÝ' ) ;
#92 = AXIS2_PLACEMENT_3D ( 'NONE', #134, #26, #119 ) ;
#93 = CARTESIAN_POINT ( 'NONE',  ( 3.000000000000000444, 3.673940397442060361E-16, 130.0000000000000000 ) ) ;
#94 = EDGE_CURVE ( 'NONE', #261, #194, #285, .T. ) ;
#95 = CARTESIAN_POINT ( 'NONE',  ( 3.000000000000000444, 3.673940397442060361E-16, 5.199999999999996625 ) ) ;
#96 = DIRECTION ( 'NONE',  ( 1.000000000000000000, 0.000000000000000000, 0.000000000000000000 ) ) ;
#97 = CARTESIAN_POINT ( 'NONE',  ( 3.000000000000000444, 3.673940397442060361E-16, 130.0000000000000000 ) ) ;
#98 = CARTESIAN_POINT ( 'NONE',  ( 0.000000000000000000, 0.000000000000000000, 5.000000000000000000 ) ) ;
#99 = ORIENTED_EDGE ( 'NONE', *, *, #158, .T. ) ;
#100 = CARTESIAN_POINT ( 'NONE',  ( 0.000000000000000000, 0.000000000000000000, 5.000000000000000000 ) ) ;
#101 = LINE ( 'NONE', #236, #112 ) ;
#102 = CARTESIAN_POINT ( 'NONE',  ( 6.000000000000000888, 7.347880794884120722E-16, 0.000000000000000000 ) ) ;
#103 = EDGE_LOOP ( 'NONE', ( #99, #165 ) ) ;
#104 = CALENDAR_DATE ( 2022, 20, 6 ) ;
#105 = AXIS2_PLACEMENT_3D ( 'NONE', #44, #137, #96 ) ;
#106 = CC_DESIGN_APPROVAL ( #83, ( #131 ) ) ;
#107 = ORIENTED_EDGE ( 'NONE', *, *, #252, .T. ) ;
#108 = DATE_AND_TIME ( #303, #114 ) ;
#109 = EDGE_LOOP ( 'NONE', ( #240, #270 ) ) ;
#110 = COORDINATED_UNIVERSAL_TIME_OFFSET ( 1, 0, .AHEAD. ) ;
#111 = AXIS2_PLACEMENT_3D ( 'NONE', #250, #193, #231 ) ;
#112 = VECTOR ( 'NONE', #212, 1000.000000000000000 ) ;
#113 = TOROIDAL_SURFACE ( 'NONE', #1, 3.200000000000000622, 0.2000000000000000111 ) ;
#114 = LOCAL_TIME ( 11, 58, 23.00000000000000000, #39 ) ;
#115 = CARTESIAN_POINT ( 'NONE',  ( 6.000000000000000888, 7.347880794884120722E-16, 5.000000000000000000 ) ) ;
#116 = CARTESIAN_POINT ( 'NONE',  ( 0.000000000000000000, 0.000000000000000000, 5.000000000000000000 ) ) ;
#117 = DIRECTION ( 'NONE',  ( -1.000000000000000000, 0.000000000000000000, 0.000000000000000000 ) ) ;
#118 = CARTESIAN_POINT ( 'NONE',  ( 0.000000000000000000, 0.000000000000000000, 130.0000000000000000 ) ) ;
#119 = DIRECTION ( 'NONE',  ( 1.000000000000000000, 0.000000000000000000, 0.000000000000000000 ) ) ;
#120 = DIRECTION ( 'NONE',  ( 1.000000000000000000, 0.000000000000000000, 0.000000000000000000 ) ) ;
#121 = LOCAL_TIME ( 11, 58, 23.00000000000000000, #128 ) ;
#122 = CARTESIAN_POINT ( 'NONE',  ( 0.000000000000000000, 0.000000000000000000, 5.000000000000000000 ) ) ;
#123 = ORIENTED_EDGE ( 'NONE', *, *, #143, .F. ) ;
#124 = CC_DESIGN_PERSON_AND_ORGANIZATION_ASSIGNMENT ( #228, #277, ( #203 ) ) ;
#125 = ORIENTED_EDGE ( 'NONE', *, *, #248, .T. ) ;
#126 = ORIENTED_EDGE ( 'NONE', *, *, #192, .F. ) ;
#127 = PERSON_AND_ORGANIZATION ( #66, #219 ) ;
#128 = COORDINATED_UNIVERSAL_TIME_OFFSET ( 1, 0, .AHEAD. ) ;
#129 = ADVANCED_FACE ( 'NONE', ( #188 ), #9, .T. ) ;
#130 = CIRCLE ( 'NONE', #31, 6.000000000000000888 ) ;
#131 = SECURITY_CLASSIFICATION ( '', '', #269 ) ;
#132 = CARTESIAN_POINT ( 'NONE',  ( 3.200000000000000622, 0.000000000000000000, 5.199999999999996625 ) ) ;
#133 = FACE_OUTER_BOUND ( 'NONE', #197, .T. ) ;
#134 = CARTESIAN_POINT ( 'NONE',  ( 0.000000000000000000, 0.000000000000000000, 0.000000000000000000 ) ) ;
#135 = AXIS2_PLACEMENT_3D ( 'NONE', #239, #258, #139 ) ;
#136 = CIRCLE ( 'NONE', #92, 6.000000000000000888 ) ;
#137 = DIRECTION ( 'NONE',  ( 0.000000000000000000, 0.000000000000000000, 1.000000000000000000 ) ) ;
#138 = DIRECTION ( 'NONE',  ( 0.000000000000000000, 0.000000000000000000, -1.000000000000000000 ) ) ;
#139 = DIRECTION ( 'NONE',  ( 1.000000000000000000, 0.000000000000000000, 0.000000000000000000 ) ) ;
#140 = CARTESIAN_POINT ( 'NONE',  ( 3.200000000000000622, 0.000000000000000000, 4.999999999999998224 ) ) ;
#141 = CARTESIAN_POINT ( 'NONE',  ( -6.000000000000000888, 0.000000000000000000, 5.000000000000000000 ) ) ;
#142 = CARTESIAN_POINT ( 'NONE',  ( 0.000000000000000000, 0.000000000000000000, 130.0000000000000000 ) ) ;
#143 = EDGE_CURVE ( 'NONE', #300, #271, #184, .T. ) ;
#144 = CARTESIAN_POINT ( 'NONE',  ( 0.000000000000000000, 0.000000000000000000, 0.000000000000000000 ) ) ;
#145 = ORIENTED_EDGE ( 'NONE', *, *, #87, .F. ) ;
#146 = CC_DESIGN_PERSON_AND_ORGANIZATION_ASSIGNMENT ( #127, #65, ( #253 ) ) ;
#147 = CARTESIAN_POINT ( 'NONE',  ( -3.200000000000000622, 3.918869757271530953E-16, 5.199999999999996625 ) ) ;
#148 = ORIENTED_EDGE ( 'NONE', *, *, #158, .F. ) ;
#149 = EDGE_CURVE ( 'NONE', #271, #300, #47, .T. ) ;
#150 = ORIENTED_EDGE ( 'NONE', *, *, #42, .F. ) ;
#151 = DIRECTION ( 'NONE',  ( 0.000000000000000000, 0.000000000000000000, 1.000000000000000000 ) ) ;
#152 = ORIENTED_EDGE ( 'NONE', *, *, #94, .T. ) ;
#153 = ORIENTED_EDGE ( 'NONE', *, *, #149, .F. ) ;
#154 = PERSON_AND_ORGANIZATION ( #66, #219 ) ;
#155 = CIRCLE ( 'NONE', #56, 3.000000000000000444 ) ;
#156 = PERSON_AND_ORGANIZATION ( #66, #219 ) ;
#157 = PERSON_AND_ORGANIZATION ( #66, #219 ) ;
#158 = EDGE_CURVE ( 'NONE', #215, #302, #72, .T. ) ;
#159 = VECTOR ( 'NONE', #52, 1000.000000000000000 ) ;
#160 = LOCAL_TIME ( 11, 58, 23.00000000000000000, #297 ) ;
#161 = EDGE_CURVE ( 'NONE', #194, #271, #6, .T. ) ;
#162 = PLANE ( 'NONE',  #242 ) ;
#163 = DIRECTION ( 'NONE',  ( 0.000000000000000000, 0.000000000000000000, 1.000000000000000000 ) ) ;
#164 = DIRECTION ( 'NONE',  ( -1.000000000000000000, 0.000000000000000000, 0.000000000000000000 ) ) ;
#165 = ORIENTED_EDGE ( 'NONE', *, *, #4, .T. ) ;
#166 = DIRECTION ( 'NONE',  ( 1.000000000000000000, 0.000000000000000000, 0.000000000000000000 ) ) ;
#167 = DIRECTION ( 'NONE',  ( -0.000000000000000000, -0.000000000000000000, -1.000000000000000000 ) ) ;
#168 = DIRECTION ( 'NONE',  ( -0.000000000000000000, -0.000000000000000000, -1.000000000000000000 ) ) ;
#169 = CARTESIAN_POINT ( 'NONE',  ( 0.000000000000000000, 0.000000000000000000, 5.000000000000000000 ) ) ;
#170 = TOROIDAL_SURFACE ( 'NONE', #80, 3.200000000000000622, 0.2000000000000000111 ) ;
#171 = VERTEX_POINT ( 'NONE', #259 ) ;
#172 = PERSON_AND_ORGANIZATION_ROLE ( 'creator' ) ;
#173 = VERTEX_POINT ( 'NONE', #255 ) ;
#174 = CALENDAR_DATE ( 2022, 20, 6 ) ;
#175 = DATE_TIME_ROLE ( 'classification_date' ) ;
#176 = EDGE_CURVE ( 'NONE', #171, #55, #281, .T. ) ;
#177 = LOCAL_TIME ( 11, 58, 23.00000000000000000, #230 ) ;
#178 = PRODUCT_RELATED_PRODUCT_CATEGORY ( 'detail', '', ( #203 ) ) ;
#179 = MANIFOLD_SOLID_BREP ( 'Zaoblit1', #274 ) ;
#180 = FACE_OUTER_BOUND ( 'NONE', #103, .T. ) ;
#181 =( LENGTH_UNIT ( ) NAMED_UNIT ( * ) SI_UNIT ( .MILLI., .METRE. ) );
#182 = CARTESIAN_POINT ( 'NONE',  ( 0.000000000000000000, 0.000000000000000000, 5.199999999999996625 ) ) ;
#183 = ADVANCED_FACE ( 'NONE', ( #133 ), #113, .F. ) ;
#184 = CIRCLE ( 'NONE', #135, 3.000000000000000444 ) ;
#185 = DIRECTION ( 'NONE',  ( 0.000000000000000000, 0.000000000000000000, 1.000000000000000000 ) ) ;
#186 = DIRECTION ( 'NONE',  ( 1.000000000000000000, 0.000000000000000000, 0.000000000000000000 ) ) ;
#187 = FACE_OUTER_BOUND ( 'NONE', #195, .T. ) ;
#188 = FACE_OUTER_BOUND ( 'NONE', #247, .T. ) ;
#189 = CARTESIAN_POINT ( 'NONE',  ( -3.000000000000000444, 0.000000000000000000, 130.0000000000000000 ) ) ;
#190 = DIRECTION ( 'NONE',  ( 1.224646799147353207E-16, 1.000000000000000000, -0.000000000000000000 ) ) ;
#191 = EDGE_LOOP ( 'NONE', ( #11, #222, #225, #296 ) ) ;
#192 = EDGE_CURVE ( 'NONE', #302, #55, #290, .T. ) ;
#193 = DIRECTION ( 'NONE',  ( 0.000000000000000000, 0.000000000000000000, 1.000000000000000000 ) ) ;
#194 = VERTEX_POINT ( 'NONE', #295 ) ;
#195 = EDGE_LOOP ( 'NONE', ( #125, #152 ) ) ;
#196 = PERSON_AND_ORGANIZATION_ROLE ( 'creator' ) ;
#197 = EDGE_LOOP ( 'NONE', ( #153, #84, #150, #267 ) ) ;
#198 = APPROVAL_ROLE ( '' ) ;
#199 = AXIS2_PLACEMENT_3D ( 'NONE', #147, #190, #243 ) ;
#200 = PERSON_AND_ORGANIZATION ( #66, #219 ) ;
#201 = PERSON_AND_ORGANIZATION ( #66, #219 ) ;
#202 = ADVANCED_FACE ( 'NONE', ( #7 ), #238, .F. ) ;
#203 = PRODUCT ( '87f6', '87f6', '', ( #246 ) ) ;
#204 = APPLICATION_CONTEXT ( 'configuration controlled 3d designs of mechanical parts and assemblies' ) ;
#205 = CALENDAR_DATE ( 2022, 20, 6 ) ;
#206 = ADVANCED_FACE ( 'NONE', ( #257 ), #46, .T. ) ;
#207 = CARTESIAN_POINT ( 'NONE',  ( 0.000000000000000000, 0.000000000000000000, 130.0000000000000000 ) ) ;
#208 = VECTOR ( 'NONE', #294, 1000.000000000000000 ) ;
#209 = CARTESIAN_POINT ( 'NONE',  ( 6.000000000000000888, 7.347880794884120722E-16, 5.000000000000000000 ) ) ;
#210 = DIRECTION ( 'NONE',  ( -1.000000000000000000, 0.000000000000000000, 0.000000000000000000 ) ) ;
#211 = FACE_OUTER_BOUND ( 'NONE', #227, .T. ) ;
#212 = DIRECTION ( 'NONE',  ( -0.000000000000000000, -0.000000000000000000, -1.000000000000000000 ) ) ;
#213 = DIRECTION ( 'NONE',  ( 1.000000000000000000, 0.000000000000000000, 0.000000000000000000 ) ) ;
#214 = CARTESIAN_POINT ( 'NONE',  ( -3.000000000000000444, 0.000000000000000000, 5.199999999999996625 ) ) ;
#215 = VERTEX_POINT ( 'NONE', #141 ) ;
#216 = ADVANCED_BREP_SHAPE_REPRESENTATION ( '87f6', ( #179, #111 ), #12 ) ;
#217 = PRODUCT_DEFINITION_SHAPE ( 'NONE', 'NONE',  #50 ) ;
#218 = AXIS2_PLACEMENT_3D ( 'NONE', #142, #14, #28 ) ;
#219 = ORGANIZATION ( 'NEURÈENÝ', 'NEURÈENÝ', '' ) ;
#220 = CYLINDRICAL_SURFACE ( 'NONE', #218, 3.000000000000000444 ) ;
#221 = DIRECTION ( 'NONE',  ( 0.000000000000000000, 0.000000000000000000, 1.000000000000000000 ) ) ;
#222 = ORIENTED_EDGE ( 'NONE', *, *, #248, .F. ) ;
#223 = ADVANCED_FACE ( 'NONE', ( #32 ), #170, .F. ) ;
#224 = APPROVAL_DATE_TIME ( #108, #91 ) ;
#225 = ORIENTED_EDGE ( 'NONE', *, *, #161, .T. ) ;
#226 = AXIS2_PLACEMENT_3D ( 'NONE', #100, #264, #70 ) ;
#227 = EDGE_LOOP ( 'NONE', ( #16, #59, #61, #145 ) ) ;
#228 = PERSON_AND_ORGANIZATION ( #66, #219 ) ;
#229 = CC_DESIGN_PERSON_AND_ORGANIZATION_ASSIGNMENT ( #156, #172, ( #253 ) ) ;
#230 = COORDINATED_UNIVERSAL_TIME_OFFSET ( 1, 0, .AHEAD. ) ;
#231 = DIRECTION ( 'NONE',  ( 1.000000000000000000, 0.000000000000000000, 0.000000000000000000 ) ) ;
#232 = CIRCLE ( 'NONE', #266, 0.1999999999999996503 ) ;
#233 = SHAPE_DEFINITION_REPRESENTATION ( #217, #216 ) ;
#234 = CYLINDRICAL_SURFACE ( 'NONE', #276, 6.000000000000000888 ) ;
#235 = PLANE ( 'NONE',  #226 ) ;
#236 = CARTESIAN_POINT ( 'NONE',  ( -6.000000000000000888, 0.000000000000000000, 5.000000000000000000 ) ) ;
#237 = DIRECTION ( 'NONE',  ( 0.000000000000000000, 0.000000000000000000, 1.000000000000000000 ) ) ;
#238 = PLANE ( 'NONE',  #279 ) ;
#239 = CARTESIAN_POINT ( 'NONE',  ( 0.000000000000000000, 0.000000000000000000, 5.199999999999996625 ) ) ;
#240 = ORIENTED_EDGE ( 'NONE', *, *, #42, .T. ) ;
#241 = DIRECTION ( 'NONE',  ( 1.000000000000000000, 0.000000000000000000, -0.000000000000000000 ) ) ;
#242 = AXIS2_PLACEMENT_3D ( 'NONE', #292, #75, #54 ) ;
#243 = DIRECTION ( 'NONE',  ( -1.000000000000000000, 1.224646799147353207E-16, 0.000000000000000000 ) ) ;
#244 = ORIENTED_EDGE ( 'NONE', *, *, #265, .F. ) ;
#245 = EDGE_LOOP ( 'NONE', ( #36, #107, #291, #60 ) ) ;
#246 = MECHANICAL_CONTEXT ( 'NONE', #204, 'mechanical' ) ;
#247 = EDGE_LOOP ( 'NONE', ( #126, #148, #85, #81 ) ) ;
#248 = EDGE_CURVE ( 'NONE', #194, #261, #155, .T. ) ;
#249 = APPROVAL_DATE_TIME ( #82, #307 ) ;
#250 = CARTESIAN_POINT ( 'NONE',  ( 0.000000000000000000, 0.000000000000000000, 0.000000000000000000 ) ) ;
#251 = APPROVAL_STATUS ( 'not_yet_approved' ) ;
#252 = EDGE_CURVE ( 'NONE', #261, #300, #10, .T. ) ;
#253 = PRODUCT_DEFINITION_FORMATION_WITH_SPECIFIED_SOURCE ( 'LIBOVOLNÝ', '', #203, .NOT_KNOWN. ) ;
#254 = EDGE_CURVE ( 'NONE', #173, #35, #288, .T. ) ;
#255 = CARTESIAN_POINT ( 'NONE',  ( -3.200000000000000622, 3.918869757271530953E-16, 4.999999999999998224 ) ) ;
#256 = CIRCLE ( 'NONE', #29, 3.200000000000000622 ) ;
#257 = FACE_OUTER_BOUND ( 'NONE', #245, .T. ) ;
#258 = DIRECTION ( 'NONE',  ( 0.000000000000000000, 0.000000000000000000, 1.000000000000000000 ) ) ;
#259 = CARTESIAN_POINT ( 'NONE',  ( -6.000000000000000888, 0.000000000000000000, 0.000000000000000000 ) ) ;
#260 =( NAMED_UNIT ( * ) PLANE_ANGLE_UNIT ( ) SI_UNIT ( $, .RADIAN. ) );
#261 = VERTEX_POINT ( 'NONE', #93 ) ;
#262 = DIRECTION ( 'NONE',  ( 1.000000000000000000, 0.000000000000000000, 0.000000000000000000 ) ) ;
#263 = DIRECTION ( 'NONE',  ( 1.000000000000000000, 0.000000000000000000, 0.000000000000000000 ) ) ;
#264 = DIRECTION ( 'NONE',  ( 0.000000000000000000, 0.000000000000000000, 1.000000000000000000 ) ) ;
#265 = EDGE_CURVE ( 'NONE', #55, #171, #136, .T. ) ;
#266 = AXIS2_PLACEMENT_3D ( 'NONE', #132, #5, #138 ) ;
#267 = ORIENTED_EDGE ( 'NONE', *, *, #280, .F. ) ;
#268 = ORIENTED_EDGE ( 'NONE', *, *, #254, .F. ) ;
#269 = SECURITY_CLASSIFICATION_LEVEL ( 'unclassified' ) ;
#270 = ORIENTED_EDGE ( 'NONE', *, *, #254, .T. ) ;
#271 = VERTEX_POINT ( 'NONE', #214 ) ;
#272 = DATE_TIME_ROLE ( 'creation_date' ) ;
#273 = AXIS2_PLACEMENT_3D ( 'NONE', #98, #168, #164 ) ;
#274 = CLOSED_SHELL ( 'NONE', ( #183, #206, #298, #129, #278, #202, #79, #293, #223 ) ) ;
#275 = APPROVAL_ROLE ( '' ) ;
#276 = AXIS2_PLACEMENT_3D ( 'NONE', #116, #22, #117 ) ;
#277 = PERSON_AND_ORGANIZATION_ROLE ( 'design_owner' ) ;
#278 = ADVANCED_FACE ( 'NONE', ( #287, #180 ), #235, .T. ) ;
#279 = AXIS2_PLACEMENT_3D ( 'NONE', #144, #185, #241 ) ;
#280 = EDGE_CURVE ( 'NONE', #300, #35, #232, .T. ) ;
#281 = CIRCLE ( 'NONE', #105, 6.000000000000000888 ) ;
#282 = DIRECTION ( 'NONE',  ( -0.000000000000000000, -0.000000000000000000, -1.000000000000000000 ) ) ;
#283 = CARTESIAN_POINT ( 'NONE',  ( 0.000000000000000000, 0.000000000000000000, 5.000000000000000000 ) ) ;
#284 = DIRECTION ( 'NONE',  ( 0.000000000000000000, 0.000000000000000000, 1.000000000000000000 ) ) ;
#285 = CIRCLE ( 'NONE', #19, 3.000000000000000444 ) ;
#286 = AXIS2_PLACEMENT_3D ( 'NONE', #283, #221, #262 ) ;
#287 = FACE_BOUND ( 'NONE', #109, .T. ) ;
#288 = CIRCLE ( 'NONE', #23, 3.200000000000000622 ) ;
#289 = CARTESIAN_POINT ( 'NONE',  ( 0.000000000000000000, 0.000000000000000000, 5.199999999999996625 ) ) ;
#290 = LINE ( 'NONE', #209, #48 ) ;
#291 = ORIENTED_EDGE ( 'NONE', *, *, #143, .T. ) ;
#292 = CARTESIAN_POINT ( 'NONE',  ( 0.000000000000000000, 0.000000000000000000, 130.0000000000000000 ) ) ;
#293 = ADVANCED_FACE ( 'NONE', ( #187 ), #162, .T. ) ;
#294 = DIRECTION ( 'NONE',  ( -0.000000000000000000, -0.000000000000000000, -1.000000000000000000 ) ) ;
#295 = CARTESIAN_POINT ( 'NONE',  ( -3.000000000000000444, 0.000000000000000000, 130.0000000000000000 ) ) ;
#296 = ORIENTED_EDGE ( 'NONE', *, *, #149, .T. ) ;
#297 = COORDINATED_UNIVERSAL_TIME_OFFSET ( 1, 0, .AHEAD. ) ;
#298 = ADVANCED_FACE ( 'NONE', ( #211 ), #234, .T. ) ;
#299 = ORIENTED_EDGE ( 'NONE', *, *, #67, .F. ) ;
#300 = VERTEX_POINT ( 'NONE', #95 ) ;
#301 = APPROVAL_STATUS ( 'not_yet_approved' ) ;
#302 = VERTEX_POINT ( 'NONE', #115 ) ;
#303 = CALENDAR_DATE ( 2022, 20, 6 ) ;
#304 = CALENDAR_DATE ( 2022, 20, 6 ) ;
#305 = CC_DESIGN_DATE_AND_TIME_ASSIGNMENT ( #89, #175, ( #131 ) ) ;
#306 = AXIS2_PLACEMENT_3D ( 'NONE', #289, #73, #166 ) ;
#307 = APPROVAL ( #15, 'NEURÈENÝ' ) ;
ENDSEC;
END-ISO-10303-21;
