ISO-10303-21;
HEADER;
FILE_DESCRIPTION (( 'STEP AP203' ),
    '1' );
FILE_NAME ('a433.STEP',
    '2022-06-20T10:26:55',
    ( '' ),
    ( '' ),
    'SwSTEP 2.0',
    'SolidWorks 2019',
    '' );
FILE_SCHEMA (( 'CONFIG_CONTROL_DESIGN' ));
ENDSEC;

DATA;
#1 = AXIS2_PLACEMENT_3D ( 'NONE', #306, #178, #182 ) ;
#2 = DIRECTION ( 'NONE',  ( 1.000000000000000000, 0.000000000000000000, 0.000000000000000000 ) ) ;
#3 = ORIENTED_EDGE ( 'NONE', *, *, #17, .T. ) ;
#4 = AXIS2_PLACEMENT_3D ( 'NONE', #261, #209, #2 ) ;
#5 = CARTESIAN_POINT ( 'NONE',  ( 0.000000000000000000, 0.000000000000000000, 1.199999999999999956 ) ) ;
#6 = DATE_AND_TIME ( #11, #41 ) ;
#7 = DIRECTION ( 'NONE',  ( 0.000000000000000000, 0.000000000000000000, 1.000000000000000000 ) ) ;
#8 = DATE_AND_TIME ( #100, #253 ) ;
#9 = APPROVAL_PERSON_ORGANIZATION ( #200, #215, #203 ) ;
#10 = EDGE_CURVE ( 'NONE', #25, #168, #275, .T. ) ;
#11 = CALENDAR_DATE ( 2022, 20, 6 ) ;
#12 = PERSON_AND_ORGANIZATION_ROLE ( 'design_supplier' ) ;
#13 = DIRECTION ( 'NONE',  ( -1.000000000000000000, 0.000000000000000000, 0.000000000000000000 ) ) ;
#14 = AXIS2_PLACEMENT_3D ( 'NONE', #188, #74, #138 ) ;
#15 = CALENDAR_DATE ( 2022, 20, 6 ) ;
#16 = LOCAL_TIME ( 12, 26, 55.00000000000000000, #250 ) ;
#17 = EDGE_CURVE ( 'NONE', #168, #25, #262, .T. ) ;
#18 = CARTESIAN_POINT ( 'NONE',  ( 0.000000000000000000, 0.000000000000000000, 101.2000000000000171 ) ) ;
#19 = EDGE_LOOP ( 'NONE', ( #305, #27 ) ) ;
#20 = CC_DESIGN_DATE_AND_TIME_ASSIGNMENT ( #255, #298, ( #276 ) ) ;
#21 = COORDINATED_UNIVERSAL_TIME_OFFSET ( 1, 0, .AHEAD. ) ;
#22 = CARTESIAN_POINT ( 'NONE',  ( -0.5000000000000000000, 0.000000000000000000, 101.2000000000000171 ) ) ;
#23 = DIRECTION ( 'NONE',  ( -0.000000000000000000, -0.000000000000000000, -1.000000000000000000 ) ) ;
#24 = AXIS2_PLACEMENT_3D ( 'NONE', #93, #267, #113 ) ;
#25 = VERTEX_POINT ( 'NONE', #139 ) ;
#26 = CIRCLE ( 'NONE', #238, 1.250000000000000000 ) ;
#27 = ORIENTED_EDGE ( 'NONE', *, *, #284, .T. ) ;
#28 = ORIENTED_EDGE ( 'NONE', *, *, #211, .T. ) ;
#29 = ORIENTED_EDGE ( 'NONE', *, *, #277, .F. ) ;
#30 = APPROVAL_ROLE ( '' ) ;
#31 = CARTESIAN_POINT ( 'NONE',  ( 0.000000000000000000, 0.000000000000000000, 0.000000000000000000 ) ) ;
#32 = DIRECTION ( 'NONE',  ( 1.000000000000000000, 0.000000000000000000, 0.000000000000000000 ) ) ;
#33 = DIRECTION ( 'NONE',  ( -0.000000000000000000, -0.000000000000000000, -1.000000000000000000 ) ) ;
#34 = CC_DESIGN_APPROVAL ( #215, ( #276 ) ) ;
#35 = CC_DESIGN_PERSON_AND_ORGANIZATION_ASSIGNMENT ( #225, #12, ( #103 ) ) ;
#36 = APPROVAL_DATE_TIME ( #6, #69 ) ;
#37 = APPROVAL_DATE_TIME ( #195, #222 ) ;
#38 = ADVANCED_FACE ( 'NONE', ( #54 ), #49, .F. ) ;
#39 = PLANE ( 'NONE',  #264 ) ;
#40 = CIRCLE ( 'NONE', #4, 0.5000000000000000000 ) ;
#41 = LOCAL_TIME ( 12, 26, 55.00000000000000000, #118 ) ;
#42 = ORIENTED_EDGE ( 'NONE', *, *, #144, .T. ) ;
#43 = APPROVAL_STATUS ( 'not_yet_approved' ) ;
#44 = DIRECTION ( 'NONE',  ( 0.000000000000000000, 0.000000000000000000, 1.000000000000000000 ) ) ;
#45 = CC_DESIGN_PERSON_AND_ORGANIZATION_ASSIGNMENT ( #106, #126, ( #103 ) ) ;
#46 = CARTESIAN_POINT ( 'NONE',  ( 0.6999999999999999556, 0.000000000000000000, 1.199999999999999289 ) ) ;
#47 = DIRECTION ( 'NONE',  ( 0.000000000000000000, 0.000000000000000000, 1.000000000000000000 ) ) ;
#48 = EDGE_CURVE ( 'NONE', #216, #158, #72, .T. ) ;
#49 = PLANE ( 'NONE',  #295 ) ;
#50 = LINE ( 'NONE', #237, #127 ) ;
#51 = ORIENTED_EDGE ( 'NONE', *, *, #277, .T. ) ;
#52 = AXIS2_PLACEMENT_3D ( 'NONE', #294, #198, #290 ) ;
#53 = DIRECTION ( 'NONE',  ( 1.000000000000000000, 0.000000000000000000, 0.000000000000000000 ) ) ;
#54 = FACE_OUTER_BOUND ( 'NONE', #155, .T. ) ;
#55 = CARTESIAN_POINT ( 'NONE',  ( 0.000000000000000000, 0.000000000000000000, 1.199999999999999956 ) ) ;
#56 = EDGE_CURVE ( 'NONE', #258, #153, #247, .T. ) ;
#57 = DIRECTION ( 'NONE',  ( -1.000000000000000000, 0.000000000000000000, 0.000000000000000000 ) ) ;
#58 = ORIENTED_EDGE ( 'NONE', *, *, #281, .T. ) ;
#59 = ORGANIZATION ( 'NEURÈENÝ', 'NEURÈENÝ', '' ) ;
#60 = PERSON_AND_ORGANIZATION ( #161, #59 ) ;
#61 = EDGE_LOOP ( 'NONE', ( #66, #134, #51, #76 ) ) ;
#62 = CARTESIAN_POINT ( 'NONE',  ( -0.6999999999999999556, 8.572527594031471957E-17, 1.399999999999998579 ) ) ;
#63 = EDGE_LOOP ( 'NONE', ( #42, #85 ) ) ;
#64 = PERSON_AND_ORGANIZATION_ROLE ( 'classification_officer' ) ;
#65 = FACE_BOUND ( 'NONE', #142, .T. ) ;
#66 = ORIENTED_EDGE ( 'NONE', *, *, #263, .F. ) ;
#67 = AXIS2_PLACEMENT_3D ( 'NONE', #18, #157, #57 ) ;
#68 = DIRECTION ( 'NONE',  ( -1.000000000000000000, 0.000000000000000000, 0.000000000000000000 ) ) ;
#69 = APPROVAL ( #173, 'NEURÈENÝ' ) ;
#70 = DIRECTION ( 'NONE',  ( -0.000000000000000000, -0.000000000000000000, -1.000000000000000000 ) ) ;
#71 = ORIENTED_EDGE ( 'NONE', *, *, #211, .F. ) ;
#72 = CIRCLE ( 'NONE', #234, 0.5000000000000000000 ) ;
#73 = CIRCLE ( 'NONE', #80, 1.250000000000000000 ) ;
#74 = DIRECTION ( 'NONE',  ( 0.000000000000000000, -1.000000000000000000, 0.000000000000000000 ) ) ;
#75 = EDGE_CURVE ( 'NONE', #184, #258, #101, .T. ) ;
#76 = ORIENTED_EDGE ( 'NONE', *, *, #240, .T. ) ;
#77 =( LENGTH_UNIT ( ) NAMED_UNIT ( * ) SI_UNIT ( .MILLI., .METRE. ) );
#78 = ORIENTED_EDGE ( 'NONE', *, *, #284, .F. ) ;
#79 = AXIS2_PLACEMENT_3D ( 'NONE', #174, #272, #292 ) ;
#80 = AXIS2_PLACEMENT_3D ( 'NONE', #55, #172, #32 ) ;
#81 = EDGE_CURVE ( 'NONE', #153, #258, #208, .T. ) ;
#82 = CARTESIAN_POINT ( 'NONE',  ( 0.000000000000000000, 0.000000000000000000, 0.000000000000000000 ) ) ;
#83 = COORDINATED_UNIVERSAL_TIME_OFFSET ( 1, 0, .AHEAD. ) ;
#84 = ADVANCED_FACE ( 'NONE', ( #104 ), #159, .F. ) ;
#85 = ORIENTED_EDGE ( 'NONE', *, *, #48, .T. ) ;
#86 = AXIS2_PLACEMENT_3D ( 'NONE', #95, #286, #190 ) ;
#87 = CC_DESIGN_SECURITY_CLASSIFICATION ( #276, ( #103 ) ) ;
#88 = SHAPE_DEFINITION_REPRESENTATION ( #143, #218 ) ;
#89 = DIRECTION ( 'NONE',  ( -0.000000000000000000, -0.000000000000000000, -1.000000000000000000 ) ) ;
#90 = ORIENTED_EDGE ( 'NONE', *, *, #263, .T. ) ;
#91 = AXIS2_PLACEMENT_3D ( 'NONE', #232, #44, #201 ) ;
#92 = VECTOR ( 'NONE', #70, 1000.000000000000000 ) ;
#93 = CARTESIAN_POINT ( 'NONE',  ( 0.000000000000000000, 0.000000000000000000, 1.199999999999999956 ) ) ;
#94 = CARTESIAN_POINT ( 'NONE',  ( -0.5000000000000000000, 0.000000000000000000, 101.2000000000000171 ) ) ;
#95 = CARTESIAN_POINT ( 'NONE',  ( 0.000000000000000000, 0.000000000000000000, 1.199999999999999956 ) ) ;
#96 = PRODUCT_DEFINITION ( 'NEZNÁMÝ', '', #103, #132 ) ;
#97 = VERTEX_POINT ( 'NONE', #123 ) ;
#98 = DIRECTION ( 'NONE',  ( 1.000000000000000000, 0.000000000000000000, 0.000000000000000000 ) ) ;
#99 = EDGE_LOOP ( 'NONE', ( #254, #278, #58, #307 ) ) ;
#100 = CALENDAR_DATE ( 2022, 20, 6 ) ;
#101 = LINE ( 'NONE', #120, #197 ) ;
#102 = CC_DESIGN_PERSON_AND_ORGANIZATION_ASSIGNMENT ( #287, #293, ( #96 ) ) ;
#103 = PRODUCT_DEFINITION_FORMATION_WITH_SPECIFIED_SOURCE ( 'LIBOVOLNÝ', '', #136, .NOT_KNOWN. ) ;
#104 = FACE_OUTER_BOUND ( 'NONE', #205, .T. ) ;
#105 = CALENDAR_DATE ( 2022, 20, 6 ) ;
#106 = PERSON_AND_ORGANIZATION ( #161, #59 ) ;
#107 = ADVANCED_FACE ( 'NONE', ( #148 ), #228, .T. ) ;
#108 = SECURITY_CLASSIFICATION_LEVEL ( 'unclassified' ) ;
#109 = CYLINDRICAL_SURFACE ( 'NONE', #171, 1.250000000000000000 ) ;
#110 = CYLINDRICAL_SURFACE ( 'NONE', #169, 0.5000000000000000000 ) ;
#111 = FACE_OUTER_BOUND ( 'NONE', #61, .T. ) ;
#112 = ADVANCED_FACE ( 'NONE', ( #231 ), #199, .T. ) ;
#113 = DIRECTION ( 'NONE',  ( 1.000000000000000000, 0.000000000000000000, 0.000000000000000000 ) ) ;
#114 = LOCAL_TIME ( 12, 26, 55.00000000000000000, #249 ) ;
#115 = DIRECTION ( 'NONE',  ( 0.000000000000000000, 0.000000000000000000, 1.000000000000000000 ) ) ;
#116 = ORIENTED_EDGE ( 'NONE', *, *, #48, .F. ) ;
#117 = DIRECTION ( 'NONE',  ( 1.000000000000000000, 0.000000000000000000, 0.000000000000000000 ) ) ;
#118 = COORDINATED_UNIVERSAL_TIME_OFFSET ( 1, 0, .AHEAD. ) ;
#119 = ADVANCED_FACE ( 'NONE', ( #152 ), #189, .F. ) ;
#120 = CARTESIAN_POINT ( 'NONE',  ( 1.250000000000000000, 1.530808498934191571E-16, 1.199999999999999956 ) ) ;
#121 =( NAMED_UNIT ( * ) PLANE_ANGLE_UNIT ( ) SI_UNIT ( $, .RADIAN. ) );
#122 = CIRCLE ( 'NONE', #204, 0.1999999999999999833 ) ;
#123 = CARTESIAN_POINT ( 'NONE',  ( 0.5000000000000000000, 6.123233995736766036E-17, 1.399999999999998579 ) ) ;
#124 = ADVANCED_FACE ( 'NONE', ( #252 ), #109, .T. ) ;
#125 = PERSON_AND_ORGANIZATION ( #161, #59 ) ;
#126 = PERSON_AND_ORGANIZATION_ROLE ( 'creator' ) ;
#127 = VECTOR ( 'NONE', #23, 1000.000000000000000 ) ;
#128 = CIRCLE ( 'NONE', #1, 0.5000000000000000000 ) ;
#129 = CARTESIAN_POINT ( 'NONE',  ( -1.250000000000000000, 0.000000000000000000, 1.199999999999999956 ) ) ;
#130 = FACE_OUTER_BOUND ( 'NONE', #19, .T. ) ;
#131 = DIRECTION ( 'NONE',  ( 1.000000000000000000, 0.000000000000000000, -0.000000000000000000 ) ) ;
#132 = DESIGN_CONTEXT ( 'detailed design', #206, 'design' ) ;
#133 = VERTEX_POINT ( 'NONE', #129 ) ;
#134 = ORIENTED_EDGE ( 'NONE', *, *, #144, .F. ) ;
#135 = ADVANCED_FACE ( 'NONE', ( #111 ), #110, .T. ) ;
#136 = PRODUCT ( 'a433', 'a433', '', ( #219 ) ) ;
#137 = ORIENTED_EDGE ( 'NONE', *, *, #81, .F. ) ;
#138 = DIRECTION ( 'NONE',  ( 0.000000000000000000, 0.000000000000000000, -1.000000000000000000 ) ) ;
#139 = CARTESIAN_POINT ( 'NONE',  ( -0.6999999999999999556, 8.572527594031473190E-17, 1.199999999999999289 ) ) ;
#140 = APPLICATION_PROTOCOL_DEFINITION ( 'international standard', 'config_control_design', 1994, #206 ) ;
#141 =( GEOMETRIC_REPRESENTATION_CONTEXT ( 3 ) GLOBAL_UNCERTAINTY_ASSIGNED_CONTEXT ( ( #279 ) ) GLOBAL_UNIT_ASSIGNED_CONTEXT ( ( #77, #121, #291 ) ) REPRESENTATION_CONTEXT ( 'NONE', 'WORKASPACE' ) );
#142 = EDGE_LOOP ( 'NONE', ( #3, #214 ) ) ;
#143 = PRODUCT_DEFINITION_SHAPE ( 'NONE', 'NONE',  #96 ) ;
#144 = EDGE_CURVE ( 'NONE', #158, #216, #128, .T. ) ;
#145 = CARTESIAN_POINT ( 'NONE',  ( -0.5000000000000000000, 0.000000000000000000, 1.399999999999998579 ) ) ;
#146 = AXIS2_PLACEMENT_3D ( 'NONE', #283, #242, #117 ) ;
#147 = CARTESIAN_POINT ( 'NONE',  ( 0.000000000000000000, 0.000000000000000000, 1.199999999999999956 ) ) ;
#148 = FACE_OUTER_BOUND ( 'NONE', #99, .T. ) ;
#149 = DIRECTION ( 'NONE',  ( 1.000000000000000000, 0.000000000000000000, 0.000000000000000000 ) ) ;
#150 = DATE_AND_TIME ( #301, #176 ) ;
#151 = EDGE_CURVE ( 'NONE', #296, #25, #122, .T. ) ;
#152 = FACE_OUTER_BOUND ( 'NONE', #285, .T. ) ;
#153 = VERTEX_POINT ( 'NONE', #180 ) ;
#154 = DIRECTION ( 'NONE',  ( -0.000000000000000000, -0.000000000000000000, -1.000000000000000000 ) ) ;
#155 = EDGE_LOOP ( 'NONE', ( #137, #265 ) ) ;
#156 = APPROVAL_DATE_TIME ( #150, #215 ) ;
#157 = DIRECTION ( 'NONE',  ( -0.000000000000000000, -0.000000000000000000, -1.000000000000000000 ) ) ;
#158 = VERTEX_POINT ( 'NONE', #22 ) ;
#159 = TOROIDAL_SURFACE ( 'NONE', #79, 0.6999999999999999556, 0.2000000000000000111 ) ;
#160 = DIRECTION ( 'NONE',  ( -1.000000000000000000, 1.224646799147352714E-16, 0.000000000000000000 ) ) ;
#161 = PERSON ( 'NEURÈENÝ', 'NEURÈENÝ', 'NEURÈENÝ', ('NEURÈENÝ'), ('NEURÈENÝ'), ('NEURÈENÝ') ) ;
#162 = EDGE_LOOP ( 'NONE', ( #116, #90, #239, #29 ) ) ;
#163 = ORIENTED_EDGE ( 'NONE', *, *, #151, .F. ) ;
#164 = CC_DESIGN_APPROVAL ( #222, ( #103 ) ) ;
#165 = CARTESIAN_POINT ( 'NONE',  ( 0.5000000000000000000, 6.123233995736766036E-17, 101.2000000000000171 ) ) ;
#166 = PRODUCT_RELATED_PRODUCT_CATEGORY ( 'detail', '', ( #136 ) ) ;
#167 = DIRECTION ( 'NONE',  ( 0.000000000000000000, 0.000000000000000000, 1.000000000000000000 ) ) ;
#168 = VERTEX_POINT ( 'NONE', #46 ) ;
#169 = AXIS2_PLACEMENT_3D ( 'NONE', #302, #89, #68 ) ;
#170 = APPLICATION_PROTOCOL_DEFINITION ( 'international standard', 'config_control_design', 1994, #177 ) ;
#171 = AXIS2_PLACEMENT_3D ( 'NONE', #299, #154, #256 ) ;
#172 = DIRECTION ( 'NONE',  ( 0.000000000000000000, 0.000000000000000000, 1.000000000000000000 ) ) ;
#173 = APPROVAL_STATUS ( 'not_yet_approved' ) ;
#174 = CARTESIAN_POINT ( 'NONE',  ( 0.000000000000000000, 0.000000000000000000, 1.399999999999998579 ) ) ;
#175 = ORIENTED_EDGE ( 'NONE', *, *, #56, .T. ) ;
#176 = LOCAL_TIME ( 12, 26, 55.00000000000000000, #21 ) ;
#177 = APPLICATION_CONTEXT ( 'configuration controlled 3d designs of mechanical parts and assemblies' ) ;
#178 = DIRECTION ( 'NONE',  ( 0.000000000000000000, 0.000000000000000000, 1.000000000000000000 ) ) ;
#179 = ADVANCED_FACE ( 'NONE', ( #65, #130 ), #235, .T. ) ;
#180 = CARTESIAN_POINT ( 'NONE',  ( -1.250000000000000000, 0.000000000000000000, 0.000000000000000000 ) ) ;
#181 = AXIS2_PLACEMENT_3D ( 'NONE', #31, #7, #220 ) ;
#182 = DIRECTION ( 'NONE',  ( 1.000000000000000000, 0.000000000000000000, 0.000000000000000000 ) ) ;
#183 = APPROVAL_PERSON_ORGANIZATION ( #125, #222, #289 ) ;
#184 = VERTEX_POINT ( 'NONE', #251 ) ;
#185 = VECTOR ( 'NONE', #33, 1000.000000000000000 ) ;
#186 = DIRECTION ( 'NONE',  ( 1.000000000000000000, 0.000000000000000000, -0.000000000000000000 ) ) ;
#187 = DIRECTION ( 'NONE',  ( 1.000000000000000000, 0.000000000000000000, -0.000000000000000000 ) ) ;
#188 = CARTESIAN_POINT ( 'NONE',  ( 0.6999999999999999556, 0.000000000000000000, 1.399999999999998579 ) ) ;
#189 = TOROIDAL_SURFACE ( 'NONE', #91, 0.6999999999999999556, 0.2000000000000000111 ) ;
#190 = DIRECTION ( 'NONE',  ( 1.000000000000000000, 0.000000000000000000, 0.000000000000000000 ) ) ;
#191 = DIRECTION ( 'NONE',  ( 0.000000000000000000, 0.000000000000000000, 1.000000000000000000 ) ) ;
#192 = LINE ( 'NONE', #196, #185 ) ;
#193 = CIRCLE ( 'NONE', #146, 0.5000000000000000000 ) ;
#194 = DATE_TIME_ROLE ( 'creation_date' ) ;
#195 = DATE_AND_TIME ( #105, #114 ) ;
#196 = CARTESIAN_POINT ( 'NONE',  ( -1.250000000000000000, 0.000000000000000000, 1.199999999999999956 ) ) ;
#197 = VECTOR ( 'NONE', #245, 1000.000000000000000 ) ;
#198 = DIRECTION ( 'NONE',  ( 0.000000000000000000, 0.000000000000000000, 1.000000000000000000 ) ) ;
#199 = CYLINDRICAL_SURFACE ( 'NONE', #67, 0.5000000000000000000 ) ;
#200 = PERSON_AND_ORGANIZATION ( #161, #59 ) ;
#201 = DIRECTION ( 'NONE',  ( 1.000000000000000000, 0.000000000000000000, 0.000000000000000000 ) ) ;
#202 = ADVANCED_FACE ( 'NONE', ( #236 ), #39, .T. ) ;
#203 = APPROVAL_ROLE ( '' ) ;
#204 = AXIS2_PLACEMENT_3D ( 'NONE', #62, #282, #160 ) ;
#205 = EDGE_LOOP ( 'NONE', ( #233, #300, #280, #71 ) ) ;
#206 = APPLICATION_CONTEXT ( 'configuration controlled 3d designs of mechanical parts and assemblies' ) ;
#207 = ORIENTED_EDGE ( 'NONE', *, *, #269, .F. ) ;
#208 = CIRCLE ( 'NONE', #52, 1.250000000000000000 ) ;
#209 = DIRECTION ( 'NONE',  ( 0.000000000000000000, 0.000000000000000000, 1.000000000000000000 ) ) ;
#210 = DIRECTION ( 'NONE',  ( 0.000000000000000000, 0.000000000000000000, 1.000000000000000000 ) ) ;
#211 = EDGE_CURVE ( 'NONE', #97, #168, #268, .T. ) ;
#212 = CC_DESIGN_APPROVAL ( #69, ( #96 ) ) ;
#213 = LINE ( 'NONE', #94, #92 ) ;
#214 = ORIENTED_EDGE ( 'NONE', *, *, #10, .T. ) ;
#215 = APPROVAL ( #43, 'NEURÈENÝ' ) ;
#216 = VERTEX_POINT ( 'NONE', #165 ) ;
#217 = AXIS2_PLACEMENT_3D ( 'NONE', #147, #248, #13 ) ;
#218 = ADVANCED_BREP_SHAPE_REPRESENTATION ( 'a433', ( #226, #288 ), #141 ) ;
#219 = MECHANICAL_CONTEXT ( 'NONE', #177, 'mechanical' ) ;
#220 = DIRECTION ( 'NONE',  ( 1.000000000000000000, 0.000000000000000000, 0.000000000000000000 ) ) ;
#221 = CLOSED_SHELL ( 'NONE', ( #84, #112, #124, #107, #179, #38, #135, #202, #119 ) ) ;
#222 = APPROVAL ( #271, 'NEURÈENÝ' ) ;
#223 = APPROVAL_PERSON_ORGANIZATION ( #224, #69, #30 ) ;
#224 = PERSON_AND_ORGANIZATION ( #161, #59 ) ;
#225 = PERSON_AND_ORGANIZATION ( #161, #59 ) ;
#226 = MANIFOLD_SOLID_BREP ( 'Zaoblit1', #221 ) ;
#227 = CC_DESIGN_PERSON_AND_ORGANIZATION_ASSIGNMENT ( #60, #64, ( #276 ) ) ;
#228 = CYLINDRICAL_SURFACE ( 'NONE', #217, 1.250000000000000000 ) ;
#229 = CARTESIAN_POINT ( 'NONE',  ( 0.000000000000000000, 0.000000000000000000, 101.2000000000000171 ) ) ;
#230 = AXIS2_PLACEMENT_3D ( 'NONE', #259, #47, #131 ) ;
#231 = FACE_OUTER_BOUND ( 'NONE', #162, .T. ) ;
#232 = CARTESIAN_POINT ( 'NONE',  ( 0.000000000000000000, 0.000000000000000000, 1.399999999999998579 ) ) ;
#233 = ORIENTED_EDGE ( 'NONE', *, *, #240, .F. ) ;
#234 = AXIS2_PLACEMENT_3D ( 'NONE', #273, #270, #149 ) ;
#235 = PLANE ( 'NONE',  #230 ) ;
#236 = FACE_OUTER_BOUND ( 'NONE', #63, .T. ) ;
#237 = CARTESIAN_POINT ( 'NONE',  ( 0.5000000000000000000, 6.123233995736766036E-17, 101.2000000000000171 ) ) ;
#238 = AXIS2_PLACEMENT_3D ( 'NONE', #5, #191, #98 ) ;
#239 = ORIENTED_EDGE ( 'NONE', *, *, #269, .T. ) ;
#240 = EDGE_CURVE ( 'NONE', #296, #97, #193, .T. ) ;
#241 = EDGE_LOOP ( 'NONE', ( #78, #266, #175, #274 ) ) ;
#242 = DIRECTION ( 'NONE',  ( 0.000000000000000000, 0.000000000000000000, 1.000000000000000000 ) ) ;
#243 = PERSON_AND_ORGANIZATION ( #161, #59 ) ;
#244 = CARTESIAN_POINT ( 'NONE',  ( 0.000000000000000000, 0.000000000000000000, 0.000000000000000000 ) ) ;
#245 = DIRECTION ( 'NONE',  ( -0.000000000000000000, -0.000000000000000000, -1.000000000000000000 ) ) ;
#246 = PERSON_AND_ORGANIZATION_ROLE ( 'design_owner' ) ;
#247 = CIRCLE ( 'NONE', #181, 1.250000000000000000 ) ;
#248 = DIRECTION ( 'NONE',  ( -0.000000000000000000, -0.000000000000000000, -1.000000000000000000 ) ) ;
#249 = COORDINATED_UNIVERSAL_TIME_OFFSET ( 1, 0, .AHEAD. ) ;
#250 = COORDINATED_UNIVERSAL_TIME_OFFSET ( 1, 0, .AHEAD. ) ;
#251 = CARTESIAN_POINT ( 'NONE',  ( 1.250000000000000000, 1.530808498934191571E-16, 1.199999999999999956 ) ) ;
#252 = FACE_OUTER_BOUND ( 'NONE', #241, .T. ) ;
#253 = LOCAL_TIME ( 12, 26, 55.00000000000000000, #83 ) ;
#254 = ORIENTED_EDGE ( 'NONE', *, *, #75, .F. ) ;
#255 = DATE_AND_TIME ( #15, #16 ) ;
#256 = DIRECTION ( 'NONE',  ( -1.000000000000000000, 0.000000000000000000, 0.000000000000000000 ) ) ;
#257 = EDGE_CURVE ( 'NONE', #133, #184, #26, .T. ) ;
#258 = VERTEX_POINT ( 'NONE', #260 ) ;
#259 = CARTESIAN_POINT ( 'NONE',  ( 0.000000000000000000, 0.000000000000000000, 1.199999999999999956 ) ) ;
#260 = CARTESIAN_POINT ( 'NONE',  ( 1.250000000000000000, 1.530808498934191571E-16, 0.000000000000000000 ) ) ;
#261 = CARTESIAN_POINT ( 'NONE',  ( 0.000000000000000000, 0.000000000000000000, 1.399999999999998579 ) ) ;
#262 = CIRCLE ( 'NONE', #24, 0.6999999999999999556 ) ;
#263 = EDGE_CURVE ( 'NONE', #216, #97, #50, .T. ) ;
#264 = AXIS2_PLACEMENT_3D ( 'NONE', #229, #115, #186 ) ;
#265 = ORIENTED_EDGE ( 'NONE', *, *, #56, .F. ) ;
#266 = ORIENTED_EDGE ( 'NONE', *, *, #75, .T. ) ;
#267 = DIRECTION ( 'NONE',  ( -0.000000000000000000, -0.000000000000000000, -1.000000000000000000 ) ) ;
#268 = CIRCLE ( 'NONE', #14, 0.2000000000000000944 ) ;
#269 = EDGE_CURVE ( 'NONE', #97, #296, #40, .T. ) ;
#270 = DIRECTION ( 'NONE',  ( 0.000000000000000000, 0.000000000000000000, 1.000000000000000000 ) ) ;
#271 = APPROVAL_STATUS ( 'not_yet_approved' ) ;
#272 = DIRECTION ( 'NONE',  ( 0.000000000000000000, 0.000000000000000000, 1.000000000000000000 ) ) ;
#273 = CARTESIAN_POINT ( 'NONE',  ( 0.000000000000000000, 0.000000000000000000, 101.2000000000000171 ) ) ;
#274 = ORIENTED_EDGE ( 'NONE', *, *, #281, .F. ) ;
#275 = CIRCLE ( 'NONE', #86, 0.6999999999999999556 ) ;
#276 = SECURITY_CLASSIFICATION ( '', '', #108 ) ;
#277 = EDGE_CURVE ( 'NONE', #158, #296, #213, .T. ) ;
#278 = ORIENTED_EDGE ( 'NONE', *, *, #257, .F. ) ;
#279 = UNCERTAINTY_MEASURE_WITH_UNIT (LENGTH_MEASURE( 1.000000000000000082E-05 ), #77, 'distance_accuracy_value', 'NONE');
#280 = ORIENTED_EDGE ( 'NONE', *, *, #17, .F. ) ;
#281 = EDGE_CURVE ( 'NONE', #133, #153, #192, .T. ) ;
#282 = DIRECTION ( 'NONE',  ( 1.224646799147353207E-16, 1.000000000000000000, -0.000000000000000000 ) ) ;
#283 = CARTESIAN_POINT ( 'NONE',  ( 0.000000000000000000, 0.000000000000000000, 1.399999999999998579 ) ) ;
#284 = EDGE_CURVE ( 'NONE', #184, #133, #73, .T. ) ;
#285 = EDGE_LOOP ( 'NONE', ( #163, #207, #28, #303 ) ) ;
#286 = DIRECTION ( 'NONE',  ( -0.000000000000000000, -0.000000000000000000, -1.000000000000000000 ) ) ;
#287 = PERSON_AND_ORGANIZATION ( #161, #59 ) ;
#288 = AXIS2_PLACEMENT_3D ( 'NONE', #82, #167, #53 ) ;
#289 = APPROVAL_ROLE ( '' ) ;
#290 = DIRECTION ( 'NONE',  ( 1.000000000000000000, 0.000000000000000000, 0.000000000000000000 ) ) ;
#291 =( NAMED_UNIT ( * ) SI_UNIT ( $, .STERADIAN. ) SOLID_ANGLE_UNIT ( ) );
#292 = DIRECTION ( 'NONE',  ( 1.000000000000000000, 0.000000000000000000, 0.000000000000000000 ) ) ;
#293 = PERSON_AND_ORGANIZATION_ROLE ( 'creator' ) ;
#294 = CARTESIAN_POINT ( 'NONE',  ( 0.000000000000000000, 0.000000000000000000, 0.000000000000000000 ) ) ;
#295 = AXIS2_PLACEMENT_3D ( 'NONE', #244, #210, #187 ) ;
#296 = VERTEX_POINT ( 'NONE', #145 ) ;
#297 = CC_DESIGN_DATE_AND_TIME_ASSIGNMENT ( #8, #194, ( #96 ) ) ;
#298 = DATE_TIME_ROLE ( 'classification_date' ) ;
#299 = CARTESIAN_POINT ( 'NONE',  ( 0.000000000000000000, 0.000000000000000000, 1.199999999999999956 ) ) ;
#300 = ORIENTED_EDGE ( 'NONE', *, *, #151, .T. ) ;
#301 = CALENDAR_DATE ( 2022, 20, 6 ) ;
#302 = CARTESIAN_POINT ( 'NONE',  ( 0.000000000000000000, 0.000000000000000000, 101.2000000000000171 ) ) ;
#303 = ORIENTED_EDGE ( 'NONE', *, *, #10, .F. ) ;
#304 = CC_DESIGN_PERSON_AND_ORGANIZATION_ASSIGNMENT ( #243, #246, ( #136 ) ) ;
#305 = ORIENTED_EDGE ( 'NONE', *, *, #257, .T. ) ;
#306 = CARTESIAN_POINT ( 'NONE',  ( 0.000000000000000000, 0.000000000000000000, 101.2000000000000171 ) ) ;
#307 = ORIENTED_EDGE ( 'NONE', *, *, #81, .T. ) ;
ENDSEC;
END-ISO-10303-21;
