ISO-10303-21;
HEADER;
FILE_DESCRIPTION (( 'STEP AP203' ),
    '1' );
FILE_NAME ('f149.STEP',
    '2022-06-20T09:45:12',
    ( '' ),
    ( '' ),
    'SwSTEP 2.0',
    'SolidWorks 2019',
    '' );
FILE_SCHEMA (( 'CONFIG_CONTROL_DESIGN' ));
ENDSEC;

DATA;
#1 = ORIENTED_EDGE ( 'NONE', *, *, #150, .T. ) ;
#2 = EDGE_LOOP ( 'NONE', ( #266, #83 ) ) ;
#3 = CIRCLE ( 'NONE', #248, 4.250000000000000000 ) ;
#4 = CARTESIAN_POINT ( 'NONE',  ( -4.450000000000000178, 5.449678256205721784E-16, 5.200000000000009948 ) ) ;
#5 =( GEOMETRIC_REPRESENTATION_CONTEXT ( 3 ) GLOBAL_UNCERTAINTY_ASSIGNED_CONTEXT ( ( #191 ) ) GLOBAL_UNIT_ASSIGNED_CONTEXT ( ( #186, #165, #120 ) ) REPRESENTATION_CONTEXT ( 'NONE', 'WORKASPACE' ) );
#6 = EDGE_CURVE ( 'NONE', #103, #277, #234, .T. ) ;
#7 = EDGE_LOOP ( 'NONE', ( #159, #44, #219, #35 ) ) ;
#8 = DIRECTION ( 'NONE',  ( 0.000000000000000000, 0.000000000000000000, 1.000000000000000000 ) ) ;
#9 = DIRECTION ( 'NONE',  ( -1.000000000000000000, 0.000000000000000000, 0.000000000000000000 ) ) ;
#10 = VECTOR ( 'NONE', #14, 1000.000000000000000 ) ;
#11 = EDGE_CURVE ( 'NONE', #167, #72, #3, .T. ) ;
#12 = VECTOR ( 'NONE', #237, 1000.000000000000000 ) ;
#13 = LOCAL_TIME ( 11, 45, 12.00000000000000000, #271 ) ;
#14 = DIRECTION ( 'NONE',  ( -0.000000000000000000, -0.000000000000000000, -1.000000000000000000 ) ) ;
#15 = ORIENTED_EDGE ( 'NONE', *, *, #117, .T. ) ;
#16 = ADVANCED_FACE ( 'NONE', ( #81 ), #169, .T. ) ;
#17 = DIRECTION ( 'NONE',  ( 1.000000000000000000, 0.000000000000000000, 0.000000000000000000 ) ) ;
#18 = ORIENTED_EDGE ( 'NONE', *, *, #62, .T. ) ;
#19 = LINE ( 'NONE', #113, #10 ) ;
#20 = APPLICATION_PROTOCOL_DEFINITION ( 'international standard', 'config_control_design', 1994, #236 ) ;
#21 = APPROVAL_PERSON_ORGANIZATION ( #303, #216, #282 ) ;
#22 = MECHANICAL_CONTEXT ( 'NONE', #34, 'mechanical' ) ;
#23 = CARTESIAN_POINT ( 'NONE',  ( -4.450000000000000178, 5.449678256205721784E-16, 5.000000000000005329 ) ) ;
#24 = ORIENTED_EDGE ( 'NONE', *, *, #69, .F. ) ;
#25 = APPROVAL_STATUS ( 'not_yet_approved' ) ;
#26 = DIRECTION ( 'NONE',  ( 0.000000000000000000, 0.000000000000000000, 1.000000000000000000 ) ) ;
#27 = CC_DESIGN_DATE_AND_TIME_ASSIGNMENT ( #162, #281, ( #245 ) ) ;
#28 = CALENDAR_DATE ( 2022, 20, 6 ) ;
#29 = DIRECTION ( 'NONE',  ( 1.000000000000000000, 0.000000000000000000, -0.000000000000000000 ) ) ;
#30 = SECURITY_CLASSIFICATION_LEVEL ( 'unclassified' ) ;
#31 = CYLINDRICAL_SURFACE ( 'NONE', #39, 4.250000000000000000 ) ;
#32 = MANIFOLD_SOLID_BREP ( 'Zaoblit1', #140 ) ;
#33 = DATE_AND_TIME ( #88, #13 ) ;
#34 = APPLICATION_CONTEXT ( 'configuration controlled 3d designs of mechanical parts and assemblies' ) ;
#35 = ORIENTED_EDGE ( 'NONE', *, *, #69, .T. ) ;
#36 = DIRECTION ( 'NONE',  ( 0.000000000000000000, 0.000000000000000000, 1.000000000000000000 ) ) ;
#37 = CARTESIAN_POINT ( 'NONE',  ( -4.250000000000000000, 0.000000000000000000, 165.0000000000000000 ) ) ;
#38 = ADVANCED_FACE ( 'NONE', ( #125 ), #31, .T. ) ;
#39 = AXIS2_PLACEMENT_3D ( 'NONE', #283, #108, #195 ) ;
#40 = LINE ( 'NONE', #203, #42 ) ;
#41 = ADVANCED_FACE ( 'NONE', ( #77, #52 ), #144, .T. ) ;
#42 = VECTOR ( 'NONE', #91, 1000.000000000000000 ) ;
#43 = FACE_OUTER_BOUND ( 'NONE', #92, .T. ) ;
#44 = ORIENTED_EDGE ( 'NONE', *, *, #47, .F. ) ;
#45 = CYLINDRICAL_SURFACE ( 'NONE', #239, 4.250000000000000000 ) ;
#46 = EDGE_LOOP ( 'NONE', ( #64, #232 ) ) ;
#47 = EDGE_CURVE ( 'NONE', #136, #121, #127, .T. ) ;
#48 = FACE_OUTER_BOUND ( 'NONE', #97, .T. ) ;
#49 = AXIS2_PLACEMENT_3D ( 'NONE', #153, #246, #93 ) ;
#50 = DIRECTION ( 'NONE',  ( 0.000000000000000000, 0.000000000000000000, 1.000000000000000000 ) ) ;
#51 = EDGE_CURVE ( 'NONE', #72, #277, #201, .T. ) ;
#52 = FACE_OUTER_BOUND ( 'NONE', #2, .T. ) ;
#53 = AXIS2_PLACEMENT_3D ( 'NONE', #86, #200, #182 ) ;
#54 = LOCAL_TIME ( 11, 45, 12.00000000000000000, #154 ) ;
#55 = ORIENTED_EDGE ( 'NONE', *, *, #11, .T. ) ;
#56 = ORIENTED_EDGE ( 'NONE', *, *, #181, .T. ) ;
#57 = EDGE_LOOP ( 'NONE', ( #24, #286, #226, #240 ) ) ;
#58 = TOROIDAL_SURFACE ( 'NONE', #227, 4.450000000000000178, 0.2000000000000000111 ) ;
#59 = DIRECTION ( 'NONE',  ( -0.000000000000000000, -0.000000000000000000, -1.000000000000000000 ) ) ;
#60 = LOCAL_TIME ( 11, 45, 12.00000000000000000, #96 ) ;
#61 = DIRECTION ( 'NONE',  ( 1.000000000000000000, 0.000000000000000000, 0.000000000000000000 ) ) ;
#62 = EDGE_CURVE ( 'NONE', #183, #149, #145, .T. ) ;
#63 = EDGE_CURVE ( 'NONE', #136, #72, #143, .T. ) ;
#64 = ORIENTED_EDGE ( 'NONE', *, *, #6, .T. ) ;
#65 = FACE_OUTER_BOUND ( 'NONE', #57, .T. ) ;
#66 = AXIS2_PLACEMENT_3D ( 'NONE', #4, #107, #288 ) ;
#67 = CARTESIAN_POINT ( 'NONE',  ( 0.000000000000000000, 0.000000000000000000, 5.000000000000000000 ) ) ;
#68 = DESIGN_CONTEXT ( 'detailed design', #236, 'design' ) ;
#69 = EDGE_CURVE ( 'NONE', #72, #167, #190, .T. ) ;
#70 = CALENDAR_DATE ( 2022, 20, 6 ) ;
#71 = AXIS2_PLACEMENT_3D ( 'NONE', #112, #180, #275 ) ;
#72 = VERTEX_POINT ( 'NONE', #177 ) ;
#73 = ADVANCED_FACE ( 'NONE', ( #65 ), #58, .F. ) ;
#74 = APPLICATION_PROTOCOL_DEFINITION ( 'international standard', 'config_control_design', 1994, #34 ) ;
#75 = ORIENTED_EDGE ( 'NONE', *, *, #47, .T. ) ;
#76 = APPROVAL_DATE_TIME ( #284, #241 ) ;
#77 = FACE_BOUND ( 'NONE', #46, .T. ) ;
#78 = AXIS2_PLACEMENT_3D ( 'NONE', #254, #36, #130 ) ;
#79 = ORGANIZATION ( 'NEURÈENÝ', 'NEURÈENÝ', '' ) ;
#80 = EDGE_CURVE ( 'NONE', #121, #167, #19, .T. ) ;
#81 = FACE_OUTER_BOUND ( 'NONE', #267, .T. ) ;
#82 = APPROVAL_ROLE ( '' ) ;
#83 = ORIENTED_EDGE ( 'NONE', *, *, #205, .T. ) ;
#84 = APPROVAL_STATUS ( 'not_yet_approved' ) ;
#85 = DIRECTION ( 'NONE',  ( 0.000000000000000000, -1.000000000000000000, 0.000000000000000000 ) ) ;
#86 = CARTESIAN_POINT ( 'NONE',  ( 0.000000000000000000, 0.000000000000000000, 0.000000000000000000 ) ) ;
#87 = CC_DESIGN_SECURITY_CLASSIFICATION ( #119, ( #249 ) ) ;
#88 = CALENDAR_DATE ( 2022, 20, 6 ) ;
#89 = ADVANCED_FACE ( 'NONE', ( #43 ), #231, .F. ) ;
#90 = CARTESIAN_POINT ( 'NONE',  ( 4.450000000000000178, 0.000000000000000000, 5.200000000000009948 ) ) ;
#91 = DIRECTION ( 'NONE',  ( -0.000000000000000000, -0.000000000000000000, -1.000000000000000000 ) ) ;
#92 = EDGE_LOOP ( 'NONE', ( #243, #251 ) ) ;
#93 = DIRECTION ( 'NONE',  ( 1.000000000000000000, 0.000000000000000000, 0.000000000000000000 ) ) ;
#94 = CIRCLE ( 'NONE', #131, 0.1999999999999996503 ) ;
#95 = AXIS2_PLACEMENT_3D ( 'NONE', #299, #273, #61 ) ;
#96 = COORDINATED_UNIVERSAL_TIME_OFFSET ( 1, 0, .AHEAD. ) ;
#97 = EDGE_LOOP ( 'NONE', ( #116, #264, #15, #1 ) ) ;
#98 = PERSON_AND_ORGANIZATION ( #294, #79 ) ;
#99 = EDGE_CURVE ( 'NONE', #214, #183, #290, .T. ) ;
#100 = LOCAL_TIME ( 11, 45, 12.00000000000000000, #122 ) ;
#101 = DIRECTION ( 'NONE',  ( 0.000000000000000000, 0.000000000000000000, 1.000000000000000000 ) ) ;
#102 = CALENDAR_DATE ( 2022, 20, 6 ) ;
#103 = VERTEX_POINT ( 'NONE', #278 ) ;
#104 = CC_DESIGN_PERSON_AND_ORGANIZATION_ASSIGNMENT ( #98, #280, ( #245 ) ) ;
#105 = DIRECTION ( 'NONE',  ( 1.000000000000000000, 0.000000000000000000, 0.000000000000000000 ) ) ;
#106 = SHAPE_DEFINITION_REPRESENTATION ( #259, #155 ) ;
#107 = DIRECTION ( 'NONE',  ( 1.224646799147353207E-16, 1.000000000000000000, -0.000000000000000000 ) ) ;
#108 = DIRECTION ( 'NONE',  ( -0.000000000000000000, -0.000000000000000000, -1.000000000000000000 ) ) ;
#109 = DATE_TIME_ROLE ( 'classification_date' ) ;
#110 = CARTESIAN_POINT ( 'NONE',  ( 0.000000000000000000, 0.000000000000000000, 5.000000000000000000 ) ) ;
#111 = PERSON_AND_ORGANIZATION ( #294, #79 ) ;
#112 = CARTESIAN_POINT ( 'NONE',  ( 0.000000000000000000, 0.000000000000000000, 5.000000000000000000 ) ) ;
#113 = CARTESIAN_POINT ( 'NONE',  ( 4.250000000000000000, 5.204748896376250699E-16, 165.0000000000000000 ) ) ;
#114 = ORIENTED_EDGE ( 'NONE', *, *, #257, .F. ) ;
#115 = DIRECTION ( 'NONE',  ( 1.000000000000000000, 0.000000000000000000, 0.000000000000000000 ) ) ;
#116 = ORIENTED_EDGE ( 'NONE', *, *, #99, .F. ) ;
#117 = EDGE_CURVE ( 'NONE', #204, #149, #40, .T. ) ;
#118 = CARTESIAN_POINT ( 'NONE',  ( 0.000000000000000000, 0.000000000000000000, 0.000000000000000000 ) ) ;
#119 = SECURITY_CLASSIFICATION ( '', '', #30 ) ;
#120 =( NAMED_UNIT ( * ) SI_UNIT ( $, .STERADIAN. ) SOLID_ANGLE_UNIT ( ) );
#121 = VERTEX_POINT ( 'NONE', #229 ) ;
#122 = COORDINATED_UNIVERSAL_TIME_OFFSET ( 1, 0, .AHEAD. ) ;
#123 = CARTESIAN_POINT ( 'NONE',  ( -4.250000000000000000, 0.000000000000000000, 165.0000000000000000 ) ) ;
#124 = CC_DESIGN_PERSON_AND_ORGANIZATION_ASSIGNMENT ( #152, #292, ( #119 ) ) ;
#125 = FACE_OUTER_BOUND ( 'NONE', #7, .T. ) ;
#126 = DIRECTION ( 'NONE',  ( 0.000000000000000000, 0.000000000000000000, 1.000000000000000000 ) ) ;
#127 = CIRCLE ( 'NONE', #178, 4.250000000000000000 ) ;
#128 = APPROVAL_PERSON_ORGANIZATION ( #111, #137, #82 ) ;
#129 = ORIENTED_EDGE ( 'NONE', *, *, #205, .F. ) ;
#130 = DIRECTION ( 'NONE',  ( 1.000000000000000000, 0.000000000000000000, 0.000000000000000000 ) ) ;
#131 = AXIS2_PLACEMENT_3D ( 'NONE', #90, #85, #202 ) ;
#132 = DIRECTION ( 'NONE',  ( -0.000000000000000000, -0.000000000000000000, -1.000000000000000000 ) ) ;
#133 = EDGE_LOOP ( 'NONE', ( #129, #298, #18, #187 ) ) ;
#134 = AXIS2_PLACEMENT_3D ( 'NONE', #166, #194, #192 ) ;
#135 = CYLINDRICAL_SURFACE ( 'NONE', #223, 7.000000000000000000 ) ;
#136 = VERTEX_POINT ( 'NONE', #37 ) ;
#137 = APPROVAL ( #84, 'NEURÈENÝ' ) ;
#138 = CARTESIAN_POINT ( 'NONE',  ( 0.000000000000000000, 0.000000000000000000, 165.0000000000000000 ) ) ;
#139 = APPROVAL_ROLE ( '' ) ;
#140 = CLOSED_SHELL ( 'NONE', ( #73, #142, #255, #291, #41, #89, #38, #16, #224 ) ) ;
#141 = CC_DESIGN_APPROVAL ( #216, ( #245 ) ) ;
#142 = ADVANCED_FACE ( 'NONE', ( #244 ), #45, .T. ) ;
#143 = LINE ( 'NONE', #123, #12 ) ;
#144 = PLANE ( 'NONE',  #199 ) ;
#145 = CIRCLE ( 'NONE', #218, 7.000000000000000000 ) ;
#146 = AXIS2_PLACEMENT_3D ( 'NONE', #209, #304, #164 ) ;
#147 = ORIENTED_EDGE ( 'NONE', *, *, #63, .F. ) ;
#148 = DIRECTION ( 'NONE',  ( 1.000000000000000000, 0.000000000000000000, 0.000000000000000000 ) ) ;
#149 = VERTEX_POINT ( 'NONE', #160 ) ;
#150 = EDGE_CURVE ( 'NONE', #149, #183, #212, .T. ) ;
#151 = FACE_OUTER_BOUND ( 'NONE', #300, .T. ) ;
#152 = PERSON_AND_ORGANIZATION ( #294, #79 ) ;
#153 = CARTESIAN_POINT ( 'NONE',  ( 0.000000000000000000, 0.000000000000000000, 165.0000000000000000 ) ) ;
#154 = COORDINATED_UNIVERSAL_TIME_OFFSET ( 1, 0, .AHEAD. ) ;
#155 = ADVANCED_BREP_SHAPE_REPRESENTATION ( 'f149', ( #32, #146 ), #5 ) ;
#156 = CC_DESIGN_PERSON_AND_ORGANIZATION_ASSIGNMENT ( #256, #233, ( #188 ) ) ;
#157 = TOROIDAL_SURFACE ( 'NONE', #78, 4.450000000000000178, 0.2000000000000000111 ) ;
#158 = DIRECTION ( 'NONE',  ( 1.000000000000000000, 0.000000000000000000, 0.000000000000000000 ) ) ;
#159 = ORIENTED_EDGE ( 'NONE', *, *, #80, .F. ) ;
#160 = CARTESIAN_POINT ( 'NONE',  ( -7.000000000000000000, 0.000000000000000000, 0.000000000000000000 ) ) ;
#161 = CC_DESIGN_APPROVAL ( #241, ( #249 ) ) ;
#162 = DATE_AND_TIME ( #70, #100 ) ;
#163 = CC_DESIGN_PERSON_AND_ORGANIZATION_ASSIGNMENT ( #168, #268, ( #249 ) ) ;
#164 = DIRECTION ( 'NONE',  ( 1.000000000000000000, 0.000000000000000000, 0.000000000000000000 ) ) ;
#165 =( NAMED_UNIT ( * ) PLANE_ANGLE_UNIT ( ) SI_UNIT ( $, .RADIAN. ) );
#166 = CARTESIAN_POINT ( 'NONE',  ( 0.000000000000000000, 0.000000000000000000, 165.0000000000000000 ) ) ;
#167 = VERTEX_POINT ( 'NONE', #184 ) ;
#168 = PERSON_AND_ORGANIZATION ( #294, #79 ) ;
#169 = PLANE ( 'NONE',  #134 ) ;
#170 = AXIS2_PLACEMENT_3D ( 'NONE', #67, #252, #115 ) ;
#171 = CALENDAR_DATE ( 2022, 20, 6 ) ;
#172 = AXIS2_PLACEMENT_3D ( 'NONE', #260, #235, #206 ) ;
#173 = CARTESIAN_POINT ( 'NONE',  ( 0.000000000000000000, 0.000000000000000000, 165.0000000000000000 ) ) ;
#174 = CARTESIAN_POINT ( 'NONE',  ( 0.000000000000000000, 0.000000000000000000, 0.000000000000000000 ) ) ;
#175 = DIRECTION ( 'NONE',  ( 1.000000000000000000, 0.000000000000000000, -0.000000000000000000 ) ) ;
#176 = CIRCLE ( 'NONE', #49, 4.250000000000000000 ) ;
#177 = CARTESIAN_POINT ( 'NONE',  ( -4.250000000000000000, 0.000000000000000000, 5.200000000000009948 ) ) ;
#178 = AXIS2_PLACEMENT_3D ( 'NONE', #173, #126, #217 ) ;
#179 = CIRCLE ( 'NONE', #71, 7.000000000000000000 ) ;
#180 = DIRECTION ( 'NONE',  ( 0.000000000000000000, 0.000000000000000000, 1.000000000000000000 ) ) ;
#181 = EDGE_CURVE ( 'NONE', #167, #103, #94, .T. ) ;
#182 = DIRECTION ( 'NONE',  ( 1.000000000000000000, 0.000000000000000000, 0.000000000000000000 ) ) ;
#183 = VERTEX_POINT ( 'NONE', #225 ) ;
#184 = CARTESIAN_POINT ( 'NONE',  ( 4.250000000000000000, 5.204748896376250699E-16, 5.200000000000009948 ) ) ;
#185 = APPROVAL_PERSON_ORGANIZATION ( #213, #241, #139 ) ;
#186 =( LENGTH_UNIT ( ) NAMED_UNIT ( * ) SI_UNIT ( .MILLI., .METRE. ) );
#187 = ORIENTED_EDGE ( 'NONE', *, *, #117, .F. ) ;
#188 = PRODUCT ( 'f149', 'f149', '', ( #22 ) ) ;
#189 = COORDINATED_UNIVERSAL_TIME_OFFSET ( 1, 0, .AHEAD. ) ;
#190 = CIRCLE ( 'NONE', #297, 4.250000000000000000 ) ;
#191 = UNCERTAINTY_MEASURE_WITH_UNIT (LENGTH_MEASURE( 1.000000000000000082E-05 ), #186, 'distance_accuracy_value', 'NONE');
#192 = DIRECTION ( 'NONE',  ( 1.000000000000000000, 0.000000000000000000, -0.000000000000000000 ) ) ;
#193 = CARTESIAN_POINT ( 'NONE',  ( 0.000000000000000000, 0.000000000000000000, 5.000000000000000000 ) ) ;
#194 = DIRECTION ( 'NONE',  ( 0.000000000000000000, 0.000000000000000000, 1.000000000000000000 ) ) ;
#195 = DIRECTION ( 'NONE',  ( -1.000000000000000000, 0.000000000000000000, 0.000000000000000000 ) ) ;
#196 = ORIENTED_EDGE ( 'NONE', *, *, #263, .T. ) ;
#197 = DATE_AND_TIME ( #171, #54 ) ;
#198 = DIRECTION ( 'NONE',  ( -0.000000000000000000, -0.000000000000000000, -1.000000000000000000 ) ) ;
#199 = AXIS2_PLACEMENT_3D ( 'NONE', #238, #285, #29 ) ;
#200 = DIRECTION ( 'NONE',  ( 0.000000000000000000, 0.000000000000000000, 1.000000000000000000 ) ) ;
#201 = CIRCLE ( 'NONE', #66, 0.1999999999999996503 ) ;
#202 = DIRECTION ( 'NONE',  ( 0.000000000000000000, 0.000000000000000000, -1.000000000000000000 ) ) ;
#203 = CARTESIAN_POINT ( 'NONE',  ( -7.000000000000000000, 0.000000000000000000, 5.000000000000000000 ) ) ;
#204 = VERTEX_POINT ( 'NONE', #295 ) ;
#205 = EDGE_CURVE ( 'NONE', #214, #204, #301, .T. ) ;
#206 = DIRECTION ( 'NONE',  ( -1.000000000000000000, 0.000000000000000000, 0.000000000000000000 ) ) ;
#207 = EDGE_LOOP ( 'NONE', ( #261, #230, #55, #147 ) ) ;
#208 = APPROVAL_DATE_TIME ( #262, #216 ) ;
#209 = CARTESIAN_POINT ( 'NONE',  ( 0.000000000000000000, 0.000000000000000000, 0.000000000000000000 ) ) ;
#210 = CARTESIAN_POINT ( 'NONE',  ( 0.000000000000000000, 0.000000000000000000, 5.200000000000009948 ) ) ;
#211 = CC_DESIGN_DATE_AND_TIME_ASSIGNMENT ( #33, #109, ( #119 ) ) ;
#212 = CIRCLE ( 'NONE', #53, 7.000000000000000000 ) ;
#213 = PERSON_AND_ORGANIZATION ( #294, #79 ) ;
#214 = VERTEX_POINT ( 'NONE', #222 ) ;
#215 = DIRECTION ( 'NONE',  ( -0.000000000000000000, -0.000000000000000000, -1.000000000000000000 ) ) ;
#216 = APPROVAL ( #25, 'NEURÈENÝ' ) ;
#217 = DIRECTION ( 'NONE',  ( 1.000000000000000000, 0.000000000000000000, 0.000000000000000000 ) ) ;
#218 = AXIS2_PLACEMENT_3D ( 'NONE', #174, #26, #258 ) ;
#219 = ORIENTED_EDGE ( 'NONE', *, *, #63, .T. ) ;
#220 = PERSON_AND_ORGANIZATION_ROLE ( 'design_supplier' ) ;
#221 = FACE_OUTER_BOUND ( 'NONE', #133, .T. ) ;
#222 = CARTESIAN_POINT ( 'NONE',  ( 7.000000000000000000, 8.572527594031473190E-16, 5.000000000000000000 ) ) ;
#223 = AXIS2_PLACEMENT_3D ( 'NONE', #110, #198, #293 ) ;
#224 = ADVANCED_FACE ( 'NONE', ( #151 ), #157, .F. ) ;
#225 = CARTESIAN_POINT ( 'NONE',  ( 7.000000000000000000, 8.572527594031473190E-16, 0.000000000000000000 ) ) ;
#226 = ORIENTED_EDGE ( 'NONE', *, *, #6, .F. ) ;
#227 = AXIS2_PLACEMENT_3D ( 'NONE', #276, #8, #17 ) ;
#228 = LOCAL_TIME ( 11, 45, 12.00000000000000000, #189 ) ;
#229 = CARTESIAN_POINT ( 'NONE',  ( 4.250000000000000000, 5.204748896376250699E-16, 165.0000000000000000 ) ) ;
#230 = ORIENTED_EDGE ( 'NONE', *, *, #80, .T. ) ;
#231 = PLANE ( 'NONE',  #270 ) ;
#232 = ORIENTED_EDGE ( 'NONE', *, *, #257, .T. ) ;
#233 = PERSON_AND_ORGANIZATION_ROLE ( 'design_owner' ) ;
#234 = CIRCLE ( 'NONE', #279, 4.450000000000000178 ) ;
#235 = DIRECTION ( 'NONE',  ( -0.000000000000000000, -0.000000000000000000, -1.000000000000000000 ) ) ;
#236 = APPLICATION_CONTEXT ( 'configuration controlled 3d designs of mechanical parts and assemblies' ) ;
#237 = DIRECTION ( 'NONE',  ( -0.000000000000000000, -0.000000000000000000, -1.000000000000000000 ) ) ;
#238 = CARTESIAN_POINT ( 'NONE',  ( 0.000000000000000000, 0.000000000000000000, 5.000000000000000000 ) ) ;
#239 = AXIS2_PLACEMENT_3D ( 'NONE', #138, #132, #9 ) ;
#240 = ORIENTED_EDGE ( 'NONE', *, *, #181, .F. ) ;
#241 = APPROVAL ( #307, 'NEURÈENÝ' ) ;
#242 = CARTESIAN_POINT ( 'NONE',  ( 0.000000000000000000, 0.000000000000000000, 5.200000000000009948 ) ) ;
#243 = ORIENTED_EDGE ( 'NONE', *, *, #150, .F. ) ;
#244 = FACE_OUTER_BOUND ( 'NONE', #207, .T. ) ;
#245 = PRODUCT_DEFINITION ( 'NEZNÁMÝ', '', #249, #68 ) ;
#246 = DIRECTION ( 'NONE',  ( 0.000000000000000000, 0.000000000000000000, 1.000000000000000000 ) ) ;
#247 = APPROVAL_DATE_TIME ( #197, #137 ) ;
#248 = AXIS2_PLACEMENT_3D ( 'NONE', #242, #50, #105 ) ;
#249 = PRODUCT_DEFINITION_FORMATION_WITH_SPECIFIED_SOURCE ( 'LIBOVOLNÝ', '', #188, .NOT_KNOWN. ) ;
#250 = DIRECTION ( 'NONE',  ( 0.000000000000000000, 0.000000000000000000, 1.000000000000000000 ) ) ;
#251 = ORIENTED_EDGE ( 'NONE', *, *, #62, .F. ) ;
#252 = DIRECTION ( 'NONE',  ( 0.000000000000000000, 0.000000000000000000, 1.000000000000000000 ) ) ;
#253 = ORIENTED_EDGE ( 'NONE', *, *, #11, .F. ) ;
#254 = CARTESIAN_POINT ( 'NONE',  ( 0.000000000000000000, 0.000000000000000000, 5.200000000000009948 ) ) ;
#255 = ADVANCED_FACE ( 'NONE', ( #221 ), #135, .T. ) ;
#256 = PERSON_AND_ORGANIZATION ( #294, #79 ) ;
#257 = EDGE_CURVE ( 'NONE', #277, #103, #287, .T. ) ;
#258 = DIRECTION ( 'NONE',  ( 1.000000000000000000, 0.000000000000000000, 0.000000000000000000 ) ) ;
#259 = PRODUCT_DEFINITION_SHAPE ( 'NONE', 'NONE',  #245 ) ;
#260 = CARTESIAN_POINT ( 'NONE',  ( 0.000000000000000000, 0.000000000000000000, 5.000000000000000000 ) ) ;
#261 = ORIENTED_EDGE ( 'NONE', *, *, #263, .F. ) ;
#262 = DATE_AND_TIME ( #28, #60 ) ;
#263 = EDGE_CURVE ( 'NONE', #121, #136, #176, .T. ) ;
#264 = ORIENTED_EDGE ( 'NONE', *, *, #274, .F. ) ;
#265 = CC_DESIGN_APPROVAL ( #137, ( #119 ) ) ;
#266 = ORIENTED_EDGE ( 'NONE', *, *, #274, .T. ) ;
#267 = EDGE_LOOP ( 'NONE', ( #75, #196 ) ) ;
#268 = PERSON_AND_ORGANIZATION_ROLE ( 'creator' ) ;
#269 = CARTESIAN_POINT ( 'NONE',  ( 7.000000000000000000, 8.572527594031473190E-16, 5.000000000000000000 ) ) ;
#270 = AXIS2_PLACEMENT_3D ( 'NONE', #118, #250, #175 ) ;
#271 = COORDINATED_UNIVERSAL_TIME_OFFSET ( 1, 0, .AHEAD. ) ;
#272 = PRODUCT_RELATED_PRODUCT_CATEGORY ( 'detail', '', ( #188 ) ) ;
#273 = DIRECTION ( 'NONE',  ( -0.000000000000000000, -0.000000000000000000, -1.000000000000000000 ) ) ;
#274 = EDGE_CURVE ( 'NONE', #204, #214, #179, .T. ) ;
#275 = DIRECTION ( 'NONE',  ( 1.000000000000000000, 0.000000000000000000, 0.000000000000000000 ) ) ;
#276 = CARTESIAN_POINT ( 'NONE',  ( 0.000000000000000000, 0.000000000000000000, 5.200000000000009948 ) ) ;
#277 = VERTEX_POINT ( 'NONE', #23 ) ;
#278 = CARTESIAN_POINT ( 'NONE',  ( 4.450000000000000178, 0.000000000000000000, 5.000000000000005329 ) ) ;
#279 = AXIS2_PLACEMENT_3D ( 'NONE', #193, #215, #148 ) ;
#280 = PERSON_AND_ORGANIZATION_ROLE ( 'creator' ) ;
#281 = DATE_TIME_ROLE ( 'creation_date' ) ;
#282 = APPROVAL_ROLE ( '' ) ;
#283 = CARTESIAN_POINT ( 'NONE',  ( 0.000000000000000000, 0.000000000000000000, 165.0000000000000000 ) ) ;
#284 = DATE_AND_TIME ( #102, #228 ) ;
#285 = DIRECTION ( 'NONE',  ( 0.000000000000000000, 0.000000000000000000, 1.000000000000000000 ) ) ;
#286 = ORIENTED_EDGE ( 'NONE', *, *, #51, .T. ) ;
#287 = CIRCLE ( 'NONE', #95, 4.450000000000000178 ) ;
#288 = DIRECTION ( 'NONE',  ( -1.000000000000000000, 1.224646799147353454E-16, 0.000000000000000000 ) ) ;
#289 = PERSON_AND_ORGANIZATION ( #294, #79 ) ;
#290 = LINE ( 'NONE', #269, #305 ) ;
#291 = ADVANCED_FACE ( 'NONE', ( #48 ), #302, .T. ) ;
#292 = PERSON_AND_ORGANIZATION_ROLE ( 'classification_officer' ) ;
#293 = DIRECTION ( 'NONE',  ( -1.000000000000000000, 0.000000000000000000, 0.000000000000000000 ) ) ;
#294 = PERSON ( 'NEURÈENÝ', 'NEURÈENÝ', 'NEURÈENÝ', ('NEURÈENÝ'), ('NEURÈENÝ'), ('NEURÈENÝ') ) ;
#295 = CARTESIAN_POINT ( 'NONE',  ( -7.000000000000000000, 0.000000000000000000, 5.000000000000000000 ) ) ;
#296 = CC_DESIGN_PERSON_AND_ORGANIZATION_ASSIGNMENT ( #289, #220, ( #249 ) ) ;
#297 = AXIS2_PLACEMENT_3D ( 'NONE', #210, #101, #158 ) ;
#298 = ORIENTED_EDGE ( 'NONE', *, *, #99, .T. ) ;
#299 = CARTESIAN_POINT ( 'NONE',  ( 0.000000000000000000, 0.000000000000000000, 5.000000000000000000 ) ) ;
#300 = EDGE_LOOP ( 'NONE', ( #306, #253, #56, #114 ) ) ;
#301 = CIRCLE ( 'NONE', #170, 7.000000000000000000 ) ;
#302 = CYLINDRICAL_SURFACE ( 'NONE', #172, 7.000000000000000000 ) ;
#303 = PERSON_AND_ORGANIZATION ( #294, #79 ) ;
#304 = DIRECTION ( 'NONE',  ( 0.000000000000000000, 0.000000000000000000, 1.000000000000000000 ) ) ;
#305 = VECTOR ( 'NONE', #59, 1000.000000000000000 ) ;
#306 = ORIENTED_EDGE ( 'NONE', *, *, #51, .F. ) ;
#307 = APPROVAL_STATUS ( 'not_yet_approved' ) ;
ENDSEC;
END-ISO-10303-21;
