ISO-10303-21;
HEADER;
FILE_DESCRIPTION (( 'STEP AP203' ),
    '1' );
FILE_NAME ('268c.STEP',
    '2022-06-20T09:39:37',
    ( '' ),
    ( '' ),
    'SwSTEP 2.0',
    'SolidWorks 2019',
    '' );
FILE_SCHEMA (( 'CONFIG_CONTROL_DESIGN' ));
ENDSEC;

DATA;
#1 = CARTESIAN_POINT ( 'NONE',  ( -5.100000000000001421, 0.000000000000000000, 165.0000000000000000 ) ) ;
#2 = DIRECTION ( 'NONE',  ( 1.000000000000000000, 0.000000000000000000, 0.000000000000000000 ) ) ;
#3 = ADVANCED_FACE ( 'NONE', ( #172 ), #8, .F. ) ;
#4 =( LENGTH_UNIT ( ) NAMED_UNIT ( * ) SI_UNIT ( .MILLI., .METRE. ) );
#5 = APPROVAL_STATUS ( 'not_yet_approved' ) ;
#6 = ORIENTED_EDGE ( 'NONE', *, *, #59, .F. ) ;
#7 = VERTEX_POINT ( 'NONE', #224 ) ;
#8 = TOROIDAL_SURFACE ( 'NONE', #22, 5.300000000000000711, 0.2000000000000000111 ) ;
#9 = EDGE_LOOP ( 'NONE', ( #221, #6, #247, #294 ) ) ;
#10 = CC_DESIGN_DATE_AND_TIME_ASSIGNMENT ( #32, #192, ( #240 ) ) ;
#11 =( GEOMETRIC_REPRESENTATION_CONTEXT ( 3 ) GLOBAL_UNCERTAINTY_ASSIGNED_CONTEXT ( ( #43 ) ) GLOBAL_UNIT_ASSIGNED_CONTEXT ( ( #4, #236, #111 ) ) REPRESENTATION_CONTEXT ( 'NONE', 'WORKASPACE' ) );
#12 = VERTEX_POINT ( 'NONE', #244 ) ;
#13 = LOCAL_TIME ( 11, 39, 37.00000000000000000, #293 ) ;
#14 = APPROVAL_STATUS ( 'not_yet_approved' ) ;
#15 = ORIENTED_EDGE ( 'NONE', *, *, #47, .F. ) ;
#16 = CARTESIAN_POINT ( 'NONE',  ( -8.000000000000000000, 0.000000000000000000, 5.000000000000000000 ) ) ;
#17 = EDGE_CURVE ( 'NONE', #12, #122, #176, .T. ) ;
#18 = FACE_OUTER_BOUND ( 'NONE', #9, .T. ) ;
#19 = DIRECTION ( 'NONE',  ( 1.000000000000000000, 0.000000000000000000, -0.000000000000000000 ) ) ;
#20 = CARTESIAN_POINT ( 'NONE',  ( 0.000000000000000000, 0.000000000000000000, 5.200000000000009948 ) ) ;
#21 = FACE_OUTER_BOUND ( 'NONE', #79, .T. ) ;
#22 = AXIS2_PLACEMENT_3D ( 'NONE', #298, #80, #272 ) ;
#23 = DIRECTION ( 'NONE',  ( 0.000000000000000000, 0.000000000000000000, 1.000000000000000000 ) ) ;
#24 = AXIS2_PLACEMENT_3D ( 'NONE', #239, #212, #261 ) ;
#25 = CC_DESIGN_APPROVAL ( #34, ( #183 ) ) ;
#26 = LINE ( 'NONE', #50, #125 ) ;
#27 = DIRECTION ( 'NONE',  ( 1.224646799147353207E-16, 1.000000000000000000, -0.000000000000000000 ) ) ;
#28 = CIRCLE ( 'NONE', #142, 5.100000000000001421 ) ;
#29 = CARTESIAN_POINT ( 'NONE',  ( 0.000000000000000000, 0.000000000000000000, 5.000000000000000000 ) ) ;
#30 = ORIENTED_EDGE ( 'NONE', *, *, #49, .T. ) ;
#31 = CC_DESIGN_PERSON_AND_ORGANIZATION_ASSIGNMENT ( #208, #188, ( #165 ) ) ;
#32 = DATE_AND_TIME ( #220, #13 ) ;
#33 = ORIENTED_EDGE ( 'NONE', *, *, #260, .F. ) ;
#34 = APPROVAL ( #14, 'NEURÈENÝ' ) ;
#35 = PERSON_AND_ORGANIZATION ( #134, #67 ) ;
#36 = EDGE_LOOP ( 'NONE', ( #55, #103 ) ) ;
#37 = ADVANCED_FACE ( 'NONE', ( #42 ), #233, .F. ) ;
#38 = PERSON_AND_ORGANIZATION_ROLE ( 'design_supplier' ) ;
#39 = ORIENTED_EDGE ( 'NONE', *, *, #173, .T. ) ;
#40 = APPROVAL_PERSON_ORGANIZATION ( #100, #34, #202 ) ;
#41 = FACE_BOUND ( 'NONE', #95, .T. ) ;
#42 = FACE_OUTER_BOUND ( 'NONE', #102, .T. ) ;
#43 = UNCERTAINTY_MEASURE_WITH_UNIT (LENGTH_MEASURE( 1.000000000000000082E-05 ), #4, 'distance_accuracy_value', 'NONE');
#44 = DIRECTION ( 'NONE',  ( 0.000000000000000000, 0.000000000000000000, 1.000000000000000000 ) ) ;
#45 = FACE_OUTER_BOUND ( 'NONE', #218, .T. ) ;
#46 = LINE ( 'NONE', #129, #96 ) ;
#47 = EDGE_CURVE ( 'NONE', #98, #7, #28, .T. ) ;
#48 = CIRCLE ( 'NONE', #278, 8.000000000000000000 ) ;
#49 = EDGE_CURVE ( 'NONE', #169, #58, #187, .T. ) ;
#50 = CARTESIAN_POINT ( 'NONE',  ( 5.100000000000001421, 6.245698675651502811E-16, 165.0000000000000000 ) ) ;
#51 = AXIS2_PLACEMENT_3D ( 'NONE', #20, #110, #154 ) ;
#52 = DIRECTION ( 'NONE',  ( -0.000000000000000000, -0.000000000000000000, -1.000000000000000000 ) ) ;
#53 = AXIS2_PLACEMENT_3D ( 'NONE', #232, #62, #179 ) ;
#54 = CALENDAR_DATE ( 2022, 20, 6 ) ;
#55 = ORIENTED_EDGE ( 'NONE', *, *, #47, .T. ) ;
#56 = ORIENTED_EDGE ( 'NONE', *, *, #258, .T. ) ;
#57 = PERSON_AND_ORGANIZATION_ROLE ( 'classification_officer' ) ;
#58 = VERTEX_POINT ( 'NONE', #275 ) ;
#59 = EDGE_CURVE ( 'NONE', #122, #12, #162, .T. ) ;
#60 = VERTEX_POINT ( 'NONE', #299 ) ;
#61 = CIRCLE ( 'NONE', #81, 5.100000000000001421 ) ;
#62 = DIRECTION ( 'NONE',  ( 0.000000000000000000, 0.000000000000000000, 1.000000000000000000 ) ) ;
#63 = DIRECTION ( 'NONE',  ( 1.000000000000000000, 0.000000000000000000, 0.000000000000000000 ) ) ;
#64 = DIRECTION ( 'NONE',  ( 0.000000000000000000, 0.000000000000000000, 1.000000000000000000 ) ) ;
#65 = AXIS2_PLACEMENT_3D ( 'NONE', #91, #209, #136 ) ;
#66 = DIRECTION ( 'NONE',  ( 0.000000000000000000, 0.000000000000000000, 1.000000000000000000 ) ) ;
#67 = ORGANIZATION ( 'NEURÈENÝ', 'NEURÈENÝ', '' ) ;
#68 = DIRECTION ( 'NONE',  ( -1.000000000000000000, 0.000000000000000000, 0.000000000000000000 ) ) ;
#69 = PRODUCT_DEFINITION_SHAPE ( 'NONE', 'NONE',  #211 ) ;
#70 = CARTESIAN_POINT ( 'NONE',  ( 5.300000000000000711, 0.000000000000000000, 5.000000000000005329 ) ) ;
#71 = EDGE_CURVE ( 'NONE', #203, #194, #73, .T. ) ;
#72 = DIRECTION ( 'NONE',  ( 0.000000000000000000, 0.000000000000000000, 1.000000000000000000 ) ) ;
#73 = CIRCLE ( 'NONE', #250, 5.300000000000000711 ) ;
#74 = EDGE_CURVE ( 'NONE', #58, #169, #283, .T. ) ;
#75 = DIRECTION ( 'NONE',  ( -0.000000000000000000, -0.000000000000000000, -1.000000000000000000 ) ) ;
#76 = EDGE_LOOP ( 'NONE', ( #33, #15, #93, #77 ) ) ;
#77 = ORIENTED_EDGE ( 'NONE', *, *, #74, .T. ) ;
#78 = COORDINATED_UNIVERSAL_TIME_OFFSET ( 1, 0, .AHEAD. ) ;
#79 = EDGE_LOOP ( 'NONE', ( #121, #219, #30, #290 ) ) ;
#80 = DIRECTION ( 'NONE',  ( 0.000000000000000000, 0.000000000000000000, 1.000000000000000000 ) ) ;
#81 = AXIS2_PLACEMENT_3D ( 'NONE', #84, #131, #182 ) ;
#82 = FACE_OUTER_BOUND ( 'NONE', #76, .T. ) ;
#83 = CC_DESIGN_DATE_AND_TIME_ASSIGNMENT ( #168, #198, ( #211 ) ) ;
#84 = CARTESIAN_POINT ( 'NONE',  ( 0.000000000000000000, 0.000000000000000000, 165.0000000000000000 ) ) ;
#85 = EDGE_CURVE ( 'NONE', #122, #60, #46, .T. ) ;
#86 = DIRECTION ( 'NONE',  ( -0.000000000000000000, -0.000000000000000000, -1.000000000000000000 ) ) ;
#87 = AXIS2_PLACEMENT_3D ( 'NONE', #252, #64, #132 ) ;
#88 = PLANE ( 'NONE',  #87 ) ;
#89 = AXIS2_PLACEMENT_3D ( 'NONE', #107, #44, #156 ) ;
#90 = APPROVAL_ROLE ( '' ) ;
#91 = CARTESIAN_POINT ( 'NONE',  ( 0.000000000000000000, 0.000000000000000000, 0.000000000000000000 ) ) ;
#92 = DIRECTION ( 'NONE',  ( -0.000000000000000000, -0.000000000000000000, -1.000000000000000000 ) ) ;
#93 = ORIENTED_EDGE ( 'NONE', *, *, #297, .T. ) ;
#94 = APPROVAL_ROLE ( '' ) ;
#95 = EDGE_LOOP ( 'NONE', ( #196, #151 ) ) ;
#96 = VECTOR ( 'NONE', #158, 1000.000000000000000 ) ;
#97 = DATE_AND_TIME ( #54, #164 ) ;
#98 = VERTEX_POINT ( 'NONE', #105 ) ;
#99 = LOCAL_TIME ( 11, 39, 37.00000000000000000, #189 ) ;
#100 = PERSON_AND_ORGANIZATION ( #134, #67 ) ;
#101 = APPROVAL_PERSON_ORGANIZATION ( #35, #263, #94 ) ;
#102 = EDGE_LOOP ( 'NONE', ( #270, #245, #39, #178 ) ) ;
#103 = ORIENTED_EDGE ( 'NONE', *, *, #191, .T. ) ;
#104 = ADVANCED_FACE ( 'NONE', ( #18 ), #304, .T. ) ;
#105 = CARTESIAN_POINT ( 'NONE',  ( -5.100000000000001421, 0.000000000000000000, 165.0000000000000000 ) ) ;
#106 = DIRECTION ( 'NONE',  ( 1.000000000000000000, 0.000000000000000000, 0.000000000000000000 ) ) ;
#107 = CARTESIAN_POINT ( 'NONE',  ( 0.000000000000000000, 0.000000000000000000, 5.000000000000000000 ) ) ;
#108 = DIRECTION ( 'NONE',  ( 0.000000000000000000, 0.000000000000000000, 1.000000000000000000 ) ) ;
#109 = ADVANCED_FACE ( 'NONE', ( #257 ), #205, .T. ) ;
#110 = DIRECTION ( 'NONE',  ( 0.000000000000000000, 0.000000000000000000, 1.000000000000000000 ) ) ;
#111 =( NAMED_UNIT ( * ) SI_UNIT ( $, .STERADIAN. ) SOLID_ANGLE_UNIT ( ) );
#112 = APPLICATION_PROTOCOL_DEFINITION ( 'international standard', 'config_control_design', 1994, #177 ) ;
#113 = AXIS2_PLACEMENT_3D ( 'NONE', #254, #108, #19 ) ;
#114 = MECHANICAL_CONTEXT ( 'NONE', #177, 'mechanical' ) ;
#115 = CARTESIAN_POINT ( 'NONE',  ( 8.000000000000000000, 9.797174393178825657E-16, 5.000000000000000000 ) ) ;
#116 = ADVANCED_FACE ( 'NONE', ( #82 ), #180, .T. ) ;
#117 = DATE_AND_TIME ( #291, #300 ) ;
#118 = DIRECTION ( 'NONE',  ( 0.000000000000000000, 0.000000000000000000, 1.000000000000000000 ) ) ;
#119 = LOCAL_TIME ( 11, 39, 37.00000000000000000, #246 ) ;
#120 = PERSON_AND_ORGANIZATION ( #134, #67 ) ;
#121 = ORIENTED_EDGE ( 'NONE', *, *, #191, .F. ) ;
#122 = VERTEX_POINT ( 'NONE', #16 ) ;
#123 = MANIFOLD_SOLID_BREP ( 'Zaoblit1', #226 ) ;
#124 = EDGE_LOOP ( 'NONE', ( #147, #56, #296, #199 ) ) ;
#125 = VECTOR ( 'NONE', #213, 1000.000000000000000 ) ;
#126 = SHAPE_DEFINITION_REPRESENTATION ( #69, #214 ) ;
#127 = CIRCLE ( 'NONE', #306, 0.1999999999999996503 ) ;
#128 = CARTESIAN_POINT ( 'NONE',  ( 5.100000000000001421, 6.245698675651502811E-16, 5.200000000000009948 ) ) ;
#129 = CARTESIAN_POINT ( 'NONE',  ( -8.000000000000000000, 0.000000000000000000, 5.000000000000000000 ) ) ;
#130 = CARTESIAN_POINT ( 'NONE',  ( 5.300000000000000711, 0.000000000000000000, 5.200000000000009948 ) ) ;
#131 = DIRECTION ( 'NONE',  ( 0.000000000000000000, 0.000000000000000000, 1.000000000000000000 ) ) ;
#132 = DIRECTION ( 'NONE',  ( 1.000000000000000000, 0.000000000000000000, -0.000000000000000000 ) ) ;
#133 = AXIS2_PLACEMENT_3D ( 'NONE', #186, #302, #234 ) ;
#134 = PERSON ( 'NEURÈENÝ', 'NEURÈENÝ', 'NEURÈENÝ', ('NEURÈENÝ'), ('NEURÈENÝ'), ('NEURÈENÝ') ) ;
#135 = PERSON_AND_ORGANIZATION ( #134, #67 ) ;
#136 = DIRECTION ( 'NONE',  ( 1.000000000000000000, 0.000000000000000000, 0.000000000000000000 ) ) ;
#137 = CARTESIAN_POINT ( 'NONE',  ( 0.000000000000000000, 0.000000000000000000, 0.000000000000000000 ) ) ;
#138 = ADVANCED_FACE ( 'NONE', ( #45 ), #88, .F. ) ;
#139 = CIRCLE ( 'NONE', #152, 0.1999999999999996503 ) ;
#140 = CC_DESIGN_SECURITY_CLASSIFICATION ( #240, ( #183 ) ) ;
#141 = EDGE_LOOP ( 'NONE', ( #266, #175, #171, #292 ) ) ;
#142 = AXIS2_PLACEMENT_3D ( 'NONE', #253, #66, #106 ) ;
#143 = AXIS2_PLACEMENT_3D ( 'NONE', #206, #225, #63 ) ;
#144 = ADVANCED_FACE ( 'NONE', ( #41, #204 ), #155, .T. ) ;
#145 = SECURITY_CLASSIFICATION_LEVEL ( 'unclassified' ) ;
#146 = APPROVAL ( #237, 'NEURÈENÝ' ) ;
#147 = ORIENTED_EDGE ( 'NONE', *, *, #74, .F. ) ;
#148 = CALENDAR_DATE ( 2022, 20, 6 ) ;
#149 = ORIENTED_EDGE ( 'NONE', *, *, #280, .F. ) ;
#150 = ORIENTED_EDGE ( 'NONE', *, *, #59, .T. ) ;
#151 = ORIENTED_EDGE ( 'NONE', *, *, #227, .T. ) ;
#152 = AXIS2_PLACEMENT_3D ( 'NONE', #130, #230, #303 ) ;
#153 = DIRECTION ( 'NONE',  ( 1.000000000000000000, 0.000000000000000000, 0.000000000000000000 ) ) ;
#154 = DIRECTION ( 'NONE',  ( 1.000000000000000000, 0.000000000000000000, 0.000000000000000000 ) ) ;
#155 = PLANE ( 'NONE',  #113 ) ;
#156 = DIRECTION ( 'NONE',  ( 1.000000000000000000, 0.000000000000000000, 0.000000000000000000 ) ) ;
#157 = AXIS2_PLACEMENT_3D ( 'NONE', #159, #92, #259 ) ;
#158 = DIRECTION ( 'NONE',  ( -0.000000000000000000, -0.000000000000000000, -1.000000000000000000 ) ) ;
#159 = CARTESIAN_POINT ( 'NONE',  ( 0.000000000000000000, 0.000000000000000000, 165.0000000000000000 ) ) ;
#160 = FACE_OUTER_BOUND ( 'NONE', #36, .T. ) ;
#161 = CARTESIAN_POINT ( 'NONE',  ( -5.300000000000000711, 6.490628035480972910E-16, 5.200000000000009948 ) ) ;
#162 = CIRCLE ( 'NONE', #89, 8.000000000000000000 ) ;
#163 = CARTESIAN_POINT ( 'NONE',  ( 0.000000000000000000, 0.000000000000000000, 0.000000000000000000 ) ) ;
#164 = LOCAL_TIME ( 11, 39, 37.00000000000000000, #295 ) ;
#165 = PRODUCT ( '268c', '268c', '', ( #114 ) ) ;
#166 = APPROVAL_DATE_TIME ( #117, #34 ) ;
#167 = CC_DESIGN_PERSON_AND_ORGANIZATION_ASSIGNMENT ( #120, #57, ( #240 ) ) ;
#168 = DATE_AND_TIME ( #170, #119 ) ;
#169 = VERTEX_POINT ( 'NONE', #128 ) ;
#170 = CALENDAR_DATE ( 2022, 20, 6 ) ;
#171 = ORIENTED_EDGE ( 'NONE', *, *, #280, .T. ) ;
#172 = FACE_OUTER_BOUND ( 'NONE', #124, .T. ) ;
#173 = EDGE_CURVE ( 'NONE', #169, #203, #139, .T. ) ;
#174 = PERSON_AND_ORGANIZATION_ROLE ( 'creator' ) ;
#175 = ORIENTED_EDGE ( 'NONE', *, *, #201, .T. ) ;
#176 = CIRCLE ( 'NONE', #181, 8.000000000000000000 ) ;
#177 = APPLICATION_CONTEXT ( 'configuration controlled 3d designs of mechanical parts and assemblies' ) ;
#178 = ORIENTED_EDGE ( 'NONE', *, *, #227, .F. ) ;
#179 = DIRECTION ( 'NONE',  ( 1.000000000000000000, 0.000000000000000000, 0.000000000000000000 ) ) ;
#180 = CYLINDRICAL_SURFACE ( 'NONE', #193, 5.100000000000001421 ) ;
#181 = AXIS2_PLACEMENT_3D ( 'NONE', #29, #118, #217 ) ;
#182 = DIRECTION ( 'NONE',  ( 1.000000000000000000, 0.000000000000000000, 0.000000000000000000 ) ) ;
#183 = PRODUCT_DEFINITION_FORMATION_WITH_SPECIFIED_SOURCE ( 'LIBOVOLNÝ', '', #165, .NOT_KNOWN. ) ;
#184 = CARTESIAN_POINT ( 'NONE',  ( -5.300000000000000711, 6.490628035480971924E-16, 5.000000000000005329 ) ) ;
#185 = AXIS2_PLACEMENT_3D ( 'NONE', #137, #23, #288 ) ;
#186 = CARTESIAN_POINT ( 'NONE',  ( 0.000000000000000000, 0.000000000000000000, 5.000000000000000000 ) ) ;
#187 = CIRCLE ( 'NONE', #53, 5.100000000000001421 ) ;
#188 = PERSON_AND_ORGANIZATION_ROLE ( 'design_owner' ) ;
#189 = COORDINATED_UNIVERSAL_TIME_OFFSET ( 1, 0, .AHEAD. ) ;
#190 = DIRECTION ( 'NONE',  ( -1.000000000000000000, 1.224646799147353454E-16, 0.000000000000000000 ) ) ;
#191 = EDGE_CURVE ( 'NONE', #7, #98, #61, .T. ) ;
#192 = DATE_TIME_ROLE ( 'classification_date' ) ;
#193 = AXIS2_PLACEMENT_3D ( 'NONE', #207, #307, #277 ) ;
#194 = VERTEX_POINT ( 'NONE', #184 ) ;
#195 = APPROVAL_DATE_TIME ( #97, #263 ) ;
#196 = ORIENTED_EDGE ( 'NONE', *, *, #71, .T. ) ;
#197 = CC_DESIGN_PERSON_AND_ORGANIZATION_ASSIGNMENT ( #223, #174, ( #211 ) ) ;
#198 = DATE_TIME_ROLE ( 'creation_date' ) ;
#199 = ORIENTED_EDGE ( 'NONE', *, *, #173, .F. ) ;
#200 = CIRCLE ( 'NONE', #65, 8.000000000000000000 ) ;
#201 = EDGE_CURVE ( 'NONE', #12, #251, #281, .T. ) ;
#202 = APPROVAL_ROLE ( '' ) ;
#203 = VERTEX_POINT ( 'NONE', #70 ) ;
#204 = FACE_OUTER_BOUND ( 'NONE', #267, .T. ) ;
#205 = CYLINDRICAL_SURFACE ( 'NONE', #133, 8.000000000000000000 ) ;
#206 = CARTESIAN_POINT ( 'NONE',  ( 0.000000000000000000, 0.000000000000000000, 5.200000000000009948 ) ) ;
#207 = CARTESIAN_POINT ( 'NONE',  ( 0.000000000000000000, 0.000000000000000000, 165.0000000000000000 ) ) ;
#208 = PERSON_AND_ORGANIZATION ( #134, #67 ) ;
#209 = DIRECTION ( 'NONE',  ( 0.000000000000000000, 0.000000000000000000, 1.000000000000000000 ) ) ;
#210 = CARTESIAN_POINT ( 'NONE',  ( 0.000000000000000000, 0.000000000000000000, 5.000000000000000000 ) ) ;
#211 = PRODUCT_DEFINITION ( 'NEZNÁMÝ', '', #183, #229 ) ;
#212 = DIRECTION ( 'NONE',  ( 0.000000000000000000, 0.000000000000000000, 1.000000000000000000 ) ) ;
#213 = DIRECTION ( 'NONE',  ( -0.000000000000000000, -0.000000000000000000, -1.000000000000000000 ) ) ;
#214 = ADVANCED_BREP_SHAPE_REPRESENTATION ( '268c', ( #123, #185 ), #11 ) ;
#215 = PERSON_AND_ORGANIZATION_ROLE ( 'creator' ) ;
#216 = VECTOR ( 'NONE', #52, 1000.000000000000000 ) ;
#217 = DIRECTION ( 'NONE',  ( 1.000000000000000000, 0.000000000000000000, 0.000000000000000000 ) ) ;
#218 = EDGE_LOOP ( 'NONE', ( #269, #149 ) ) ;
#219 = ORIENTED_EDGE ( 'NONE', *, *, #260, .T. ) ;
#220 = CALENDAR_DATE ( 2022, 20, 6 ) ;
#221 = ORIENTED_EDGE ( 'NONE', *, *, #201, .F. ) ;
#222 = VECTOR ( 'NONE', #285, 1000.000000000000000 ) ;
#223 = PERSON_AND_ORGANIZATION ( #134, #67 ) ;
#224 = CARTESIAN_POINT ( 'NONE',  ( 5.100000000000001421, 6.245698675651502811E-16, 165.0000000000000000 ) ) ;
#225 = DIRECTION ( 'NONE',  ( 0.000000000000000000, 0.000000000000000000, 1.000000000000000000 ) ) ;
#226 = CLOSED_SHELL ( 'NONE', ( #3, #255, #109, #104, #144, #138, #116, #242, #37 ) ) ;
#227 = EDGE_CURVE ( 'NONE', #194, #203, #235, .T. ) ;
#228 = CARTESIAN_POINT ( 'NONE',  ( 0.000000000000000000, 0.000000000000000000, 5.000000000000000000 ) ) ;
#229 = DESIGN_CONTEXT ( 'detailed design', #301, 'design' ) ;
#230 = DIRECTION ( 'NONE',  ( 0.000000000000000000, -1.000000000000000000, 0.000000000000000000 ) ) ;
#231 = CC_DESIGN_PERSON_AND_ORGANIZATION_ASSIGNMENT ( #248, #38, ( #183 ) ) ;
#232 = CARTESIAN_POINT ( 'NONE',  ( 0.000000000000000000, 0.000000000000000000, 5.200000000000009948 ) ) ;
#233 = TOROIDAL_SURFACE ( 'NONE', #51, 5.300000000000000711, 0.2000000000000000111 ) ;
#234 = DIRECTION ( 'NONE',  ( -1.000000000000000000, 0.000000000000000000, 0.000000000000000000 ) ) ;
#235 = CIRCLE ( 'NONE', #274, 5.300000000000000711 ) ;
#236 =( NAMED_UNIT ( * ) PLANE_ANGLE_UNIT ( ) SI_UNIT ( $, .RADIAN. ) );
#237 = APPROVAL_STATUS ( 'not_yet_approved' ) ;
#238 = CC_DESIGN_APPROVAL ( #146, ( #211 ) ) ;
#239 = CARTESIAN_POINT ( 'NONE',  ( 0.000000000000000000, 0.000000000000000000, 165.0000000000000000 ) ) ;
#240 = SECURITY_CLASSIFICATION ( '', '', #145 ) ;
#241 = LINE ( 'NONE', #1, #216 ) ;
#242 = ADVANCED_FACE ( 'NONE', ( #160 ), #282, .T. ) ;
#243 = PERSON_AND_ORGANIZATION ( #134, #67 ) ;
#244 = CARTESIAN_POINT ( 'NONE',  ( 8.000000000000000000, 9.797174393178825657E-16, 5.000000000000000000 ) ) ;
#245 = ORIENTED_EDGE ( 'NONE', *, *, #49, .F. ) ;
#246 = COORDINATED_UNIVERSAL_TIME_OFFSET ( 1, 0, .AHEAD. ) ;
#247 = ORIENTED_EDGE ( 'NONE', *, *, #85, .T. ) ;
#248 = PERSON_AND_ORGANIZATION ( #134, #67 ) ;
#249 = ORIENTED_EDGE ( 'NONE', *, *, #17, .T. ) ;
#250 = AXIS2_PLACEMENT_3D ( 'NONE', #256, #86, #153 ) ;
#251 = VERTEX_POINT ( 'NONE', #286 ) ;
#252 = CARTESIAN_POINT ( 'NONE',  ( 0.000000000000000000, 0.000000000000000000, 0.000000000000000000 ) ) ;
#253 = CARTESIAN_POINT ( 'NONE',  ( 0.000000000000000000, 0.000000000000000000, 165.0000000000000000 ) ) ;
#254 = CARTESIAN_POINT ( 'NONE',  ( 0.000000000000000000, 0.000000000000000000, 5.000000000000000000 ) ) ;
#255 = ADVANCED_FACE ( 'NONE', ( #21 ), #264, .T. ) ;
#256 = CARTESIAN_POINT ( 'NONE',  ( 0.000000000000000000, 0.000000000000000000, 5.000000000000000000 ) ) ;
#257 = FACE_OUTER_BOUND ( 'NONE', #141, .T. ) ;
#258 = EDGE_CURVE ( 'NONE', #58, #194, #127, .T. ) ;
#259 = DIRECTION ( 'NONE',  ( -1.000000000000000000, 0.000000000000000000, 0.000000000000000000 ) ) ;
#260 = EDGE_CURVE ( 'NONE', #7, #169, #26, .T. ) ;
#261 = DIRECTION ( 'NONE',  ( 1.000000000000000000, 0.000000000000000000, -0.000000000000000000 ) ) ;
#262 = DIRECTION ( 'NONE',  ( 1.000000000000000000, 0.000000000000000000, 0.000000000000000000 ) ) ;
#263 = APPROVAL ( #5, 'NEURÈENÝ' ) ;
#264 = CYLINDRICAL_SURFACE ( 'NONE', #157, 5.100000000000001421 ) ;
#265 = APPROVAL_DATE_TIME ( #268, #146 ) ;
#266 = ORIENTED_EDGE ( 'NONE', *, *, #17, .F. ) ;
#267 = EDGE_LOOP ( 'NONE', ( #150, #249 ) ) ;
#268 = DATE_AND_TIME ( #148, #99 ) ;
#269 = ORIENTED_EDGE ( 'NONE', *, *, #273, .F. ) ;
#270 = ORIENTED_EDGE ( 'NONE', *, *, #258, .F. ) ;
#271 = PRODUCT_RELATED_PRODUCT_CATEGORY ( 'detail', '', ( #165 ) ) ;
#272 = DIRECTION ( 'NONE',  ( 1.000000000000000000, 0.000000000000000000, 0.000000000000000000 ) ) ;
#273 = EDGE_CURVE ( 'NONE', #60, #251, #48, .T. ) ;
#274 = AXIS2_PLACEMENT_3D ( 'NONE', #210, #75, #262 ) ;
#275 = CARTESIAN_POINT ( 'NONE',  ( -5.100000000000001421, 0.000000000000000000, 5.200000000000009948 ) ) ;
#276 = DIRECTION ( 'NONE',  ( -0.000000000000000000, -0.000000000000000000, -1.000000000000000000 ) ) ;
#277 = DIRECTION ( 'NONE',  ( -1.000000000000000000, 0.000000000000000000, 0.000000000000000000 ) ) ;
#278 = AXIS2_PLACEMENT_3D ( 'NONE', #163, #72, #2 ) ;
#279 = CC_DESIGN_APPROVAL ( #263, ( #240 ) ) ;
#280 = EDGE_CURVE ( 'NONE', #251, #60, #200, .T. ) ;
#281 = LINE ( 'NONE', #115, #222 ) ;
#282 = PLANE ( 'NONE',  #24 ) ;
#283 = CIRCLE ( 'NONE', #143, 5.100000000000001421 ) ;
#284 = APPLICATION_PROTOCOL_DEFINITION ( 'international standard', 'config_control_design', 1994, #301 ) ;
#285 = DIRECTION ( 'NONE',  ( -0.000000000000000000, -0.000000000000000000, -1.000000000000000000 ) ) ;
#286 = CARTESIAN_POINT ( 'NONE',  ( 8.000000000000000000, 9.797174393178825657E-16, 0.000000000000000000 ) ) ;
#287 = CC_DESIGN_PERSON_AND_ORGANIZATION_ASSIGNMENT ( #243, #215, ( #183 ) ) ;
#288 = DIRECTION ( 'NONE',  ( 1.000000000000000000, 0.000000000000000000, 0.000000000000000000 ) ) ;
#289 = AXIS2_PLACEMENT_3D ( 'NONE', #228, #276, #68 ) ;
#290 = ORIENTED_EDGE ( 'NONE', *, *, #297, .F. ) ;
#291 = CALENDAR_DATE ( 2022, 20, 6 ) ;
#292 = ORIENTED_EDGE ( 'NONE', *, *, #85, .F. ) ;
#293 = COORDINATED_UNIVERSAL_TIME_OFFSET ( 1, 0, .AHEAD. ) ;
#294 = ORIENTED_EDGE ( 'NONE', *, *, #273, .T. ) ;
#295 = COORDINATED_UNIVERSAL_TIME_OFFSET ( 1, 0, .AHEAD. ) ;
#296 = ORIENTED_EDGE ( 'NONE', *, *, #71, .F. ) ;
#297 = EDGE_CURVE ( 'NONE', #98, #58, #241, .T. ) ;
#298 = CARTESIAN_POINT ( 'NONE',  ( 0.000000000000000000, 0.000000000000000000, 5.200000000000009948 ) ) ;
#299 = CARTESIAN_POINT ( 'NONE',  ( -8.000000000000000000, 0.000000000000000000, 0.000000000000000000 ) ) ;
#300 = LOCAL_TIME ( 11, 39, 37.00000000000000000, #78 ) ;
#301 = APPLICATION_CONTEXT ( 'configuration controlled 3d designs of mechanical parts and assemblies' ) ;
#302 = DIRECTION ( 'NONE',  ( -0.000000000000000000, -0.000000000000000000, -1.000000000000000000 ) ) ;
#303 = DIRECTION ( 'NONE',  ( 0.000000000000000000, 0.000000000000000000, -1.000000000000000000 ) ) ;
#304 = CYLINDRICAL_SURFACE ( 'NONE', #289, 8.000000000000000000 ) ;
#305 = APPROVAL_PERSON_ORGANIZATION ( #135, #146, #90 ) ;
#306 = AXIS2_PLACEMENT_3D ( 'NONE', #161, #27, #190 ) ;
#307 = DIRECTION ( 'NONE',  ( -0.000000000000000000, -0.000000000000000000, -1.000000000000000000 ) ) ;
ENDSEC;
END-ISO-10303-21;
