ISO-10303-21;
HEADER;
FILE_DESCRIPTION (( 'STEP AP203' ),
    '1' );
FILE_NAME ('c4e3.STEP',
    '2022-06-20T09:16:11',
    ( '' ),
    ( '' ),
    'SwSTEP 2.0',
    'SolidWorks 2019',
    '' );
FILE_SCHEMA (( 'CONFIG_CONTROL_DESIGN' ));
ENDSEC;

DATA;
#1 = CYLINDRICAL_SURFACE ( 'NONE', #285, 20.00000000000000000 ) ;
#2 = EDGE_CURVE ( 'NONE', #69, #221, #71, .T. ) ;
#3 = CARTESIAN_POINT ( 'NONE',  ( 16.00000000000000000, 1.959434878635765131E-15, 410.0000000000000568 ) ) ;
#4 = CARTESIAN_POINT ( 'NONE',  ( 16.19999999999999929, 0.000000000000000000, 10.19999999999998685 ) ) ;
#5 = CIRCLE ( 'NONE', #109, 16.00000000000000000 ) ;
#6 = SECURITY_CLASSIFICATION_LEVEL ( 'unclassified' ) ;
#7 = APPROVAL_STATUS ( 'not_yet_approved' ) ;
#8 = EDGE_LOOP ( 'NONE', ( #78, #124, #101, #203 ) ) ;
#9 = PERSON_AND_ORGANIZATION ( #268, #27 ) ;
#10 = ORIENTED_EDGE ( 'NONE', *, *, #93, .T. ) ;
#11 = DATE_AND_TIME ( #118, #180 ) ;
#12 = PRODUCT_DEFINITION ( 'NEZNÁMÝ', '', #299, #76 ) ;
#13 = ORIENTED_EDGE ( 'NONE', *, *, #2, .F. ) ;
#14 = CARTESIAN_POINT ( 'NONE',  ( 0.000000000000000000, 0.000000000000000000, 410.0000000000000568 ) ) ;
#15 = ORIENTED_EDGE ( 'NONE', *, *, #90, .T. ) ;
#16 = DIRECTION ( 'NONE',  ( 0.000000000000000000, 0.000000000000000000, 1.000000000000000000 ) ) ;
#17 = DIRECTION ( 'NONE',  ( -0.000000000000000000, -0.000000000000000000, -1.000000000000000000 ) ) ;
#18 = CC_DESIGN_PERSON_AND_ORGANIZATION_ASSIGNMENT ( #9, #295, ( #208 ) ) ;
#19 = CARTESIAN_POINT ( 'NONE',  ( 0.000000000000000000, 0.000000000000000000, 0.000000000000000000 ) ) ;
#20 = DIRECTION ( 'NONE',  ( 1.000000000000000000, 0.000000000000000000, 0.000000000000000000 ) ) ;
#21 = DIRECTION ( 'NONE',  ( -0.000000000000000000, -0.000000000000000000, -1.000000000000000000 ) ) ;
#22 = CARTESIAN_POINT ( 'NONE',  ( 0.000000000000000000, 0.000000000000000000, 410.0000000000000568 ) ) ;
#23 = VECTOR ( 'NONE', #177, 1000.000000000000000 ) ;
#24 = CARTESIAN_POINT ( 'NONE',  ( -16.00000000000000000, 0.000000000000000000, 10.19999999999998685 ) ) ;
#25 = CIRCLE ( 'NONE', #225, 16.19999999999999929 ) ;
#26 = DIRECTION ( 'NONE',  ( 0.000000000000000000, 0.000000000000000000, 1.000000000000000000 ) ) ;
#27 = ORGANIZATION ( 'NEURÈENÝ', 'NEURÈENÝ', '' ) ;
#28 = CARTESIAN_POINT ( 'NONE',  ( 0.000000000000000000, 0.000000000000000000, 10.19999999999998685 ) ) ;
#29 = CC_DESIGN_DATE_AND_TIME_ASSIGNMENT ( #193, #293, ( #154 ) ) ;
#30 = COORDINATED_UNIVERSAL_TIME_OFFSET ( 1, 0, .AHEAD. ) ;
#31 = APPROVAL_DATE_TIME ( #188, #241 ) ;
#32 = CIRCLE ( 'NONE', #236, 0.2000000000000005107 ) ;
#33 = EDGE_LOOP ( 'NONE', ( #194, #171, #294, #125 ) ) ;
#34 = PERSON_AND_ORGANIZATION ( #268, #27 ) ;
#35 = ORIENTED_EDGE ( 'NONE', *, *, #100, .T. ) ;
#36 = CARTESIAN_POINT ( 'NONE',  ( 0.000000000000000000, 0.000000000000000000, 0.000000000000000000 ) ) ;
#37 = DIRECTION ( 'NONE',  ( 1.000000000000000000, 0.000000000000000000, 0.000000000000000000 ) ) ;
#38 = CARTESIAN_POINT ( 'NONE',  ( 20.00000000000000000, 2.449293598294706513E-15, 10.00000000000000000 ) ) ;
#39 = CARTESIAN_POINT ( 'NONE',  ( 16.00000000000000000, 1.959434878635765131E-15, 10.19999999999998685 ) ) ;
#40 = LOCAL_TIME ( 11, 16, 11.00000000000000000, #114 ) ;
#41 = CARTESIAN_POINT ( 'NONE',  ( 0.000000000000000000, 0.000000000000000000, 10.00000000000000000 ) ) ;
#42 = EDGE_CURVE ( 'NONE', #129, #304, #91, .T. ) ;
#43 = DIRECTION ( 'NONE',  ( 1.224646799147353207E-16, 1.000000000000000000, -0.000000000000000000 ) ) ;
#44 = CYLINDRICAL_SURFACE ( 'NONE', #173, 16.00000000000000000 ) ;
#45 = CIRCLE ( 'NONE', #165, 20.00000000000000000 ) ;
#46 = DIRECTION ( 'NONE',  ( 1.000000000000000000, 0.000000000000000000, 0.000000000000000000 ) ) ;
#47 = APPLICATION_PROTOCOL_DEFINITION ( 'international standard', 'config_control_design', 1994, #57 ) ;
#48 = CC_DESIGN_PERSON_AND_ORGANIZATION_ASSIGNMENT ( #212, #215, ( #154 ) ) ;
#49 = DATE_TIME_ROLE ( 'creation_date' ) ;
#50 = COORDINATED_UNIVERSAL_TIME_OFFSET ( 1, 0, .AHEAD. ) ;
#51 = ADVANCED_FACE ( 'NONE', ( #155 ), #250, .F. ) ;
#52 = ORIENTED_EDGE ( 'NONE', *, *, #67, .T. ) ;
#53 = VERTEX_POINT ( 'NONE', #39 ) ;
#54 = DIRECTION ( 'NONE',  ( 1.000000000000000000, 0.000000000000000000, 0.000000000000000000 ) ) ;
#55 = DIRECTION ( 'NONE',  ( 1.000000000000000000, 0.000000000000000000, 0.000000000000000000 ) ) ;
#56 = CC_DESIGN_SECURITY_CLASSIFICATION ( #154, ( #299 ) ) ;
#57 = APPLICATION_CONTEXT ( 'configuration controlled 3d designs of mechanical parts and assemblies' ) ;
#58 = CARTESIAN_POINT ( 'NONE',  ( 0.000000000000000000, 0.000000000000000000, 410.0000000000000568 ) ) ;
#59 = EDGE_CURVE ( 'NONE', #53, #189, #5, .T. ) ;
#60 = DIRECTION ( 'NONE',  ( 1.000000000000000000, 0.000000000000000000, 0.000000000000000000 ) ) ;
#61 = DIRECTION ( 'NONE',  ( -0.000000000000000000, -0.000000000000000000, -1.000000000000000000 ) ) ;
#62 = CLOSED_SHELL ( 'NONE', ( #197, #270, #245, #123, #150, #51, #296, #117, #153 ) ) ;
#63 = DIRECTION ( 'NONE',  ( -1.000000000000000000, 1.224646799147353947E-16, 0.000000000000000000 ) ) ;
#64 = AXIS2_PLACEMENT_3D ( 'NONE', #22, #21, #108 ) ;
#65 = AXIS2_PLACEMENT_3D ( 'NONE', #281, #284, #89 ) ;
#66 = CARTESIAN_POINT ( 'NONE',  ( -16.19999999999999929, 1.983927814618711846E-15, 10.19999999999998685 ) ) ;
#67 = EDGE_CURVE ( 'NONE', #243, #221, #253, .T. ) ;
#68 = COORDINATED_UNIVERSAL_TIME_OFFSET ( 1, 0, .AHEAD. ) ;
#69 = VERTEX_POINT ( 'NONE', #198 ) ;
#70 = PERSON_AND_ORGANIZATION ( #268, #27 ) ;
#71 = CIRCLE ( 'NONE', #247, 20.00000000000000000 ) ;
#72 = ORIENTED_EDGE ( 'NONE', *, *, #234, .T. ) ;
#73 = CALENDAR_DATE ( 2022, 20, 6 ) ;
#74 = ORIENTED_EDGE ( 'NONE', *, *, #100, .F. ) ;
#75 = CALENDAR_DATE ( 2022, 20, 6 ) ;
#76 = DESIGN_CONTEXT ( 'detailed design', #57, 'design' ) ;
#77 =( GEOMETRIC_REPRESENTATION_CONTEXT ( 3 ) GLOBAL_UNCERTAINTY_ASSIGNED_CONTEXT ( ( #135 ) ) GLOBAL_UNIT_ASSIGNED_CONTEXT ( ( #140, #230, #206 ) ) REPRESENTATION_CONTEXT ( 'NONE', 'WORKASPACE' ) );
#78 = ORIENTED_EDGE ( 'NONE', *, *, #282, .F. ) ;
#79 = DIRECTION ( 'NONE',  ( 1.000000000000000000, 0.000000000000000000, 0.000000000000000000 ) ) ;
#80 = CC_DESIGN_PERSON_AND_ORGANIZATION_ASSIGNMENT ( #237, #145, ( #299 ) ) ;
#81 = DIRECTION ( 'NONE',  ( 0.000000000000000000, 0.000000000000000000, 1.000000000000000000 ) ) ;
#82 = CARTESIAN_POINT ( 'NONE',  ( 0.000000000000000000, 0.000000000000000000, 0.000000000000000000 ) ) ;
#83 = CC_DESIGN_DATE_AND_TIME_ASSIGNMENT ( #11, #49, ( #12 ) ) ;
#84 = AXIS2_PLACEMENT_3D ( 'NONE', #28, #182, #137 ) ;
#85 = DIRECTION ( 'NONE',  ( 0.000000000000000000, 0.000000000000000000, 1.000000000000000000 ) ) ;
#86 = CARTESIAN_POINT ( 'NONE',  ( 0.000000000000000000, 0.000000000000000000, 10.00000000000000000 ) ) ;
#87 = ADVANCED_BREP_SHAPE_REPRESENTATION ( 'c4e3', ( #119, #159 ), #77 ) ;
#88 = CARTESIAN_POINT ( 'NONE',  ( 0.000000000000000000, 0.000000000000000000, 10.00000000000000000 ) ) ;
#89 = DIRECTION ( 'NONE',  ( 1.000000000000000000, 0.000000000000000000, 0.000000000000000000 ) ) ;
#90 = EDGE_CURVE ( 'NONE', #243, #269, #252, .T. ) ;
#91 = CIRCLE ( 'NONE', #95, 16.19999999999999929 ) ;
#92 = ORIENTED_EDGE ( 'NONE', *, *, #59, .T. ) ;
#93 = EDGE_CURVE ( 'NONE', #269, #243, #45, .T. ) ;
#94 = PERSON_AND_ORGANIZATION_ROLE ( 'creator' ) ;
#95 = AXIS2_PLACEMENT_3D ( 'NONE', #220, #17, #20 ) ;
#96 = EDGE_LOOP ( 'NONE', ( #246, #35 ) ) ;
#97 = CALENDAR_DATE ( 2022, 20, 6 ) ;
#98 = EDGE_LOOP ( 'NONE', ( #10, #15 ) ) ;
#99 = LOCAL_TIME ( 11, 16, 11.00000000000000000, #30 ) ;
#100 = EDGE_CURVE ( 'NONE', #272, #146, #115, .T. ) ;
#101 = ORIENTED_EDGE ( 'NONE', *, *, #303, .T. ) ;
#102 = DIRECTION ( 'NONE',  ( 0.000000000000000000, 0.000000000000000000, 1.000000000000000000 ) ) ;
#103 = DIRECTION ( 'NONE',  ( -0.000000000000000000, -0.000000000000000000, -1.000000000000000000 ) ) ;
#104 = FACE_OUTER_BOUND ( 'NONE', #167, .T. ) ;
#105 = DIRECTION ( 'NONE',  ( 1.000000000000000000, 0.000000000000000000, -0.000000000000000000 ) ) ;
#106 = DIRECTION ( 'NONE',  ( 1.000000000000000000, 0.000000000000000000, 0.000000000000000000 ) ) ;
#107 = CARTESIAN_POINT ( 'NONE',  ( -16.19999999999999929, 1.983927814618711846E-15, 9.999999999999992895 ) ) ;
#108 = DIRECTION ( 'NONE',  ( -1.000000000000000000, 0.000000000000000000, 0.000000000000000000 ) ) ;
#109 = AXIS2_PLACEMENT_3D ( 'NONE', #249, #226, #60 ) ;
#110 = CARTESIAN_POINT ( 'NONE',  ( 0.000000000000000000, 0.000000000000000000, 0.000000000000000000 ) ) ;
#111 = DIRECTION ( 'NONE',  ( 1.000000000000000000, 0.000000000000000000, 0.000000000000000000 ) ) ;
#112 = FACE_OUTER_BOUND ( 'NONE', #292, .T. ) ;
#113 = FACE_OUTER_BOUND ( 'NONE', #33, .T. ) ;
#114 = COORDINATED_UNIVERSAL_TIME_OFFSET ( 1, 0, .AHEAD. ) ;
#115 = CIRCLE ( 'NONE', #290, 16.00000000000000000 ) ;
#116 = APPROVAL_DATE_TIME ( #235, #202 ) ;
#117 = ADVANCED_FACE ( 'NONE', ( #127 ), #199, .T. ) ;
#118 = CALENDAR_DATE ( 2022, 20, 6 ) ;
#119 = MANIFOLD_SOLID_BREP ( 'Zaoblit1', #62 ) ;
#120 = PERSON_AND_ORGANIZATION ( #268, #27 ) ;
#121 = ORIENTED_EDGE ( 'NONE', *, *, #133, .F. ) ;
#122 = CALENDAR_DATE ( 2022, 20, 6 ) ;
#123 = ADVANCED_FACE ( 'NONE', ( #104 ), #307, .T. ) ;
#124 = ORIENTED_EDGE ( 'NONE', *, *, #59, .F. ) ;
#125 = ORIENTED_EDGE ( 'NONE', *, *, #303, .F. ) ;
#126 = TOROIDAL_SURFACE ( 'NONE', #151, 16.19999999999999929, 0.2000000000000000111 ) ;
#127 = FACE_OUTER_BOUND ( 'NONE', #96, .T. ) ;
#128 = ORIENTED_EDGE ( 'NONE', *, *, #223, .F. ) ;
#129 = VERTEX_POINT ( 'NONE', #107 ) ;
#130 = CIRCLE ( 'NONE', #298, 0.1999999999999987899 ) ;
#131 = DIRECTION ( 'NONE',  ( 0.000000000000000000, -1.000000000000000000, 0.000000000000000000 ) ) ;
#132 = CARTESIAN_POINT ( 'NONE',  ( -16.00000000000000000, 0.000000000000000000, 410.0000000000000568 ) ) ;
#133 = EDGE_CURVE ( 'NONE', #146, #189, #301, .T. ) ;
#134 = DIRECTION ( 'NONE',  ( -0.000000000000000000, -0.000000000000000000, -1.000000000000000000 ) ) ;
#135 = UNCERTAINTY_MEASURE_WITH_UNIT (LENGTH_MEASURE( 1.000000000000000082E-05 ), #140, 'distance_accuracy_value', 'NONE');
#136 = DIRECTION ( 'NONE',  ( 1.000000000000000000, 0.000000000000000000, -0.000000000000000000 ) ) ;
#137 = DIRECTION ( 'NONE',  ( 1.000000000000000000, 0.000000000000000000, 0.000000000000000000 ) ) ;
#138 = EDGE_CURVE ( 'NONE', #304, #129, #25, .T. ) ;
#139 = PRODUCT_DEFINITION_SHAPE ( 'NONE', 'NONE',  #12 ) ;
#140 =( LENGTH_UNIT ( ) NAMED_UNIT ( * ) SI_UNIT ( .MILLI., .METRE. ) );
#141 = APPROVAL_STATUS ( 'not_yet_approved' ) ;
#142 = DIRECTION ( 'NONE',  ( 0.000000000000000000, 0.000000000000000000, 1.000000000000000000 ) ) ;
#143 = CC_DESIGN_APPROVAL ( #187, ( #12 ) ) ;
#144 = APPROVAL_DATE_TIME ( #263, #187 ) ;
#145 = PERSON_AND_ORGANIZATION_ROLE ( 'creator' ) ;
#146 = VERTEX_POINT ( 'NONE', #174 ) ;
#147 = SHAPE_DEFINITION_REPRESENTATION ( #139, #87 ) ;
#148 = APPROVAL_PERSON_ORGANIZATION ( #70, #202, #291 ) ;
#149 = ORIENTED_EDGE ( 'NONE', *, *, #138, .T. ) ;
#150 = ADVANCED_FACE ( 'NONE', ( #275, #152 ), #200, .T. ) ;
#151 = AXIS2_PLACEMENT_3D ( 'NONE', #259, #142, #111 ) ;
#152 = FACE_OUTER_BOUND ( 'NONE', #98, .T. ) ;
#153 = ADVANCED_FACE ( 'NONE', ( #286 ), #232, .F. ) ;
#154 = SECURITY_CLASSIFICATION ( '', '', #6 ) ;
#155 = FACE_OUTER_BOUND ( 'NONE', #302, .T. ) ;
#156 = AXIS2_PLACEMENT_3D ( 'NONE', #176, #175, #55 ) ;
#157 = EDGE_LOOP ( 'NONE', ( #213, #52, #222, #128 ) ) ;
#158 = CARTESIAN_POINT ( 'NONE',  ( 0.000000000000000000, 0.000000000000000000, 10.00000000000000000 ) ) ;
#159 = AXIS2_PLACEMENT_3D ( 'NONE', #19, #233, #106 ) ;
#160 = DIRECTION ( 'NONE',  ( 1.000000000000000000, 0.000000000000000000, -0.000000000000000000 ) ) ;
#161 = LOCAL_TIME ( 11, 16, 11.00000000000000000, #190 ) ;
#162 = FACE_OUTER_BOUND ( 'NONE', #244, .T. ) ;
#163 = FACE_OUTER_BOUND ( 'NONE', #157, .T. ) ;
#164 = DIRECTION ( 'NONE',  ( -0.000000000000000000, -0.000000000000000000, -1.000000000000000000 ) ) ;
#165 = AXIS2_PLACEMENT_3D ( 'NONE', #306, #224, #248 ) ;
#166 = DIRECTION ( 'NONE',  ( 0.000000000000000000, 0.000000000000000000, 1.000000000000000000 ) ) ;
#167 = EDGE_LOOP ( 'NONE', ( #239, #289, #267, #168 ) ) ;
#168 = ORIENTED_EDGE ( 'NONE', *, *, #2, .T. ) ;
#169 = PERSON_AND_ORGANIZATION ( #268, #27 ) ;
#170 = ORIENTED_EDGE ( 'NONE', *, *, #258, .F. ) ;
#171 = ORIENTED_EDGE ( 'NONE', *, *, #282, .T. ) ;
#172 = LOCAL_TIME ( 11, 16, 11.00000000000000000, #68 ) ;
#173 = AXIS2_PLACEMENT_3D ( 'NONE', #186, #183, #228 ) ;
#174 = CARTESIAN_POINT ( 'NONE',  ( -16.00000000000000000, 0.000000000000000000, 410.0000000000000568 ) ) ;
#175 = DIRECTION ( 'NONE',  ( 0.000000000000000000, 0.000000000000000000, 1.000000000000000000 ) ) ;
#176 = CARTESIAN_POINT ( 'NONE',  ( 0.000000000000000000, 0.000000000000000000, 10.00000000000000000 ) ) ;
#177 = DIRECTION ( 'NONE',  ( -0.000000000000000000, -0.000000000000000000, -1.000000000000000000 ) ) ;
#178 = EDGE_CURVE ( 'NONE', #146, #272, #210, .T. ) ;
#179 = DIRECTION ( 'NONE',  ( -0.000000000000000000, -0.000000000000000000, -1.000000000000000000 ) ) ;
#180 = LOCAL_TIME ( 11, 16, 11.00000000000000000, #50 ) ;
#181 = CARTESIAN_POINT ( 'NONE',  ( 20.00000000000000000, 2.449293598294706513E-15, 10.00000000000000000 ) ) ;
#182 = DIRECTION ( 'NONE',  ( 0.000000000000000000, 0.000000000000000000, 1.000000000000000000 ) ) ;
#183 = DIRECTION ( 'NONE',  ( -0.000000000000000000, -0.000000000000000000, -1.000000000000000000 ) ) ;
#184 = APPLICATION_PROTOCOL_DEFINITION ( 'international standard', 'config_control_design', 1994, #260 ) ;
#185 = VECTOR ( 'NONE', #103, 1000.000000000000000 ) ;
#186 = CARTESIAN_POINT ( 'NONE',  ( 0.000000000000000000, 0.000000000000000000, 410.0000000000000568 ) ) ;
#187 = APPROVAL ( #141, 'NEURÈENÝ' ) ;
#188 = DATE_AND_TIME ( #122, #161 ) ;
#189 = VERTEX_POINT ( 'NONE', #24 ) ;
#190 = COORDINATED_UNIVERSAL_TIME_OFFSET ( 1, 0, .AHEAD. ) ;
#191 = DIRECTION ( 'NONE',  ( -1.000000000000000000, 0.000000000000000000, 0.000000000000000000 ) ) ;
#192 = CC_DESIGN_PERSON_AND_ORGANIZATION_ASSIGNMENT ( #287, #240, ( #299 ) ) ;
#193 = DATE_AND_TIME ( #97, #172 ) ;
#194 = ORIENTED_EDGE ( 'NONE', *, *, #234, .F. ) ;
#195 = APPROVAL_PERSON_ORGANIZATION ( #34, #187, #288 ) ;
#196 = AXIS2_PLACEMENT_3D ( 'NONE', #58, #85, #105 ) ;
#197 = ADVANCED_FACE ( 'NONE', ( #113 ), #126, .F. ) ;
#198 = CARTESIAN_POINT ( 'NONE',  ( -20.00000000000000000, 0.000000000000000000, 0.000000000000000000 ) ) ;
#199 = PLANE ( 'NONE',  #196 ) ;
#200 = PLANE ( 'NONE',  #262 ) ;
#201 = VECTOR ( 'NONE', #134, 1000.000000000000000 ) ;
#202 = APPROVAL ( #7, 'NEURÈENÝ' ) ;
#203 = ORIENTED_EDGE ( 'NONE', *, *, #42, .F. ) ;
#204 = CARTESIAN_POINT ( 'NONE',  ( 16.19999999999999929, 0.000000000000000000, 9.999999999999992895 ) ) ;
#205 = CARTESIAN_POINT ( 'NONE',  ( -20.00000000000000000, 0.000000000000000000, 10.00000000000000000 ) ) ;
#206 =( NAMED_UNIT ( * ) SI_UNIT ( $, .STERADIAN. ) SOLID_ANGLE_UNIT ( ) );
#207 = CARTESIAN_POINT ( 'NONE',  ( 0.000000000000000000, 0.000000000000000000, 410.0000000000000568 ) ) ;
#208 = PRODUCT ( 'c4e3', 'c4e3', '', ( #257 ) ) ;
#209 = APPROVAL_PERSON_ORGANIZATION ( #120, #241, #211 ) ;
#210 = CIRCLE ( 'NONE', #305, 16.00000000000000000 ) ;
#211 = APPROVAL_ROLE ( '' ) ;
#212 = PERSON_AND_ORGANIZATION ( #268, #27 ) ;
#213 = ORIENTED_EDGE ( 'NONE', *, *, #90, .F. ) ;
#214 = EDGE_LOOP ( 'NONE', ( #149, #297 ) ) ;
#215 = PERSON_AND_ORGANIZATION_ROLE ( 'classification_officer' ) ;
#216 = AXIS2_PLACEMENT_3D ( 'NONE', #36, #16, #160 ) ;
#217 = CIRCLE ( 'NONE', #84, 16.00000000000000000 ) ;
#218 = ORIENTED_EDGE ( 'NONE', *, *, #178, .F. ) ;
#219 = ORIENTED_EDGE ( 'NONE', *, *, #258, .T. ) ;
#220 = CARTESIAN_POINT ( 'NONE',  ( 0.000000000000000000, 0.000000000000000000, 10.00000000000000000 ) ) ;
#221 = VERTEX_POINT ( 'NONE', #255 ) ;
#222 = ORIENTED_EDGE ( 'NONE', *, *, #227, .T. ) ;
#223 = EDGE_CURVE ( 'NONE', #269, #69, #229, .T. ) ;
#224 = DIRECTION ( 'NONE',  ( 0.000000000000000000, 0.000000000000000000, 1.000000000000000000 ) ) ;
#225 = AXIS2_PLACEMENT_3D ( 'NONE', #158, #179, #79 ) ;
#226 = DIRECTION ( 'NONE',  ( 0.000000000000000000, 0.000000000000000000, 1.000000000000000000 ) ) ;
#227 = EDGE_CURVE ( 'NONE', #221, #69, #300, .T. ) ;
#228 = DIRECTION ( 'NONE',  ( -1.000000000000000000, 0.000000000000000000, 0.000000000000000000 ) ) ;
#229 = LINE ( 'NONE', #205, #254 ) ;
#230 =( NAMED_UNIT ( * ) PLANE_ANGLE_UNIT ( ) SI_UNIT ( $, .RADIAN. ) );
#231 = DIRECTION ( 'NONE',  ( 1.000000000000000000, 0.000000000000000000, 0.000000000000000000 ) ) ;
#232 = TOROIDAL_SURFACE ( 'NONE', #65, 16.19999999999999929, 0.2000000000000000111 ) ;
#233 = DIRECTION ( 'NONE',  ( 0.000000000000000000, 0.000000000000000000, 1.000000000000000000 ) ) ;
#234 = EDGE_CURVE ( 'NONE', #189, #53, #217, .T. ) ;
#235 = DATE_AND_TIME ( #73, #40 ) ;
#236 = AXIS2_PLACEMENT_3D ( 'NONE', #4, #131, #251 ) ;
#237 = PERSON_AND_ORGANIZATION ( #268, #27 ) ;
#238 = DIRECTION ( 'NONE',  ( -0.000000000000000000, -0.000000000000000000, -1.000000000000000000 ) ) ;
#239 = ORIENTED_EDGE ( 'NONE', *, *, #67, .F. ) ;
#240 = PERSON_AND_ORGANIZATION_ROLE ( 'design_supplier' ) ;
#241 = APPROVAL ( #242, 'NEURÈENÝ' ) ;
#242 = APPROVAL_STATUS ( 'not_yet_approved' ) ;
#243 = VERTEX_POINT ( 'NONE', #181 ) ;
#244 = EDGE_LOOP ( 'NONE', ( #170, #218, #265, #72 ) ) ;
#245 = ADVANCED_FACE ( 'NONE', ( #163 ), #1, .T. ) ;
#246 = ORIENTED_EDGE ( 'NONE', *, *, #178, .T. ) ;
#247 = AXIS2_PLACEMENT_3D ( 'NONE', #82, #81, #54 ) ;
#248 = DIRECTION ( 'NONE',  ( 1.000000000000000000, 0.000000000000000000, 0.000000000000000000 ) ) ;
#249 = CARTESIAN_POINT ( 'NONE',  ( 0.000000000000000000, 0.000000000000000000, 10.19999999999998685 ) ) ;
#250 = PLANE ( 'NONE',  #216 ) ;
#251 = DIRECTION ( 'NONE',  ( 0.000000000000000000, 0.000000000000000000, -1.000000000000000000 ) ) ;
#252 = CIRCLE ( 'NONE', #156, 20.00000000000000000 ) ;
#253 = LINE ( 'NONE', #38, #185 ) ;
#254 = VECTOR ( 'NONE', #164, 1000.000000000000000 ) ;
#255 = CARTESIAN_POINT ( 'NONE',  ( 20.00000000000000000, 2.449293598294706513E-15, 0.000000000000000000 ) ) ;
#256 = DIRECTION ( 'NONE',  ( 0.000000000000000000, 0.000000000000000000, 1.000000000000000000 ) ) ;
#257 = MECHANICAL_CONTEXT ( 'NONE', #260, 'mechanical' ) ;
#258 = EDGE_CURVE ( 'NONE', #272, #53, #273, .T. ) ;
#259 = CARTESIAN_POINT ( 'NONE',  ( 0.000000000000000000, 0.000000000000000000, 10.19999999999998685 ) ) ;
#260 = APPLICATION_CONTEXT ( 'configuration controlled 3d designs of mechanical parts and assemblies' ) ;
#261 = CC_DESIGN_APPROVAL ( #241, ( #299 ) ) ;
#262 = AXIS2_PLACEMENT_3D ( 'NONE', #41, #166, #136 ) ;
#263 = DATE_AND_TIME ( #75, #99 ) ;
#264 = ORIENTED_EDGE ( 'NONE', *, *, #227, .F. ) ;
#265 = ORIENTED_EDGE ( 'NONE', *, *, #133, .T. ) ;
#266 = CC_DESIGN_PERSON_AND_ORGANIZATION_ASSIGNMENT ( #169, #94, ( #12 ) ) ;
#267 = ORIENTED_EDGE ( 'NONE', *, *, #223, .T. ) ;
#268 = PERSON ( 'NEURÈENÝ', 'NEURÈENÝ', 'NEURÈENÝ', ('NEURÈENÝ'), ('NEURÈENÝ'), ('NEURÈENÝ') ) ;
#269 = VERTEX_POINT ( 'NONE', #277 ) ;
#270 = ADVANCED_FACE ( 'NONE', ( #112 ), #44, .T. ) ;
#271 = AXIS2_PLACEMENT_3D ( 'NONE', #110, #256, #46 ) ;
#272 = VERTEX_POINT ( 'NONE', #280 ) ;
#273 = LINE ( 'NONE', #3, #201 ) ;
#274 = DIRECTION ( 'NONE',  ( -1.000000000000000000, 0.000000000000000000, 0.000000000000000000 ) ) ;
#275 = FACE_BOUND ( 'NONE', #214, .T. ) ;
#276 = CC_DESIGN_APPROVAL ( #202, ( #154 ) ) ;
#277 = CARTESIAN_POINT ( 'NONE',  ( -20.00000000000000000, 0.000000000000000000, 10.00000000000000000 ) ) ;
#278 = AXIS2_PLACEMENT_3D ( 'NONE', #86, #61, #274 ) ;
#279 = PRODUCT_RELATED_PRODUCT_CATEGORY ( 'detail', '', ( #208 ) ) ;
#280 = CARTESIAN_POINT ( 'NONE',  ( 16.00000000000000000, 1.959434878635765131E-15, 410.0000000000000568 ) ) ;
#281 = CARTESIAN_POINT ( 'NONE',  ( 0.000000000000000000, 0.000000000000000000, 10.19999999999998685 ) ) ;
#282 = EDGE_CURVE ( 'NONE', #189, #129, #130, .T. ) ;
#283 = CYLINDRICAL_SURFACE ( 'NONE', #64, 16.00000000000000000 ) ;
#284 = DIRECTION ( 'NONE',  ( 0.000000000000000000, 0.000000000000000000, 1.000000000000000000 ) ) ;
#285 = AXIS2_PLACEMENT_3D ( 'NONE', #88, #238, #191 ) ;
#286 = FACE_OUTER_BOUND ( 'NONE', #8, .T. ) ;
#287 = PERSON_AND_ORGANIZATION ( #268, #27 ) ;
#288 = APPROVAL_ROLE ( '' ) ;
#289 = ORIENTED_EDGE ( 'NONE', *, *, #93, .F. ) ;
#290 = AXIS2_PLACEMENT_3D ( 'NONE', #14, #102, #37 ) ;
#291 = APPROVAL_ROLE ( '' ) ;
#292 = EDGE_LOOP ( 'NONE', ( #74, #219, #92, #121 ) ) ;
#293 = DATE_TIME_ROLE ( 'classification_date' ) ;
#294 = ORIENTED_EDGE ( 'NONE', *, *, #138, .F. ) ;
#295 = PERSON_AND_ORGANIZATION_ROLE ( 'design_owner' ) ;
#296 = ADVANCED_FACE ( 'NONE', ( #162 ), #283, .T. ) ;
#297 = ORIENTED_EDGE ( 'NONE', *, *, #42, .T. ) ;
#298 = AXIS2_PLACEMENT_3D ( 'NONE', #66, #43, #63 ) ;
#299 = PRODUCT_DEFINITION_FORMATION_WITH_SPECIFIED_SOURCE ( 'LIBOVOLNÝ', '', #208, .NOT_KNOWN. ) ;
#300 = CIRCLE ( 'NONE', #271, 20.00000000000000000 ) ;
#301 = LINE ( 'NONE', #132, #23 ) ;
#302 = EDGE_LOOP ( 'NONE', ( #13, #264 ) ) ;
#303 = EDGE_CURVE ( 'NONE', #53, #304, #32, .T. ) ;
#304 = VERTEX_POINT ( 'NONE', #204 ) ;
#305 = AXIS2_PLACEMENT_3D ( 'NONE', #207, #26, #231 ) ;
#306 = CARTESIAN_POINT ( 'NONE',  ( 0.000000000000000000, 0.000000000000000000, 10.00000000000000000 ) ) ;
#307 = CYLINDRICAL_SURFACE ( 'NONE', #278, 20.00000000000000000 ) ;
ENDSEC;
END-ISO-10303-21;
