ISO-10303-21;
HEADER;
FILE_DESCRIPTION (( 'STEP AP203' ),
    '1' );
FILE_NAME ('371e.STEP',
    '2022-06-20T09:38:02',
    ( '' ),
    ( '' ),
    'SwSTEP 2.0',
    'SolidWorks 2019',
    '' );
FILE_SCHEMA (( 'CONFIG_CONTROL_DESIGN' ));
ENDSEC;

DATA;
#1 = PRODUCT_DEFINITION ( 'NEZNÁMÝ', '', #148, #202 ) ;
#2 = DIRECTION ( 'NONE',  ( 1.000000000000000000, 0.000000000000000000, 0.000000000000000000 ) ) ;
#3 = AXIS2_PLACEMENT_3D ( 'NONE', #214, #215, #286 ) ;
#4 = DIRECTION ( 'NONE',  ( 0.000000000000000000, 0.000000000000000000, 1.000000000000000000 ) ) ;
#5 = COORDINATED_UNIVERSAL_TIME_OFFSET ( 1, 0, .AHEAD. ) ;
#6 = CARTESIAN_POINT ( 'NONE',  ( 5.100000000000001421, 6.245698675651502811E-16, 1004.999999999999886 ) ) ;
#7 = SECURITY_CLASSIFICATION_LEVEL ( 'unclassified' ) ;
#8 = CARTESIAN_POINT ( 'NONE',  ( 0.000000000000000000, 0.000000000000000000, 5.000000000000000000 ) ) ;
#9 = DIRECTION ( 'NONE',  ( -0.000000000000000000, -0.000000000000000000, -1.000000000000000000 ) ) ;
#10 = APPROVAL_DATE_TIME ( #166, #163 ) ;
#11 = AXIS2_PLACEMENT_3D ( 'NONE', #108, #82, #243 ) ;
#12 = CYLINDRICAL_SURFACE ( 'NONE', #32, 5.100000000000001421 ) ;
#13 = ORIENTED_EDGE ( 'NONE', *, *, #177, .F. ) ;
#14 = CARTESIAN_POINT ( 'NONE',  ( -5.100000000000001421, 0.000000000000000000, 1004.999999999999886 ) ) ;
#15 = ADVANCED_FACE ( 'NONE', ( #224 ), #272, .T. ) ;
#16 = CARTESIAN_POINT ( 'NONE',  ( 5.100000000000001421, 6.245698675651502811E-16, 5.199999999999982414 ) ) ;
#17 = AXIS2_PLACEMENT_3D ( 'NONE', #118, #274, #27 ) ;
#18 = APPROVAL_STATUS ( 'not_yet_approved' ) ;
#19 = CYLINDRICAL_SURFACE ( 'NONE', #236, 8.000000000000000000 ) ;
#20 = CARTESIAN_POINT ( 'NONE',  ( 0.000000000000000000, 0.000000000000000000, 5.000000000000000000 ) ) ;
#21 = CC_DESIGN_PERSON_AND_ORGANIZATION_ASSIGNMENT ( #187, #211, ( #148 ) ) ;
#22 = CARTESIAN_POINT ( 'NONE',  ( 0.000000000000000000, 0.000000000000000000, 1004.999999999999886 ) ) ;
#23 = ORIENTED_EDGE ( 'NONE', *, *, #52, .F. ) ;
#24 = CARTESIAN_POINT ( 'NONE',  ( 8.000000000000000000, 9.797174393178825657E-16, 5.000000000000000000 ) ) ;
#25 = DIRECTION ( 'NONE',  ( 1.000000000000000000, 0.000000000000000000, 0.000000000000000000 ) ) ;
#26 = EDGE_CURVE ( 'NONE', #70, #91, #67, .T. ) ;
#27 = DIRECTION ( 'NONE',  ( 0.000000000000000000, 0.000000000000000000, -1.000000000000000000 ) ) ;
#28 = LOCAL_TIME ( 11, 38, 2.000000000000000000, #122 ) ;
#29 = CARTESIAN_POINT ( 'NONE',  ( -5.100000000000001421, 0.000000000000000000, 1004.999999999999886 ) ) ;
#30 =( LENGTH_UNIT ( ) NAMED_UNIT ( * ) SI_UNIT ( .MILLI., .METRE. ) );
#31 = EDGE_CURVE ( 'NONE', #138, #270, #66, .T. ) ;
#32 = AXIS2_PLACEMENT_3D ( 'NONE', #167, #218, #262 ) ;
#33 = PERSON_AND_ORGANIZATION ( #244, #44 ) ;
#34 = CARTESIAN_POINT ( 'NONE',  ( 0.000000000000000000, 0.000000000000000000, 5.000000000000000000 ) ) ;
#35 = EDGE_CURVE ( 'NONE', #270, #138, #107, .T. ) ;
#36 = DIRECTION ( 'NONE',  ( -0.000000000000000000, -0.000000000000000000, -1.000000000000000000 ) ) ;
#37 = AXIS2_PLACEMENT_3D ( 'NONE', #34, #4, #185 ) ;
#38 = DIRECTION ( 'NONE',  ( 1.000000000000000000, 0.000000000000000000, -0.000000000000000000 ) ) ;
#39 = EDGE_LOOP ( 'NONE', ( #46, #193, #305, #199 ) ) ;
#40 = AXIS2_PLACEMENT_3D ( 'NONE', #238, #128, #290 ) ;
#41 = APPROVAL ( #60, 'NEURÈENÝ' ) ;
#42 = CARTESIAN_POINT ( 'NONE',  ( 0.000000000000000000, 0.000000000000000000, 5.000000000000000000 ) ) ;
#43 = ORIENTED_EDGE ( 'NONE', *, *, #109, .T. ) ;
#44 = ORGANIZATION ( 'NEURÈENÝ', 'NEURÈENÝ', '' ) ;
#45 = CC_DESIGN_PERSON_AND_ORGANIZATION_ASSIGNMENT ( #231, #121, ( #95 ) ) ;
#46 = ORIENTED_EDGE ( 'NONE', *, *, #31, .F. ) ;
#47 = ORIENTED_EDGE ( 'NONE', *, *, #177, .T. ) ;
#48 = APPROVAL_ROLE ( '' ) ;
#49 = DIRECTION ( 'NONE',  ( 1.000000000000000000, 0.000000000000000000, 0.000000000000000000 ) ) ;
#50 = ORIENTED_EDGE ( 'NONE', *, *, #112, .T. ) ;
#51 = ORIENTED_EDGE ( 'NONE', *, *, #109, .F. ) ;
#52 = EDGE_CURVE ( 'NONE', #273, #72, #75, .T. ) ;
#53 = PERSON_AND_ORGANIZATION ( #244, #44 ) ;
#54 = DATE_TIME_ROLE ( 'creation_date' ) ;
#55 = ADVANCED_FACE ( 'NONE', ( #120 ), #253, .T. ) ;
#56 = PERSON_AND_ORGANIZATION ( #244, #44 ) ;
#57 = DIRECTION ( 'NONE',  ( 1.000000000000000000, 0.000000000000000000, -0.000000000000000000 ) ) ;
#58 = PERSON_AND_ORGANIZATION ( #244, #44 ) ;
#59 = FACE_OUTER_BOUND ( 'NONE', #201, .T. ) ;
#60 = APPROVAL_STATUS ( 'not_yet_approved' ) ;
#61 = EDGE_CURVE ( 'NONE', #113, #273, #176, .T. ) ;
#62 = LINE ( 'NONE', #24, #219 ) ;
#63 = CARTESIAN_POINT ( 'NONE',  ( -5.300000000000000711, 6.490628035480971924E-16, 4.999999999999991118 ) ) ;
#64 = DIRECTION ( 'NONE',  ( 1.000000000000000000, 0.000000000000000000, 0.000000000000000000 ) ) ;
#65 = EDGE_LOOP ( 'NONE', ( #221, #140, #50, #73 ) ) ;
#66 = CIRCLE ( 'NONE', #233, 5.100000000000001421 ) ;
#67 = LINE ( 'NONE', #299, #101 ) ;
#68 = DIRECTION ( 'NONE',  ( -1.000000000000000000, 0.000000000000000000, 0.000000000000000000 ) ) ;
#69 = APPLICATION_PROTOCOL_DEFINITION ( 'international standard', 'config_control_design', 1994, #306 ) ;
#70 = VERTEX_POINT ( 'NONE', #281 ) ;
#71 = COORDINATED_UNIVERSAL_TIME_OFFSET ( 1, 0, .AHEAD. ) ;
#72 = VERTEX_POINT ( 'NONE', #79 ) ;
#73 = ORIENTED_EDGE ( 'NONE', *, *, #61, .T. ) ;
#74 = AXIS2_PLACEMENT_3D ( 'NONE', #22, #183, #68 ) ;
#75 = CIRCLE ( 'NONE', #17, 0.1999999999999996503 ) ;
#76 = LINE ( 'NONE', #29, #196 ) ;
#77 = PERSON_AND_ORGANIZATION_ROLE ( 'creator' ) ;
#78 = LOCAL_TIME ( 11, 38, 2.000000000000000000, #126 ) ;
#79 = CARTESIAN_POINT ( 'NONE',  ( 5.300000000000000711, 0.000000000000000000, 4.999999999999991118 ) ) ;
#80 = APPROVAL_STATUS ( 'not_yet_approved' ) ;
#81 = CARTESIAN_POINT ( 'NONE',  ( 8.000000000000000000, 9.797174393178825657E-16, 0.000000000000000000 ) ) ;
#82 = DIRECTION ( 'NONE',  ( 0.000000000000000000, 0.000000000000000000, 1.000000000000000000 ) ) ;
#83 = DIRECTION ( 'NONE',  ( 0.000000000000000000, 0.000000000000000000, 1.000000000000000000 ) ) ;
#84 = CC_DESIGN_APPROVAL ( #163, ( #95 ) ) ;
#85 = LINE ( 'NONE', #213, #198 ) ;
#86 = DIRECTION ( 'NONE',  ( 0.000000000000000000, 0.000000000000000000, 1.000000000000000000 ) ) ;
#87 = DIRECTION ( 'NONE',  ( -1.000000000000000000, 0.000000000000000000, 0.000000000000000000 ) ) ;
#88 = AXIS2_PLACEMENT_3D ( 'NONE', #162, #234, #123 ) ;
#89 = DIRECTION ( 'NONE',  ( 1.000000000000000000, 0.000000000000000000, 0.000000000000000000 ) ) ;
#90 = AXIS2_PLACEMENT_3D ( 'NONE', #127, #150, #64 ) ;
#91 = VERTEX_POINT ( 'NONE', #141 ) ;
#92 = CC_DESIGN_PERSON_AND_ORGANIZATION_ASSIGNMENT ( #263, #256, ( #1 ) ) ;
#93 = DIRECTION ( 'NONE',  ( -0.000000000000000000, -0.000000000000000000, -1.000000000000000000 ) ) ;
#94 = ORIENTED_EDGE ( 'NONE', *, *, #61, .F. ) ;
#95 = SECURITY_CLASSIFICATION ( '', '', #7 ) ;
#96 = CIRCLE ( 'NONE', #259, 5.300000000000000711 ) ;
#97 = ORIENTED_EDGE ( 'NONE', *, *, #146, .T. ) ;
#98 = EDGE_CURVE ( 'NONE', #91, #298, #254, .T. ) ;
#99 = PERSON_AND_ORGANIZATION ( #244, #44 ) ;
#100 = AXIS2_PLACEMENT_3D ( 'NONE', #257, #237, #2 ) ;
#101 = VECTOR ( 'NONE', #93, 1000.000000000000000 ) ;
#102 = ADVANCED_FACE ( 'NONE', ( #142 ), #186, .F. ) ;
#103 = DIRECTION ( 'NONE',  ( -0.000000000000000000, -0.000000000000000000, -1.000000000000000000 ) ) ;
#104 = CALENDAR_DATE ( 2022, 20, 6 ) ;
#105 = CARTESIAN_POINT ( 'NONE',  ( 8.000000000000000000, 9.797174393178825657E-16, 5.000000000000000000 ) ) ;
#106 = FACE_OUTER_BOUND ( 'NONE', #246, .T. ) ;
#107 = CIRCLE ( 'NONE', #268, 5.100000000000001421 ) ;
#108 = CARTESIAN_POINT ( 'NONE',  ( 0.000000000000000000, 0.000000000000000000, 5.000000000000000000 ) ) ;
#109 = EDGE_CURVE ( 'NONE', #70, #252, #296, .T. ) ;
#110 = PLANE ( 'NONE',  #225 ) ;
#111 = DIRECTION ( 'NONE',  ( -0.000000000000000000, -0.000000000000000000, -1.000000000000000000 ) ) ;
#112 = EDGE_CURVE ( 'NONE', #270, #113, #76, .T. ) ;
#113 = VERTEX_POINT ( 'NONE', #209 ) ;
#114 = APPROVAL_PERSON_ORGANIZATION ( #53, #248, #48 ) ;
#115 = CIRCLE ( 'NONE', #90, 8.000000000000000000 ) ;
#116 = ORIENTED_EDGE ( 'NONE', *, *, #284, .T. ) ;
#117 = ADVANCED_BREP_SHAPE_REPRESENTATION ( '371e', ( #232, #217 ), #207 ) ;
#118 = CARTESIAN_POINT ( 'NONE',  ( 5.300000000000000711, 0.000000000000000000, 5.199999999999982414 ) ) ;
#119 =( NAMED_UNIT ( * ) PLANE_ANGLE_UNIT ( ) SI_UNIT ( $, .RADIAN. ) );
#120 = FACE_OUTER_BOUND ( 'NONE', #134, .T. ) ;
#121 = PERSON_AND_ORGANIZATION_ROLE ( 'classification_officer' ) ;
#122 = COORDINATED_UNIVERSAL_TIME_OFFSET ( 1, 0, .AHEAD. ) ;
#123 = DIRECTION ( 'NONE',  ( 1.000000000000000000, 0.000000000000000000, -0.000000000000000000 ) ) ;
#124 = APPROVAL_PERSON_ORGANIZATION ( #56, #41, #164 ) ;
#125 = DIRECTION ( 'NONE',  ( -0.000000000000000000, -0.000000000000000000, -1.000000000000000000 ) ) ;
#126 = COORDINATED_UNIVERSAL_TIME_OFFSET ( 1, 0, .AHEAD. ) ;
#127 = CARTESIAN_POINT ( 'NONE',  ( 0.000000000000000000, 0.000000000000000000, 0.000000000000000000 ) ) ;
#128 = DIRECTION ( 'NONE',  ( 0.000000000000000000, 0.000000000000000000, 1.000000000000000000 ) ) ;
#129 = CIRCLE ( 'NONE', #297, 5.300000000000000711 ) ;
#130 = CARTESIAN_POINT ( 'NONE',  ( -5.300000000000000711, 6.490628035480972910E-16, 5.199999999999982414 ) ) ;
#131 = DIRECTION ( 'NONE',  ( -0.000000000000000000, -0.000000000000000000, -1.000000000000000000 ) ) ;
#132 = CC_DESIGN_APPROVAL ( #41, ( #148 ) ) ;
#133 = EDGE_LOOP ( 'NONE', ( #276, #197 ) ) ;
#134 = EDGE_LOOP ( 'NONE', ( #179, #116, #174, #158 ) ) ;
#135 = LOCAL_TIME ( 11, 38, 2.000000000000000000, #165 ) ;
#136 = CALENDAR_DATE ( 2022, 20, 6 ) ;
#137 = CIRCLE ( 'NONE', #3, 5.100000000000001421 ) ;
#138 = VERTEX_POINT ( 'NONE', #6 ) ;
#139 = APPLICATION_CONTEXT ( 'configuration controlled 3d designs of mechanical parts and assemblies' ) ;
#140 = ORIENTED_EDGE ( 'NONE', *, *, #35, .F. ) ;
#141 = CARTESIAN_POINT ( 'NONE',  ( -8.000000000000000000, 0.000000000000000000, 0.000000000000000000 ) ) ;
#142 = FACE_OUTER_BOUND ( 'NONE', #133, .T. ) ;
#143 = AXIS2_PLACEMENT_3D ( 'NONE', #289, #83, #170 ) ;
#144 = CALENDAR_DATE ( 2022, 20, 6 ) ;
#145 = DIRECTION ( 'NONE',  ( 1.000000000000000000, 0.000000000000000000, 0.000000000000000000 ) ) ;
#146 = EDGE_CURVE ( 'NONE', #252, #70, #269, .T. ) ;
#147 = CARTESIAN_POINT ( 'NONE',  ( 0.000000000000000000, 0.000000000000000000, 1004.999999999999886 ) ) ;
#148 = PRODUCT_DEFINITION_FORMATION_WITH_SPECIFIED_SOURCE ( 'LIBOVOLNÝ', '', #291, .NOT_KNOWN. ) ;
#149 = EDGE_LOOP ( 'NONE', ( #43, #97 ) ) ;
#150 = DIRECTION ( 'NONE',  ( 0.000000000000000000, 0.000000000000000000, 1.000000000000000000 ) ) ;
#151 = DIRECTION ( 'NONE',  ( 0.000000000000000000, 0.000000000000000000, 1.000000000000000000 ) ) ;
#152 = ORIENTED_EDGE ( 'NONE', *, *, #98, .T. ) ;
#153 = ORIENTED_EDGE ( 'NONE', *, *, #230, .F. ) ;
#154 = APPROVAL_DATE_TIME ( #226, #248 ) ;
#155 = CC_DESIGN_SECURITY_CLASSIFICATION ( #95, ( #148 ) ) ;
#156 = EDGE_CURVE ( 'NONE', #298, #91, #115, .T. ) ;
#157 = ORIENTED_EDGE ( 'NONE', *, *, #31, .T. ) ;
#158 = ORIENTED_EDGE ( 'NONE', *, *, #26, .F. ) ;
#159 = CLOSED_SHELL ( 'NONE', ( #194, #240, #55, #160, #294, #102, #15, #245, #271 ) ) ;
#160 = ADVANCED_FACE ( 'NONE', ( #293 ), #19, .T. ) ;
#161 = TOROIDAL_SURFACE ( 'NONE', #40, 5.300000000000000711, 0.2000000000000000111 ) ;
#162 = CARTESIAN_POINT ( 'NONE',  ( 0.000000000000000000, 0.000000000000000000, 0.000000000000000000 ) ) ;
#163 = APPROVAL ( #80, 'NEURÈENÝ' ) ;
#164 = APPROVAL_ROLE ( '' ) ;
#165 = COORDINATED_UNIVERSAL_TIME_OFFSET ( 1, 0, .AHEAD. ) ;
#166 = DATE_AND_TIME ( #144, #304 ) ;
#167 = CARTESIAN_POINT ( 'NONE',  ( 0.000000000000000000, 0.000000000000000000, 1004.999999999999886 ) ) ;
#168 = DIRECTION ( 'NONE',  ( 1.000000000000000000, 0.000000000000000000, 0.000000000000000000 ) ) ;
#169 = DIRECTION ( 'NONE',  ( -1.000000000000000000, 1.224646799147353454E-16, 0.000000000000000000 ) ) ;
#170 = DIRECTION ( 'NONE',  ( 1.000000000000000000, 0.000000000000000000, 0.000000000000000000 ) ) ;
#171 = ORIENTED_EDGE ( 'NONE', *, *, #26, .T. ) ;
#172 = CC_DESIGN_DATE_AND_TIME_ASSIGNMENT ( #285, #205, ( #95 ) ) ;
#173 = DIRECTION ( 'NONE',  ( 1.224646799147353207E-16, 1.000000000000000000, -0.000000000000000000 ) ) ;
#174 = ORIENTED_EDGE ( 'NONE', *, *, #156, .T. ) ;
#175 = FACE_OUTER_BOUND ( 'NONE', #301, .T. ) ;
#176 = CIRCLE ( 'NONE', #223, 5.100000000000001421 ) ;
#177 = EDGE_CURVE ( 'NONE', #72, #181, #129, .T. ) ;
#178 = EDGE_LOOP ( 'NONE', ( #47, #216 ) ) ;
#179 = ORIENTED_EDGE ( 'NONE', *, *, #146, .F. ) ;
#180 = CARTESIAN_POINT ( 'NONE',  ( 0.000000000000000000, 0.000000000000000000, 1004.999999999999886 ) ) ;
#181 = VERTEX_POINT ( 'NONE', #63 ) ;
#182 = AXIS2_PLACEMENT_3D ( 'NONE', #307, #260, #57 ) ;
#183 = DIRECTION ( 'NONE',  ( -0.000000000000000000, -0.000000000000000000, -1.000000000000000000 ) ) ;
#184 = CARTESIAN_POINT ( 'NONE',  ( 0.000000000000000000, 0.000000000000000000, 0.000000000000000000 ) ) ;
#185 = DIRECTION ( 'NONE',  ( 1.000000000000000000, 0.000000000000000000, 0.000000000000000000 ) ) ;
#186 = PLANE ( 'NONE',  #88 ) ;
#187 = PERSON_AND_ORGANIZATION ( #244, #44 ) ;
#188 = CC_DESIGN_DATE_AND_TIME_ASSIGNMENT ( #258, #54, ( #1 ) ) ;
#189 = CC_DESIGN_APPROVAL ( #248, ( #1 ) ) ;
#190 = PRODUCT_DEFINITION_SHAPE ( 'NONE', 'NONE',  #1 ) ;
#191 = SHAPE_DEFINITION_REPRESENTATION ( #190, #117 ) ;
#192 = CARTESIAN_POINT ( 'NONE',  ( 0.000000000000000000, 0.000000000000000000, 5.000000000000000000 ) ) ;
#193 = ORIENTED_EDGE ( 'NONE', *, *, #212, .T. ) ;
#194 = ADVANCED_FACE ( 'NONE', ( #175 ), #161, .F. ) ;
#195 = DIRECTION ( 'NONE',  ( -1.000000000000000000, 0.000000000000000000, 0.000000000000000000 ) ) ;
#196 = VECTOR ( 'NONE', #125, 1000.000000000000000 ) ;
#197 = ORIENTED_EDGE ( 'NONE', *, *, #156, .F. ) ;
#198 = VECTOR ( 'NONE', #9, 1000.000000000000000 ) ;
#199 = ORIENTED_EDGE ( 'NONE', *, *, #112, .F. ) ;
#200 = DIRECTION ( 'NONE',  ( -0.000000000000000000, -0.000000000000000000, -1.000000000000000000 ) ) ;
#201 = EDGE_LOOP ( 'NONE', ( #265, #157 ) ) ;
#202 = DESIGN_CONTEXT ( 'detailed design', #139, 'design' ) ;
#203 = ORIENTED_EDGE ( 'NONE', *, *, #52, .T. ) ;
#204 = PLANE ( 'NONE',  #182 ) ;
#205 = DATE_TIME_ROLE ( 'classification_date' ) ;
#206 = APPROVAL_ROLE ( '' ) ;
#207 =( GEOMETRIC_REPRESENTATION_CONTEXT ( 3 ) GLOBAL_UNCERTAINTY_ASSIGNED_CONTEXT ( ( #288 ) ) GLOBAL_UNIT_ASSIGNED_CONTEXT ( ( #30, #119, #292 ) ) REPRESENTATION_CONTEXT ( 'NONE', 'WORKASPACE' ) );
#208 = DATE_AND_TIME ( #261, #28 ) ;
#209 = CARTESIAN_POINT ( 'NONE',  ( -5.100000000000001421, 0.000000000000000000, 5.199999999999982414 ) ) ;
#210 = APPROVAL_DATE_TIME ( #208, #41 ) ;
#211 = PERSON_AND_ORGANIZATION_ROLE ( 'design_supplier' ) ;
#212 = EDGE_CURVE ( 'NONE', #138, #273, #85, .T. ) ;
#213 = CARTESIAN_POINT ( 'NONE',  ( 5.100000000000001421, 6.245698675651502811E-16, 1004.999999999999886 ) ) ;
#214 = CARTESIAN_POINT ( 'NONE',  ( 0.000000000000000000, 0.000000000000000000, 5.199999999999982414 ) ) ;
#215 = DIRECTION ( 'NONE',  ( 0.000000000000000000, 0.000000000000000000, 1.000000000000000000 ) ) ;
#216 = ORIENTED_EDGE ( 'NONE', *, *, #303, .T. ) ;
#217 = AXIS2_PLACEMENT_3D ( 'NONE', #184, #86, #302 ) ;
#218 = DIRECTION ( 'NONE',  ( -0.000000000000000000, -0.000000000000000000, -1.000000000000000000 ) ) ;
#219 = VECTOR ( 'NONE', #200, 1000.000000000000000 ) ;
#220 = ORIENTED_EDGE ( 'NONE', *, *, #266, .F. ) ;
#221 = ORIENTED_EDGE ( 'NONE', *, *, #212, .F. ) ;
#222 = ORIENTED_EDGE ( 'NONE', *, *, #230, .T. ) ;
#223 = AXIS2_PLACEMENT_3D ( 'NONE', #295, #247, #89 ) ;
#224 = FACE_OUTER_BOUND ( 'NONE', #65, .T. ) ;
#225 = AXIS2_PLACEMENT_3D ( 'NONE', #147, #267, #38 ) ;
#226 = DATE_AND_TIME ( #136, #280 ) ;
#227 = CARTESIAN_POINT ( 'NONE',  ( 0.000000000000000000, 0.000000000000000000, 1004.999999999999886 ) ) ;
#228 = EDGE_LOOP ( 'NONE', ( #287, #51, #171, #152 ) ) ;
#229 = FACE_OUTER_BOUND ( 'NONE', #149, .T. ) ;
#230 = EDGE_CURVE ( 'NONE', #113, #181, #283, .T. ) ;
#231 = PERSON_AND_ORGANIZATION ( #244, #44 ) ;
#232 = MANIFOLD_SOLID_BREP ( 'Zaoblit1', #159 ) ;
#233 = AXIS2_PLACEMENT_3D ( 'NONE', #180, #251, #49 ) ;
#234 = DIRECTION ( 'NONE',  ( 0.000000000000000000, 0.000000000000000000, 1.000000000000000000 ) ) ;
#235 = APPROVAL_PERSON_ORGANIZATION ( #58, #163, #206 ) ;
#236 = AXIS2_PLACEMENT_3D ( 'NONE', #192, #103, #87 ) ;
#237 = DIRECTION ( 'NONE',  ( 0.000000000000000000, 0.000000000000000000, 1.000000000000000000 ) ) ;
#238 = CARTESIAN_POINT ( 'NONE',  ( 0.000000000000000000, 0.000000000000000000, 5.199999999999982414 ) ) ;
#239 = CALENDAR_DATE ( 2022, 20, 6 ) ;
#240 = ADVANCED_FACE ( 'NONE', ( #241 ), #12, .T. ) ;
#241 = FACE_OUTER_BOUND ( 'NONE', #39, .T. ) ;
#242 = AXIS2_PLACEMENT_3D ( 'NONE', #130, #173, #169 ) ;
#243 = DIRECTION ( 'NONE',  ( 1.000000000000000000, 0.000000000000000000, 0.000000000000000000 ) ) ;
#244 = PERSON ( 'NEURÈENÝ', 'NEURÈENÝ', 'NEURÈENÝ', ('NEURÈENÝ'), ('NEURÈENÝ'), ('NEURÈENÝ') ) ;
#245 = ADVANCED_FACE ( 'NONE', ( #59 ), #110, .T. ) ;
#246 = EDGE_LOOP ( 'NONE', ( #153, #220, #203, #249 ) ) ;
#247 = DIRECTION ( 'NONE',  ( 0.000000000000000000, 0.000000000000000000, 1.000000000000000000 ) ) ;
#248 = APPROVAL ( #18, 'NEURÈENÝ' ) ;
#249 = ORIENTED_EDGE ( 'NONE', *, *, #303, .F. ) ;
#250 = PERSON_AND_ORGANIZATION_ROLE ( 'design_owner' ) ;
#251 = DIRECTION ( 'NONE',  ( 0.000000000000000000, 0.000000000000000000, 1.000000000000000000 ) ) ;
#252 = VERTEX_POINT ( 'NONE', #105 ) ;
#253 = CYLINDRICAL_SURFACE ( 'NONE', #279, 8.000000000000000000 ) ;
#254 = CIRCLE ( 'NONE', #100, 8.000000000000000000 ) ;
#255 = CC_DESIGN_PERSON_AND_ORGANIZATION_ASSIGNMENT ( #99, #250, ( #291 ) ) ;
#256 = PERSON_AND_ORGANIZATION_ROLE ( 'creator' ) ;
#257 = CARTESIAN_POINT ( 'NONE',  ( 0.000000000000000000, 0.000000000000000000, 0.000000000000000000 ) ) ;
#258 = DATE_AND_TIME ( #104, #135 ) ;
#259 = AXIS2_PLACEMENT_3D ( 'NONE', #8, #36, #168 ) ;
#260 = DIRECTION ( 'NONE',  ( 0.000000000000000000, 0.000000000000000000, 1.000000000000000000 ) ) ;
#261 = CALENDAR_DATE ( 2022, 20, 6 ) ;
#262 = DIRECTION ( 'NONE',  ( -1.000000000000000000, 0.000000000000000000, 0.000000000000000000 ) ) ;
#263 = PERSON_AND_ORGANIZATION ( #244, #44 ) ;
#264 = PRODUCT_RELATED_PRODUCT_CATEGORY ( 'detail', '', ( #291 ) ) ;
#265 = ORIENTED_EDGE ( 'NONE', *, *, #35, .T. ) ;
#266 = EDGE_CURVE ( 'NONE', #273, #113, #137, .T. ) ;
#267 = DIRECTION ( 'NONE',  ( 0.000000000000000000, 0.000000000000000000, 1.000000000000000000 ) ) ;
#268 = AXIS2_PLACEMENT_3D ( 'NONE', #227, #151, #25 ) ;
#269 = CIRCLE ( 'NONE', #11, 8.000000000000000000 ) ;
#270 = VERTEX_POINT ( 'NONE', #14 ) ;
#271 = ADVANCED_FACE ( 'NONE', ( #106 ), #275, .F. ) ;
#272 = CYLINDRICAL_SURFACE ( 'NONE', #74, 5.100000000000001421 ) ;
#273 = VERTEX_POINT ( 'NONE', #16 ) ;
#274 = DIRECTION ( 'NONE',  ( 0.000000000000000000, -1.000000000000000000, 0.000000000000000000 ) ) ;
#275 = TOROIDAL_SURFACE ( 'NONE', #143, 5.300000000000000711, 0.2000000000000000111 ) ;
#276 = ORIENTED_EDGE ( 'NONE', *, *, #98, .F. ) ;
#277 = MECHANICAL_CONTEXT ( 'NONE', #306, 'mechanical' ) ;
#278 = APPLICATION_PROTOCOL_DEFINITION ( 'international standard', 'config_control_design', 1994, #139 ) ;
#279 = AXIS2_PLACEMENT_3D ( 'NONE', #20, #111, #195 ) ;
#280 = LOCAL_TIME ( 11, 38, 2.000000000000000000, #71 ) ;
#281 = CARTESIAN_POINT ( 'NONE',  ( -8.000000000000000000, 0.000000000000000000, 5.000000000000000000 ) ) ;
#282 = CC_DESIGN_PERSON_AND_ORGANIZATION_ASSIGNMENT ( #33, #77, ( #148 ) ) ;
#283 = CIRCLE ( 'NONE', #242, 0.1999999999999996503 ) ;
#284 = EDGE_CURVE ( 'NONE', #252, #298, #62, .T. ) ;
#285 = DATE_AND_TIME ( #239, #78 ) ;
#286 = DIRECTION ( 'NONE',  ( 1.000000000000000000, 0.000000000000000000, 0.000000000000000000 ) ) ;
#287 = ORIENTED_EDGE ( 'NONE', *, *, #284, .F. ) ;
#288 = UNCERTAINTY_MEASURE_WITH_UNIT (LENGTH_MEASURE( 1.000000000000000082E-05 ), #30, 'distance_accuracy_value', 'NONE');
#289 = CARTESIAN_POINT ( 'NONE',  ( 0.000000000000000000, 0.000000000000000000, 5.199999999999982414 ) ) ;
#290 = DIRECTION ( 'NONE',  ( 1.000000000000000000, 0.000000000000000000, 0.000000000000000000 ) ) ;
#291 = PRODUCT ( '371e', '371e', '', ( #277 ) ) ;
#292 =( NAMED_UNIT ( * ) SI_UNIT ( $, .STERADIAN. ) SOLID_ANGLE_UNIT ( ) );
#293 = FACE_OUTER_BOUND ( 'NONE', #228, .T. ) ;
#294 = ADVANCED_FACE ( 'NONE', ( #300, #229 ), #204, .T. ) ;
#295 = CARTESIAN_POINT ( 'NONE',  ( 0.000000000000000000, 0.000000000000000000, 5.199999999999982414 ) ) ;
#296 = CIRCLE ( 'NONE', #37, 8.000000000000000000 ) ;
#297 = AXIS2_PLACEMENT_3D ( 'NONE', #42, #131, #145 ) ;
#298 = VERTEX_POINT ( 'NONE', #81 ) ;
#299 = CARTESIAN_POINT ( 'NONE',  ( -8.000000000000000000, 0.000000000000000000, 5.000000000000000000 ) ) ;
#300 = FACE_BOUND ( 'NONE', #178, .T. ) ;
#301 = EDGE_LOOP ( 'NONE', ( #94, #222, #13, #23 ) ) ;
#302 = DIRECTION ( 'NONE',  ( 1.000000000000000000, 0.000000000000000000, 0.000000000000000000 ) ) ;
#303 = EDGE_CURVE ( 'NONE', #181, #72, #96, .T. ) ;
#304 = LOCAL_TIME ( 11, 38, 2.000000000000000000, #5 ) ;
#305 = ORIENTED_EDGE ( 'NONE', *, *, #266, .T. ) ;
#306 = APPLICATION_CONTEXT ( 'configuration controlled 3d designs of mechanical parts and assemblies' ) ;
#307 = CARTESIAN_POINT ( 'NONE',  ( 0.000000000000000000, 0.000000000000000000, 5.000000000000000000 ) ) ;
ENDSEC;
END-ISO-10303-21;
