ISO-10303-21;
HEADER;
FILE_DESCRIPTION (( 'STEP AP203' ),
    '1' );
FILE_NAME ('03b8.STEP',
    '2022-06-20T10:09:33',
    ( '' ),
    ( '' ),
    'SwSTEP 2.0',
    'SolidWorks 2019',
    '' );
FILE_SCHEMA (( 'CONFIG_CONTROL_DESIGN' ));
ENDSEC;

DATA;
#1 = DATE_AND_TIME ( #97, #286 ) ;
#2 = DIRECTION ( 'NONE',  ( 1.224646799147353207E-16, 1.000000000000000000, -0.000000000000000000 ) ) ;
#3 = VERTEX_POINT ( 'NONE', #214 ) ;
#4 = AXIS2_PLACEMENT_3D ( 'NONE', #303, #235, #113 ) ;
#5 = ORIENTED_EDGE ( 'NONE', *, *, #173, .F. ) ;
#6 = APPROVAL_DATE_TIME ( #192, #34 ) ;
#7 = ORIENTED_EDGE ( 'NONE', *, *, #173, .T. ) ;
#8 = COORDINATED_UNIVERSAL_TIME_OFFSET ( 1, 0, .AHEAD. ) ;
#9 = ORIENTED_EDGE ( 'NONE', *, *, #84, .F. ) ;
#10 = APPROVAL_PERSON_ORGANIZATION ( #91, #240, #254 ) ;
#11 = DIRECTION ( 'NONE',  ( -0.000000000000000000, -0.000000000000000000, -1.000000000000000000 ) ) ;
#12 = EDGE_CURVE ( 'NONE', #3, #185, #146, .T. ) ;
#13 = CYLINDRICAL_SURFACE ( 'NONE', #256, 4.000000000000000000 ) ;
#14 = DIRECTION ( 'NONE',  ( -0.000000000000000000, -0.000000000000000000, -1.000000000000000000 ) ) ;
#15 = AXIS2_PLACEMENT_3D ( 'NONE', #19, #302, #280 ) ;
#16 = FACE_OUTER_BOUND ( 'NONE', #162, .T. ) ;
#17 = DIRECTION ( 'NONE',  ( 0.000000000000000000, 0.000000000000000000, 1.000000000000000000 ) ) ;
#18 = AXIS2_PLACEMENT_3D ( 'NONE', #26, #288, #268 ) ;
#19 = CARTESIAN_POINT ( 'NONE',  ( 0.000000000000000000, 0.000000000000000000, 0.000000000000000000 ) ) ;
#20 = CARTESIAN_POINT ( 'NONE',  ( -4.000000000000000000, 0.000000000000000000, 0.000000000000000000 ) ) ;
#21 = PRODUCT_DEFINITION ( 'NEZNÁMÝ', '', #129, #246 ) ;
#22 = PERSON_AND_ORGANIZATION ( #202, #142 ) ;
#23 = CARTESIAN_POINT ( 'NONE',  ( 0.000000000000000000, 0.000000000000000000, 0.000000000000000000 ) ) ;
#24 = CARTESIAN_POINT ( 'NONE',  ( 0.000000000000000000, 0.000000000000000000, 0.000000000000000000 ) ) ;
#25 = SECURITY_CLASSIFICATION_LEVEL ( 'unclassified' ) ;
#26 = CARTESIAN_POINT ( 'NONE',  ( 0.000000000000000000, 0.000000000000000000, 3.200000000000008171 ) ) ;
#27 = ORIENTED_EDGE ( 'NONE', *, *, #124, .F. ) ;
#28 = CARTESIAN_POINT ( 'NONE',  ( -2.200000000000000178, 2.694222958124177006E-16, 3.200000000000008171 ) ) ;
#29 = VECTOR ( 'NONE', #65, 1000.000000000000000 ) ;
#30 = PERSON_AND_ORGANIZATION_ROLE ( 'classification_officer' ) ;
#31 = ORIENTED_EDGE ( 'NONE', *, *, #140, .T. ) ;
#32 = DATE_AND_TIME ( #175, #64 ) ;
#33 = EDGE_LOOP ( 'NONE', ( #86, #121 ) ) ;
#34 = APPROVAL ( #99, 'NEURÈENÝ' ) ;
#35 = DIRECTION ( 'NONE',  ( 1.000000000000000000, 0.000000000000000000, 0.000000000000000000 ) ) ;
#36 = DIRECTION ( 'NONE',  ( 0.000000000000000000, 0.000000000000000000, 1.000000000000000000 ) ) ;
#37 = DIRECTION ( 'NONE',  ( 0.000000000000000000, 0.000000000000000000, 1.000000000000000000 ) ) ;
#38 = DIRECTION ( 'NONE',  ( 0.000000000000000000, -1.000000000000000000, 0.000000000000000000 ) ) ;
#39 = CIRCLE ( 'NONE', #281, 2.000000000000000000 ) ;
#40 = FACE_OUTER_BOUND ( 'NONE', #127, .T. ) ;
#41 = APPROVAL_DATE_TIME ( #283, #240 ) ;
#42 = ADVANCED_FACE ( 'NONE', ( #153 ), #123, .T. ) ;
#43 = AXIS2_PLACEMENT_3D ( 'NONE', #24, #258, #44 ) ;
#44 = DIRECTION ( 'NONE',  ( 1.000000000000000000, 0.000000000000000000, -0.000000000000000000 ) ) ;
#45 = AXIS2_PLACEMENT_3D ( 'NONE', #100, #270, #75 ) ;
#46 = FACE_OUTER_BOUND ( 'NONE', #219, .T. ) ;
#47 = LOCAL_TIME ( 12, 9, 33.00000000000000000, #70 ) ;
#48 = ORIENTED_EDGE ( 'NONE', *, *, #264, .F. ) ;
#49 = EDGE_LOOP ( 'NONE', ( #196, #7, #125, #265 ) ) ;
#50 = APPLICATION_CONTEXT ( 'configuration controlled 3d designs of mechanical parts and assemblies' ) ;
#51 = EDGE_CURVE ( 'NONE', #57, #3, #109, .T. ) ;
#52 = CALENDAR_DATE ( 2022, 20, 6 ) ;
#53 = VERTEX_POINT ( 'NONE', #176 ) ;
#54 = DIRECTION ( 'NONE',  ( 1.000000000000000000, 0.000000000000000000, 0.000000000000000000 ) ) ;
#55 = EDGE_CURVE ( 'NONE', #185, #287, #190, .T. ) ;
#56 = CIRCLE ( 'NONE', #88, 2.000000000000000000 ) ;
#57 = VERTEX_POINT ( 'NONE', #152 ) ;
#58 = CIRCLE ( 'NONE', #220, 4.000000000000000000 ) ;
#59 = DIRECTION ( 'NONE',  ( 1.000000000000000000, 0.000000000000000000, 0.000000000000000000 ) ) ;
#60 = DIRECTION ( 'NONE',  ( 1.000000000000000000, 0.000000000000000000, 0.000000000000000000 ) ) ;
#61 = DIRECTION ( 'NONE',  ( -1.000000000000000000, 0.000000000000000000, 0.000000000000000000 ) ) ;
#62 = EDGE_CURVE ( 'NONE', #53, #223, #58, .T. ) ;
#63 = CARTESIAN_POINT ( 'NONE',  ( 0.000000000000000000, 0.000000000000000000, 3.000000000000000000 ) ) ;
#64 = LOCAL_TIME ( 12, 9, 33.00000000000000000, #122 ) ;
#65 = DIRECTION ( 'NONE',  ( -0.000000000000000000, -0.000000000000000000, -1.000000000000000000 ) ) ;
#66 = EDGE_CURVE ( 'NONE', #267, #98, #56, .T. ) ;
#67 = PERSON_AND_ORGANIZATION_ROLE ( 'creator' ) ;
#68 = PLANE ( 'NONE',  #4 ) ;
#69 = CC_DESIGN_PERSON_AND_ORGANIZATION_ASSIGNMENT ( #147, #221, ( #129 ) ) ;
#70 = COORDINATED_UNIVERSAL_TIME_OFFSET ( 1, 0, .AHEAD. ) ;
#71 = PERSON_AND_ORGANIZATION_ROLE ( 'creator' ) ;
#72 = VERTEX_POINT ( 'NONE', #81 ) ;
#73 = ORIENTED_EDGE ( 'NONE', *, *, #55, .F. ) ;
#74 = ORIENTED_EDGE ( 'NONE', *, *, #140, .F. ) ;
#75 = DIRECTION ( 'NONE',  ( -1.000000000000000000, 0.000000000000000000, 0.000000000000000000 ) ) ;
#76 = CIRCLE ( 'NONE', #96, 4.000000000000000000 ) ;
#77 = ORIENTED_EDGE ( 'NONE', *, *, #119, .F. ) ;
#78 = LINE ( 'NONE', #179, #117 ) ;
#79 = AXIS2_PLACEMENT_3D ( 'NONE', #251, #38, #273 ) ;
#80 = EDGE_CURVE ( 'NONE', #168, #53, #106, .T. ) ;
#81 = CARTESIAN_POINT ( 'NONE',  ( -4.000000000000000000, 0.000000000000000000, 3.000000000000000000 ) ) ;
#82 = CARTESIAN_POINT ( 'NONE',  ( 4.000000000000000000, 4.898587196589412829E-16, 3.000000000000000000 ) ) ;
#83 = CARTESIAN_POINT ( 'NONE',  ( 0.000000000000000000, 0.000000000000000000, 3.200000000000008171 ) ) ;
#84 = EDGE_CURVE ( 'NONE', #287, #185, #92, .T. ) ;
#85 = CC_DESIGN_APPROVAL ( #240, ( #21 ) ) ;
#86 = ORIENTED_EDGE ( 'NONE', *, *, #84, .T. ) ;
#87 = DATE_AND_TIME ( #230, #261 ) ;
#88 = AXIS2_PLACEMENT_3D ( 'NONE', #206, #183, #203 ) ;
#89 = LOCAL_TIME ( 12, 9, 33.00000000000000000, #93 ) ;
#90 = DIRECTION ( 'NONE',  ( -0.000000000000000000, -0.000000000000000000, -1.000000000000000000 ) ) ;
#91 = PERSON_AND_ORGANIZATION ( #202, #142 ) ;
#92 = CIRCLE ( 'NONE', #271, 2.200000000000000178 ) ;
#93 = COORDINATED_UNIVERSAL_TIME_OFFSET ( 1, 0, .AHEAD. ) ;
#94 = CARTESIAN_POINT ( 'NONE',  ( 0.000000000000000000, 0.000000000000000000, 0.000000000000000000 ) ) ;
#95 = CC_DESIGN_DATE_AND_TIME_ASSIGNMENT ( #87, #300, ( #21 ) ) ;
#96 = AXIS2_PLACEMENT_3D ( 'NONE', #272, #108, #201 ) ;
#97 = CALENDAR_DATE ( 2022, 20, 6 ) ;
#98 = VERTEX_POINT ( 'NONE', #132 ) ;
#99 = APPROVAL_STATUS ( 'not_yet_approved' ) ;
#100 = CARTESIAN_POINT ( 'NONE',  ( 0.000000000000000000, 0.000000000000000000, 253.0000000000000000 ) ) ;
#101 = ORIENTED_EDGE ( 'NONE', *, *, #119, .T. ) ;
#102 = ORIENTED_EDGE ( 'NONE', *, *, #66, .T. ) ;
#103 = DIRECTION ( 'NONE',  ( 1.000000000000000000, 0.000000000000000000, 0.000000000000000000 ) ) ;
#104 = DIRECTION ( 'NONE',  ( 1.000000000000000000, 0.000000000000000000, 0.000000000000000000 ) ) ;
#105 = ADVANCED_FACE ( 'NONE', ( #278 ), #13, .T. ) ;
#106 = LINE ( 'NONE', #296, #255 ) ;
#107 = DIRECTION ( 'NONE',  ( 0.000000000000000000, 0.000000000000000000, 1.000000000000000000 ) ) ;
#108 = DIRECTION ( 'NONE',  ( 0.000000000000000000, 0.000000000000000000, 1.000000000000000000 ) ) ;
#109 = CIRCLE ( 'NONE', #18, 2.000000000000000000 ) ;
#110 = ADVANCED_FACE ( 'NONE', ( #40 ), #170, .F. ) ;
#111 = PERSON_AND_ORGANIZATION ( #202, #142 ) ;
#112 = ORIENTED_EDGE ( 'NONE', *, *, #124, .T. ) ;
#113 = DIRECTION ( 'NONE',  ( 1.000000000000000000, 0.000000000000000000, -0.000000000000000000 ) ) ;
#114 = EDGE_LOOP ( 'NONE', ( #112, #150 ) ) ;
#115 = APPROVAL_STATUS ( 'not_yet_approved' ) ;
#116 = FACE_OUTER_BOUND ( 'NONE', #200, .T. ) ;
#117 = VECTOR ( 'NONE', #14, 1000.000000000000000 ) ;
#118 = ORIENTED_EDGE ( 'NONE', *, *, #264, .T. ) ;
#119 = EDGE_CURVE ( 'NONE', #57, #287, #137, .T. ) ;
#120 = APPLICATION_CONTEXT ( 'configuration controlled 3d designs of mechanical parts and assemblies' ) ;
#121 = ORIENTED_EDGE ( 'NONE', *, *, #55, .T. ) ;
#122 = COORDINATED_UNIVERSAL_TIME_OFFSET ( 1, 0, .AHEAD. ) ;
#123 = CYLINDRICAL_SURFACE ( 'NONE', #45, 2.000000000000000000 ) ;
#124 = EDGE_CURVE ( 'NONE', #72, #168, #248, .T. ) ;
#125 = ORIENTED_EDGE ( 'NONE', *, *, #51, .T. ) ;
#126 = SHAPE_DEFINITION_REPRESENTATION ( #143, #184 ) ;
#127 = EDGE_LOOP ( 'NONE', ( #172, #291, #9, #77 ) ) ;
#128 = CARTESIAN_POINT ( 'NONE',  ( -2.000000000000000000, 0.000000000000000000, 253.0000000000000000 ) ) ;
#129 = PRODUCT_DEFINITION_FORMATION_WITH_SPECIFIED_SOURCE ( 'LIBOVOLNÝ', '', #167, .NOT_KNOWN. ) ;
#130 = FACE_OUTER_BOUND ( 'NONE', #241, .T. ) ;
#131 = DIRECTION ( 'NONE',  ( -0.000000000000000000, -0.000000000000000000, -1.000000000000000000 ) ) ;
#132 = CARTESIAN_POINT ( 'NONE',  ( -2.000000000000000000, 0.000000000000000000, 253.0000000000000000 ) ) ;
#133 = UNCERTAINTY_MEASURE_WITH_UNIT (LENGTH_MEASURE( 1.000000000000000082E-05 ), #306, 'distance_accuracy_value', 'NONE');
#134 = EDGE_CURVE ( 'NONE', #98, #3, #178, .T. ) ;
#135 = CARTESIAN_POINT ( 'NONE',  ( 0.000000000000000000, 0.000000000000000000, 3.200000000000008171 ) ) ;
#136 =( NAMED_UNIT ( * ) PLANE_ANGLE_UNIT ( ) SI_UNIT ( $, .RADIAN. ) );
#137 = CIRCLE ( 'NONE', #79, 0.2000000000000000944 ) ;
#138 = MANIFOLD_SOLID_BREP ( 'Zaoblit1', #191 ) ;
#139 = CARTESIAN_POINT ( 'NONE',  ( 2.000000000000000000, 2.449293598294706414E-16, 253.0000000000000000 ) ) ;
#140 = EDGE_CURVE ( 'NONE', #98, #267, #304, .T. ) ;
#141 = CALENDAR_DATE ( 2022, 20, 6 ) ;
#142 = ORGANIZATION ( 'NEURÈENÝ', 'NEURÈENÝ', '' ) ;
#143 = PRODUCT_DEFINITION_SHAPE ( 'NONE', 'NONE',  #21 ) ;
#144 = EDGE_LOOP ( 'NONE', ( #5, #74, #243, #169 ) ) ;
#145 = ORIENTED_EDGE ( 'NONE', *, *, #12, .F. ) ;
#146 = CIRCLE ( 'NONE', #154, 0.2000000000000000944 ) ;
#147 = PERSON_AND_ORGANIZATION ( #202, #142 ) ;
#148 = ORIENTED_EDGE ( 'NONE', *, *, #62, .T. ) ;
#149 = APPROVAL_PERSON_ORGANIZATION ( #187, #205, #209 ) ;
#150 = ORIENTED_EDGE ( 'NONE', *, *, #181, .T. ) ;
#151 = CC_DESIGN_PERSON_AND_ORGANIZATION_ASSIGNMENT ( #213, #71, ( #129 ) ) ;
#152 = CARTESIAN_POINT ( 'NONE',  ( 2.000000000000000000, 2.449293598294706414E-16, 3.200000000000008171 ) ) ;
#153 = FACE_OUTER_BOUND ( 'NONE', #49, .T. ) ;
#154 = AXIS2_PLACEMENT_3D ( 'NONE', #28, #2, #177 ) ;
#155 = AXIS2_PLACEMENT_3D ( 'NONE', #135, #107, #35 ) ;
#156 = ADVANCED_FACE ( 'NONE', ( #16 ), #242, .F. ) ;
#157 = CARTESIAN_POINT ( 'NONE',  ( 0.000000000000000000, 0.000000000000000000, 3.200000000000008171 ) ) ;
#158 = CARTESIAN_POINT ( 'NONE',  ( 0.000000000000000000, 0.000000000000000000, 3.000000000000000000 ) ) ;
#159 = DIRECTION ( 'NONE',  ( 0.000000000000000000, 0.000000000000000000, 1.000000000000000000 ) ) ;
#160 = LINE ( 'NONE', #182, #233 ) ;
#161 = CYLINDRICAL_SURFACE ( 'NONE', #252, 2.000000000000000000 ) ;
#162 = EDGE_LOOP ( 'NONE', ( #145, #195, #101, #73 ) ) ;
#163 = CARTESIAN_POINT ( 'NONE',  ( 2.200000000000000178, 0.000000000000000000, 3.000000000000004441 ) ) ;
#164 = ADVANCED_FACE ( 'NONE', ( #250, #297 ), #229, .T. ) ;
#165 = DIRECTION ( 'NONE',  ( -1.000000000000000000, 0.000000000000000000, 0.000000000000000000 ) ) ;
#166 = FACE_OUTER_BOUND ( 'NONE', #144, .T. ) ;
#167 = PRODUCT ( '03b8', '03b8', '', ( #212 ) ) ;
#168 = VERTEX_POINT ( 'NONE', #82 ) ;
#169 = ORIENTED_EDGE ( 'NONE', *, *, #189, .T. ) ;
#170 = TOROIDAL_SURFACE ( 'NONE', #222, 2.200000000000000178, 0.2000000000000000111 ) ;
#171 = DATE_TIME_ROLE ( 'classification_date' ) ;
#172 = ORIENTED_EDGE ( 'NONE', *, *, #189, .F. ) ;
#173 = EDGE_CURVE ( 'NONE', #267, #57, #160, .T. ) ;
#174 = AXIS2_PLACEMENT_3D ( 'NONE', #294, #37, #60 ) ;
#175 = CALENDAR_DATE ( 2022, 20, 6 ) ;
#176 = CARTESIAN_POINT ( 'NONE',  ( 4.000000000000000000, 4.898587196589412829E-16, 0.000000000000000000 ) ) ;
#177 = DIRECTION ( 'NONE',  ( -1.000000000000000000, 1.224646799147353207E-16, 0.000000000000000000 ) ) ;
#178 = LINE ( 'NONE', #128, #29 ) ;
#179 = CARTESIAN_POINT ( 'NONE',  ( -4.000000000000000000, 0.000000000000000000, 3.000000000000000000 ) ) ;
#180 = DIRECTION ( 'NONE',  ( 1.000000000000000000, 0.000000000000000000, 0.000000000000000000 ) ) ;
#181 = EDGE_CURVE ( 'NONE', #168, #72, #76, .T. ) ;
#182 = CARTESIAN_POINT ( 'NONE',  ( 2.000000000000000000, 2.449293598294706414E-16, 253.0000000000000000 ) ) ;
#183 = DIRECTION ( 'NONE',  ( 0.000000000000000000, 0.000000000000000000, 1.000000000000000000 ) ) ;
#184 = ADVANCED_BREP_SHAPE_REPRESENTATION ( '03b8', ( #138, #236 ), #198 ) ;
#185 = VERTEX_POINT ( 'NONE', #292 ) ;
#186 = CC_DESIGN_PERSON_AND_ORGANIZATION_ASSIGNMENT ( #238, #30, ( #262 ) ) ;
#187 = PERSON_AND_ORGANIZATION ( #202, #142 ) ;
#188 = APPLICATION_PROTOCOL_DEFINITION ( 'international standard', 'config_control_design', 1994, #120 ) ;
#189 = EDGE_CURVE ( 'NONE', #3, #57, #39, .T. ) ;
#190 = CIRCLE ( 'NONE', #231, 2.200000000000000178 ) ;
#191 = CLOSED_SHELL ( 'NONE', ( #110, #42, #105, #207, #164, #276, #259, #216, #156 ) ) ;
#192 = DATE_AND_TIME ( #52, #89 ) ;
#193 = DIRECTION ( 'NONE',  ( 0.000000000000000000, 0.000000000000000000, 1.000000000000000000 ) ) ;
#194 = AXIS2_PLACEMENT_3D ( 'NONE', #227, #17, #204 ) ;
#195 = ORIENTED_EDGE ( 'NONE', *, *, #51, .F. ) ;
#196 = ORIENTED_EDGE ( 'NONE', *, *, #66, .F. ) ;
#197 = EDGE_LOOP ( 'NONE', ( #239, #215, #148, #237 ) ) ;
#198 =( GEOMETRIC_REPRESENTATION_CONTEXT ( 3 ) GLOBAL_UNCERTAINTY_ASSIGNED_CONTEXT ( ( #133 ) ) GLOBAL_UNIT_ASSIGNED_CONTEXT ( ( #306, #136, #208 ) ) REPRESENTATION_CONTEXT ( 'NONE', 'WORKASPACE' ) );
#199 = CC_DESIGN_APPROVAL ( #34, ( #262 ) ) ;
#200 = EDGE_LOOP ( 'NONE', ( #31, #102 ) ) ;
#201 = DIRECTION ( 'NONE',  ( 1.000000000000000000, 0.000000000000000000, 0.000000000000000000 ) ) ;
#202 = PERSON ( 'NEURÈENÝ', 'NEURÈENÝ', 'NEURÈENÝ', ('NEURÈENÝ'), ('NEURÈENÝ'), ('NEURÈENÝ') ) ;
#203 = DIRECTION ( 'NONE',  ( 1.000000000000000000, 0.000000000000000000, 0.000000000000000000 ) ) ;
#204 = DIRECTION ( 'NONE',  ( 1.000000000000000000, 0.000000000000000000, -0.000000000000000000 ) ) ;
#205 = APPROVAL ( #115, 'NEURÈENÝ' ) ;
#206 = CARTESIAN_POINT ( 'NONE',  ( 0.000000000000000000, 0.000000000000000000, 253.0000000000000000 ) ) ;
#207 = ADVANCED_FACE ( 'NONE', ( #130 ), #275, .T. ) ;
#208 =( NAMED_UNIT ( * ) SI_UNIT ( $, .STERADIAN. ) SOLID_ANGLE_UNIT ( ) );
#209 = APPROVAL_ROLE ( '' ) ;
#210 = DIRECTION ( 'NONE',  ( 0.000000000000000000, 0.000000000000000000, 1.000000000000000000 ) ) ;
#211 = EDGE_CURVE ( 'NONE', #72, #223, #78, .T. ) ;
#212 = MECHANICAL_CONTEXT ( 'NONE', #120, 'mechanical' ) ;
#213 = PERSON_AND_ORGANIZATION ( #202, #142 ) ;
#214 = CARTESIAN_POINT ( 'NONE',  ( -2.000000000000000000, 0.000000000000000000, 3.200000000000008171 ) ) ;
#215 = ORIENTED_EDGE ( 'NONE', *, *, #80, .T. ) ;
#216 = ADVANCED_FACE ( 'NONE', ( #116 ), #68, .T. ) ;
#217 = APPROVAL_DATE_TIME ( #32, #205 ) ;
#218 = ORIENTED_EDGE ( 'NONE', *, *, #211, .T. ) ;
#219 = EDGE_LOOP ( 'NONE', ( #48, #289 ) ) ;
#220 = AXIS2_PLACEMENT_3D ( 'NONE', #94, #193, #59 ) ;
#221 = PERSON_AND_ORGANIZATION_ROLE ( 'design_supplier' ) ;
#222 = AXIS2_PLACEMENT_3D ( 'NONE', #157, #299, #103 ) ;
#223 = VERTEX_POINT ( 'NONE', #20 ) ;
#224 = APPROVAL_PERSON_ORGANIZATION ( #266, #34, #263 ) ;
#225 = CARTESIAN_POINT ( 'NONE',  ( 0.000000000000000000, 0.000000000000000000, 3.000000000000000000 ) ) ;
#226 = DIRECTION ( 'NONE',  ( -1.000000000000000000, 0.000000000000000000, 0.000000000000000000 ) ) ;
#227 = CARTESIAN_POINT ( 'NONE',  ( 0.000000000000000000, 0.000000000000000000, 3.000000000000000000 ) ) ;
#228 = DIRECTION ( 'NONE',  ( 1.000000000000000000, 0.000000000000000000, 0.000000000000000000 ) ) ;
#229 = PLANE ( 'NONE',  #194 ) ;
#230 = CALENDAR_DATE ( 2022, 20, 6 ) ;
#231 = AXIS2_PLACEMENT_3D ( 'NONE', #269, #284, #54 ) ;
#232 = PLANE ( 'NONE',  #43 ) ;
#233 = VECTOR ( 'NONE', #249, 1000.000000000000000 ) ;
#234 = DIRECTION ( 'NONE',  ( 1.000000000000000000, 0.000000000000000000, 0.000000000000000000 ) ) ;
#235 = DIRECTION ( 'NONE',  ( 0.000000000000000000, 0.000000000000000000, 1.000000000000000000 ) ) ;
#236 = AXIS2_PLACEMENT_3D ( 'NONE', #23, #210, #234 ) ;
#237 = ORIENTED_EDGE ( 'NONE', *, *, #211, .F. ) ;
#238 = PERSON_AND_ORGANIZATION ( #202, #142 ) ;
#239 = ORIENTED_EDGE ( 'NONE', *, *, #181, .F. ) ;
#240 = APPROVAL ( #301, 'NEURÈENÝ' ) ;
#241 = EDGE_LOOP ( 'NONE', ( #245, #27, #218, #118 ) ) ;
#242 = TOROIDAL_SURFACE ( 'NONE', #155, 2.200000000000000178, 0.2000000000000000111 ) ;
#243 = ORIENTED_EDGE ( 'NONE', *, *, #134, .T. ) ;
#244 = PRODUCT_RELATED_PRODUCT_CATEGORY ( 'detail', '', ( #167 ) ) ;
#245 = ORIENTED_EDGE ( 'NONE', *, *, #80, .F. ) ;
#246 = DESIGN_CONTEXT ( 'detailed design', #50, 'design' ) ;
#247 = DIRECTION ( 'NONE',  ( -0.000000000000000000, -0.000000000000000000, -1.000000000000000000 ) ) ;
#248 = CIRCLE ( 'NONE', #285, 4.000000000000000000 ) ;
#249 = DIRECTION ( 'NONE',  ( -0.000000000000000000, -0.000000000000000000, -1.000000000000000000 ) ) ;
#250 = FACE_BOUND ( 'NONE', #33, .T. ) ;
#251 = CARTESIAN_POINT ( 'NONE',  ( 2.200000000000000178, 0.000000000000000000, 3.200000000000008171 ) ) ;
#252 = AXIS2_PLACEMENT_3D ( 'NONE', #260, #90, #165 ) ;
#253 = CARTESIAN_POINT ( 'NONE',  ( 0.000000000000000000, 0.000000000000000000, 3.000000000000000000 ) ) ;
#254 = APPROVAL_ROLE ( '' ) ;
#255 = VECTOR ( 'NONE', #247, 1000.000000000000000 ) ;
#256 = AXIS2_PLACEMENT_3D ( 'NONE', #253, #274, #61 ) ;
#257 = COORDINATED_UNIVERSAL_TIME_OFFSET ( 1, 0, .AHEAD. ) ;
#258 = DIRECTION ( 'NONE',  ( 0.000000000000000000, 0.000000000000000000, 1.000000000000000000 ) ) ;
#259 = ADVANCED_FACE ( 'NONE', ( #166 ), #161, .T. ) ;
#260 = CARTESIAN_POINT ( 'NONE',  ( 0.000000000000000000, 0.000000000000000000, 253.0000000000000000 ) ) ;
#261 = LOCAL_TIME ( 12, 9, 33.00000000000000000, #257 ) ;
#262 = SECURITY_CLASSIFICATION ( '', '', #25 ) ;
#263 = APPROVAL_ROLE ( '' ) ;
#264 = EDGE_CURVE ( 'NONE', #223, #53, #290, .T. ) ;
#265 = ORIENTED_EDGE ( 'NONE', *, *, #134, .F. ) ;
#266 = PERSON_AND_ORGANIZATION ( #202, #142 ) ;
#267 = VERTEX_POINT ( 'NONE', #139 ) ;
#268 = DIRECTION ( 'NONE',  ( 1.000000000000000000, 0.000000000000000000, 0.000000000000000000 ) ) ;
#269 = CARTESIAN_POINT ( 'NONE',  ( 0.000000000000000000, 0.000000000000000000, 3.000000000000000000 ) ) ;
#270 = DIRECTION ( 'NONE',  ( -0.000000000000000000, -0.000000000000000000, -1.000000000000000000 ) ) ;
#271 = AXIS2_PLACEMENT_3D ( 'NONE', #158, #11, #180 ) ;
#272 = CARTESIAN_POINT ( 'NONE',  ( 0.000000000000000000, 0.000000000000000000, 3.000000000000000000 ) ) ;
#273 = DIRECTION ( 'NONE',  ( 0.000000000000000000, 0.000000000000000000, -1.000000000000000000 ) ) ;
#274 = DIRECTION ( 'NONE',  ( -0.000000000000000000, -0.000000000000000000, -1.000000000000000000 ) ) ;
#275 = CYLINDRICAL_SURFACE ( 'NONE', #277, 4.000000000000000000 ) ;
#276 = ADVANCED_FACE ( 'NONE', ( #46 ), #232, .F. ) ;
#277 = AXIS2_PLACEMENT_3D ( 'NONE', #63, #131, #226 ) ;
#278 = FACE_OUTER_BOUND ( 'NONE', #197, .T. ) ;
#279 = APPLICATION_PROTOCOL_DEFINITION ( 'international standard', 'config_control_design', 1994, #50 ) ;
#280 = DIRECTION ( 'NONE',  ( 1.000000000000000000, 0.000000000000000000, 0.000000000000000000 ) ) ;
#281 = AXIS2_PLACEMENT_3D ( 'NONE', #83, #36, #104 ) ;
#282 = PERSON_AND_ORGANIZATION_ROLE ( 'design_owner' ) ;
#283 = DATE_AND_TIME ( #141, #47 ) ;
#284 = DIRECTION ( 'NONE',  ( -0.000000000000000000, -0.000000000000000000, -1.000000000000000000 ) ) ;
#285 = AXIS2_PLACEMENT_3D ( 'NONE', #225, #159, #228 ) ;
#286 = LOCAL_TIME ( 12, 9, 33.00000000000000000, #8 ) ;
#287 = VERTEX_POINT ( 'NONE', #163 ) ;
#288 = DIRECTION ( 'NONE',  ( 0.000000000000000000, 0.000000000000000000, 1.000000000000000000 ) ) ;
#289 = ORIENTED_EDGE ( 'NONE', *, *, #62, .F. ) ;
#290 = CIRCLE ( 'NONE', #15, 4.000000000000000000 ) ;
#291 = ORIENTED_EDGE ( 'NONE', *, *, #12, .T. ) ;
#292 = CARTESIAN_POINT ( 'NONE',  ( -2.200000000000000178, 2.694222958124177006E-16, 3.000000000000004441 ) ) ;
#293 = CC_DESIGN_DATE_AND_TIME_ASSIGNMENT ( #1, #171, ( #262 ) ) ;
#294 = CARTESIAN_POINT ( 'NONE',  ( 0.000000000000000000, 0.000000000000000000, 253.0000000000000000 ) ) ;
#295 = CC_DESIGN_SECURITY_CLASSIFICATION ( #262, ( #129 ) ) ;
#296 = CARTESIAN_POINT ( 'NONE',  ( 4.000000000000000000, 4.898587196589412829E-16, 3.000000000000000000 ) ) ;
#297 = FACE_OUTER_BOUND ( 'NONE', #114, .T. ) ;
#298 = CC_DESIGN_PERSON_AND_ORGANIZATION_ASSIGNMENT ( #22, #282, ( #167 ) ) ;
#299 = DIRECTION ( 'NONE',  ( 0.000000000000000000, 0.000000000000000000, 1.000000000000000000 ) ) ;
#300 = DATE_TIME_ROLE ( 'creation_date' ) ;
#301 = APPROVAL_STATUS ( 'not_yet_approved' ) ;
#302 = DIRECTION ( 'NONE',  ( 0.000000000000000000, 0.000000000000000000, 1.000000000000000000 ) ) ;
#303 = CARTESIAN_POINT ( 'NONE',  ( 0.000000000000000000, 0.000000000000000000, 253.0000000000000000 ) ) ;
#304 = CIRCLE ( 'NONE', #174, 2.000000000000000000 ) ;
#305 = CC_DESIGN_APPROVAL ( #205, ( #129 ) ) ;
#306 =( LENGTH_UNIT ( ) NAMED_UNIT ( * ) SI_UNIT ( .MILLI., .METRE. ) );
#307 = CC_DESIGN_PERSON_AND_ORGANIZATION_ASSIGNMENT ( #111, #67, ( #21 ) ) ;
ENDSEC;
END-ISO-10303-21;
