ISO-10303-21;
HEADER;
FILE_DESCRIPTION (( 'STEP AP203' ),
    '1' );
FILE_NAME ('823b.STEP',
    '2022-06-20T09:18:52',
    ( '' ),
    ( '' ),
    'SwSTEP 2.0',
    'SolidWorks 2019',
    '' );
FILE_SCHEMA (( 'CONFIG_CONTROL_DESIGN' ));
ENDSEC;

DATA;
#1 = DIRECTION ( 'NONE',  ( 1.000000000000000000, 0.000000000000000000, 0.000000000000000000 ) ) ;
#2 = AXIS2_PLACEMENT_3D ( 'NONE', #38, #239, #160 ) ;
#3 = SECURITY_CLASSIFICATION ( '', '', #220 ) ;
#4 = DIRECTION ( 'NONE',  ( 1.000000000000000000, 0.000000000000000000, 0.000000000000000000 ) ) ;
#5 = DIRECTION ( 'NONE',  ( 0.000000000000000000, 0.000000000000000000, 1.000000000000000000 ) ) ;
#6 = CIRCLE ( 'NONE', #246, 12.70000000000000107 ) ;
#7 = EDGE_CURVE ( 'NONE', #18, #179, #234, .T. ) ;
#8 = ORIENTED_EDGE ( 'NONE', *, *, #236, .T. ) ;
#9 = EDGE_CURVE ( 'NONE', #228, #54, #39, .T. ) ;
#10 = CIRCLE ( 'NONE', #254, 0.2000000000000005107 ) ;
#11 = PERSON_AND_ORGANIZATION_ROLE ( 'creator' ) ;
#12 = ORIENTED_EDGE ( 'NONE', *, *, #195, .T. ) ;
#13 = CALENDAR_DATE ( 2022, 20, 6 ) ;
#14 = DIRECTION ( 'NONE',  ( -0.000000000000000000, -0.000000000000000000, -1.000000000000000000 ) ) ;
#15 = DIRECTION ( 'NONE',  ( -0.000000000000000000, -0.000000000000000000, -1.000000000000000000 ) ) ;
#16 = CIRCLE ( 'NONE', #72, 0.2000000000000005107 ) ;
#17 = VERTEX_POINT ( 'NONE', #304 ) ;
#18 = VERTEX_POINT ( 'NONE', #233 ) ;
#19 = CYLINDRICAL_SURFACE ( 'NONE', #127, 16.00000000000000000 ) ;
#20 = TOROIDAL_SURFACE ( 'NONE', #56, 12.70000000000000107, 0.2000000000000000111 ) ;
#21 = CARTESIAN_POINT ( 'NONE',  ( 0.000000000000000000, 0.000000000000000000, 10.20000000000001528 ) ) ;
#22 = DIRECTION ( 'NONE',  ( 1.000000000000000000, 0.000000000000000000, 0.000000000000000000 ) ) ;
#23 = EDGE_CURVE ( 'NONE', #276, #90, #203, .T. ) ;
#24 = ADVANCED_FACE ( 'NONE', ( #278 ), #301, .T. ) ;
#25 = CARTESIAN_POINT ( 'NONE',  ( 0.000000000000000000, 0.000000000000000000, 10.20000000000001528 ) ) ;
#26 = VECTOR ( 'NONE', #68, 1000.000000000000000 ) ;
#27 = CARTESIAN_POINT ( 'NONE',  ( 0.000000000000000000, 0.000000000000000000, 0.000000000000000000 ) ) ;
#28 = APPLICATION_PROTOCOL_DEFINITION ( 'international standard', 'config_control_design', 1994, #75 ) ;
#29 = ORIENTED_EDGE ( 'NONE', *, *, #214, .T. ) ;
#30 = ADVANCED_FACE ( 'NONE', ( #114 ), #206, .T. ) ;
#31 = VECTOR ( 'NONE', #15, 1000.000000000000000 ) ;
#32 = PERSON_AND_ORGANIZATION_ROLE ( 'creator' ) ;
#33 = EDGE_CURVE ( 'NONE', #228, #85, #305, .T. ) ;
#34 = DATE_AND_TIME ( #152, #241 ) ;
#35 = EDGE_LOOP ( 'NONE', ( #130, #12 ) ) ;
#36 = APPROVAL_PERSON_ORGANIZATION ( #153, #166, #107 ) ;
#37 = ORIENTED_EDGE ( 'NONE', *, *, #238, .T. ) ;
#38 = CARTESIAN_POINT ( 'NONE',  ( 0.000000000000000000, 0.000000000000000000, 170.0000000000000000 ) ) ;
#39 = LINE ( 'NONE', #140, #194 ) ;
#40 = CC_DESIGN_APPROVAL ( #274, ( #3 ) ) ;
#41 = ORIENTED_EDGE ( 'NONE', *, *, #236, .F. ) ;
#42 = VERTEX_POINT ( 'NONE', #91 ) ;
#43 = CARTESIAN_POINT ( 'NONE',  ( 12.70000000000000107, 0.000000000000000000, 10.20000000000001528 ) ) ;
#44 = CIRCLE ( 'NONE', #158, 16.00000000000000000 ) ;
#45 = LOCAL_TIME ( 11, 18, 52.00000000000000000, #133 ) ;
#46 = FACE_OUTER_BOUND ( 'NONE', #295, .T. ) ;
#47 = ADVANCED_FACE ( 'NONE', ( #279 ), #19, .T. ) ;
#48 = DIRECTION ( 'NONE',  ( 0.000000000000000000, 0.000000000000000000, -1.000000000000000000 ) ) ;
#49 = DIRECTION ( 'NONE',  ( 0.000000000000000000, 0.000000000000000000, 1.000000000000000000 ) ) ;
#50 = LINE ( 'NONE', #284, #26 ) ;
#51 = AXIS2_PLACEMENT_3D ( 'NONE', #176, #222, #290 ) ;
#52 = APPROVAL_DATE_TIME ( #34, #166 ) ;
#53 = MECHANICAL_CONTEXT ( 'NONE', #117, 'mechanical' ) ;
#54 = VERTEX_POINT ( 'NONE', #93 ) ;
#55 = PERSON_AND_ORGANIZATION_ROLE ( 'design_owner' ) ;
#56 = AXIS2_PLACEMENT_3D ( 'NONE', #21, #95, #245 ) ;
#57 =( NAMED_UNIT ( * ) PLANE_ANGLE_UNIT ( ) SI_UNIT ( $, .RADIAN. ) );
#58 = ADVANCED_FACE ( 'NONE', ( #281 ), #165, .T. ) ;
#59 = COORDINATED_UNIVERSAL_TIME_OFFSET ( 1, 0, .AHEAD. ) ;
#60 = AXIS2_PLACEMENT_3D ( 'NONE', #170, #217, #4 ) ;
#61 = ORIENTED_EDGE ( 'NONE', *, *, #238, .F. ) ;
#62 = ORIENTED_EDGE ( 'NONE', *, *, #64, .F. ) ;
#63 = EDGE_LOOP ( 'NONE', ( #159, #184, #185, #297 ) ) ;
#64 = EDGE_CURVE ( 'NONE', #85, #17, #69, .T. ) ;
#65 =( GEOMETRIC_REPRESENTATION_CONTEXT ( 3 ) GLOBAL_UNCERTAINTY_ASSIGNED_CONTEXT ( ( #180 ) ) GLOBAL_UNIT_ASSIGNED_CONTEXT ( ( #103, #57, #196 ) ) REPRESENTATION_CONTEXT ( 'NONE', 'WORKASPACE' ) );
#66 = DIRECTION ( 'NONE',  ( 1.000000000000000000, 0.000000000000000000, 0.000000000000000000 ) ) ;
#67 = FACE_OUTER_BOUND ( 'NONE', #237, .T. ) ;
#68 = DIRECTION ( 'NONE',  ( -0.000000000000000000, -0.000000000000000000, -1.000000000000000000 ) ) ;
#69 = LINE ( 'NONE', #96, #149 ) ;
#70 = DIRECTION ( 'NONE',  ( 1.000000000000000000, 0.000000000000000000, 0.000000000000000000 ) ) ;
#71 = CARTESIAN_POINT ( 'NONE',  ( 0.000000000000000000, 0.000000000000000000, 10.00000000000000000 ) ) ;
#72 = AXIS2_PLACEMENT_3D ( 'NONE', #146, #243, #120 ) ;
#73 = CARTESIAN_POINT ( 'NONE',  ( 0.000000000000000000, 0.000000000000000000, 10.20000000000001528 ) ) ;
#74 = AXIS2_PLACEMENT_3D ( 'NONE', #178, #104, #76 ) ;
#75 = APPLICATION_CONTEXT ( 'configuration controlled 3d designs of mechanical parts and assemblies' ) ;
#76 = DIRECTION ( 'NONE',  ( 1.000000000000000000, 0.000000000000000000, -0.000000000000000000 ) ) ;
#77 = CARTESIAN_POINT ( 'NONE',  ( -16.00000000000000000, 0.000000000000000000, 10.00000000000000000 ) ) ;
#78 = ADVANCED_FACE ( 'NONE', ( #285 ), #189, .T. ) ;
#79 = ORIENTED_EDGE ( 'NONE', *, *, #197, .T. ) ;
#80 = APPROVAL_ROLE ( '' ) ;
#81 = TOROIDAL_SURFACE ( 'NONE', #190, 12.70000000000000107, 0.2000000000000000111 ) ;
#82 = APPROVAL_DATE_TIME ( #198, #86 ) ;
#83 = ORIENTED_EDGE ( 'NONE', *, *, #106, .F. ) ;
#84 = DATE_TIME_ROLE ( 'classification_date' ) ;
#85 = VERTEX_POINT ( 'NONE', #268 ) ;
#86 = APPROVAL ( #227, 'NEURÈENÝ' ) ;
#87 = COORDINATED_UNIVERSAL_TIME_OFFSET ( 1, 0, .AHEAD. ) ;
#88 = CARTESIAN_POINT ( 'NONE',  ( -16.00000000000000000, 0.000000000000000000, 10.00000000000000000 ) ) ;
#89 = CIRCLE ( 'NONE', #97, 16.00000000000000000 ) ;
#90 = VERTEX_POINT ( 'NONE', #172 ) ;
#91 = CARTESIAN_POINT ( 'NONE',  ( 16.00000000000000000, 1.959434878635765131E-15, 10.00000000000000000 ) ) ;
#92 = EDGE_CURVE ( 'NONE', #17, #18, #10, .T. ) ;
#93 = CARTESIAN_POINT ( 'NONE',  ( -12.50000000000000000, 0.000000000000000000, 10.20000000000001528 ) ) ;
#94 = DIRECTION ( 'NONE',  ( 0.000000000000000000, 0.000000000000000000, 1.000000000000000000 ) ) ;
#95 = DIRECTION ( 'NONE',  ( 0.000000000000000000, 0.000000000000000000, 1.000000000000000000 ) ) ;
#96 = CARTESIAN_POINT ( 'NONE',  ( 12.50000000000000000, 1.530808498934191521E-15, 170.0000000000000000 ) ) ;
#97 = AXIS2_PLACEMENT_3D ( 'NONE', #167, #263, #1 ) ;
#98 = CC_DESIGN_APPROVAL ( #86, ( #221 ) ) ;
#99 = CARTESIAN_POINT ( 'NONE',  ( -12.50000000000000000, 0.000000000000000000, 170.0000000000000000 ) ) ;
#100 = FACE_BOUND ( 'NONE', #35, .T. ) ;
#101 = DIRECTION ( 'NONE',  ( 1.000000000000000000, 0.000000000000000000, 0.000000000000000000 ) ) ;
#102 = CIRCLE ( 'NONE', #60, 16.00000000000000000 ) ;
#103 =( LENGTH_UNIT ( ) NAMED_UNIT ( * ) SI_UNIT ( .MILLI., .METRE. ) );
#104 = DIRECTION ( 'NONE',  ( 0.000000000000000000, 0.000000000000000000, 1.000000000000000000 ) ) ;
#105 = MANIFOLD_SOLID_BREP ( 'Zaoblit1', #286 ) ;
#106 = EDGE_CURVE ( 'NONE', #54, #179, #16, .T. ) ;
#107 = APPROVAL_ROLE ( '' ) ;
#108 = ORIENTED_EDGE ( 'NONE', *, *, #161, .T. ) ;
#109 = AXIS2_PLACEMENT_3D ( 'NONE', #71, #150, #193 ) ;
#110 = PERSON_AND_ORGANIZATION ( #307, #137 ) ;
#111 = EDGE_LOOP ( 'NONE', ( #62, #183, #235, #8 ) ) ;
#112 = DATE_AND_TIME ( #13, #211 ) ;
#113 = ORIENTED_EDGE ( 'NONE', *, *, #106, .T. ) ;
#114 = FACE_OUTER_BOUND ( 'NONE', #223, .T. ) ;
#115 = ORIENTED_EDGE ( 'NONE', *, *, #214, .F. ) ;
#116 = ORIENTED_EDGE ( 'NONE', *, *, #23, .F. ) ;
#117 = APPLICATION_CONTEXT ( 'configuration controlled 3d designs of mechanical parts and assemblies' ) ;
#118 = ORIENTED_EDGE ( 'NONE', *, *, #23, .T. ) ;
#119 = AXIS2_PLACEMENT_3D ( 'NONE', #142, #302, #258 ) ;
#120 = DIRECTION ( 'NONE',  ( -1.000000000000000000, 1.224646799147353207E-16, 0.000000000000000000 ) ) ;
#121 = CARTESIAN_POINT ( 'NONE',  ( 0.000000000000000000, 0.000000000000000000, 0.000000000000000000 ) ) ;
#122 = CARTESIAN_POINT ( 'NONE',  ( 0.000000000000000000, 0.000000000000000000, 10.00000000000000000 ) ) ;
#123 = AXIS2_PLACEMENT_3D ( 'NONE', #121, #187, #124 ) ;
#124 = DIRECTION ( 'NONE',  ( 1.000000000000000000, 0.000000000000000000, 0.000000000000000000 ) ) ;
#125 = DIRECTION ( 'NONE',  ( 0.000000000000000000, 0.000000000000000000, 1.000000000000000000 ) ) ;
#126 = PERSON_AND_ORGANIZATION_ROLE ( 'design_supplier' ) ;
#127 = AXIS2_PLACEMENT_3D ( 'NONE', #262, #143, #261 ) ;
#128 = DIRECTION ( 'NONE',  ( 1.000000000000000000, 0.000000000000000000, 0.000000000000000000 ) ) ;
#129 = APPROVAL_PERSON_ORGANIZATION ( #157, #274, #298 ) ;
#130 = ORIENTED_EDGE ( 'NONE', *, *, #7, .T. ) ;
#131 = DATE_AND_TIME ( #156, #255 ) ;
#132 = ORIENTED_EDGE ( 'NONE', *, *, #7, .F. ) ;
#133 = COORDINATED_UNIVERSAL_TIME_OFFSET ( 1, 0, .AHEAD. ) ;
#134 = EDGE_LOOP ( 'NONE', ( #37, #79 ) ) ;
#135 = PERSON_AND_ORGANIZATION ( #307, #137 ) ;
#136 = ORIENTED_EDGE ( 'NONE', *, *, #224, .T. ) ;
#137 = ORGANIZATION ( 'NEURÈENÝ', 'NEURÈENÝ', '' ) ;
#138 = PERSON_AND_ORGANIZATION ( #307, #137 ) ;
#139 = EDGE_LOOP ( 'NONE', ( #41, #113, #132, #209 ) ) ;
#140 = CARTESIAN_POINT ( 'NONE',  ( -12.50000000000000000, 0.000000000000000000, 170.0000000000000000 ) ) ;
#141 = CARTESIAN_POINT ( 'NONE',  ( 0.000000000000000000, 0.000000000000000000, 170.0000000000000000 ) ) ;
#142 = CARTESIAN_POINT ( 'NONE',  ( 0.000000000000000000, 0.000000000000000000, 10.00000000000000000 ) ) ;
#143 = DIRECTION ( 'NONE',  ( -0.000000000000000000, -0.000000000000000000, -1.000000000000000000 ) ) ;
#144 = DIRECTION ( 'NONE',  ( -0.000000000000000000, -0.000000000000000000, -1.000000000000000000 ) ) ;
#145 = CC_DESIGN_DATE_AND_TIME_ASSIGNMENT ( #131, #270, ( #259 ) ) ;
#146 = CARTESIAN_POINT ( 'NONE',  ( -12.70000000000000107, 1.555301434917138630E-15, 10.20000000000001528 ) ) ;
#147 = ADVANCED_FACE ( 'NONE', ( #213 ), #81, .F. ) ;
#148 = DIRECTION ( 'NONE',  ( -0.000000000000000000, -0.000000000000000000, -1.000000000000000000 ) ) ;
#149 = VECTOR ( 'NONE', #144, 1000.000000000000000 ) ;
#150 = DIRECTION ( 'NONE',  ( 0.000000000000000000, 0.000000000000000000, 1.000000000000000000 ) ) ;
#151 = PLANE ( 'NONE',  #74 ) ;
#152 = CALENDAR_DATE ( 2022, 20, 6 ) ;
#153 = PERSON_AND_ORGANIZATION ( #307, #137 ) ;
#154 = ORIENTED_EDGE ( 'NONE', *, *, #197, .F. ) ;
#155 = DESIGN_CONTEXT ( 'detailed design', #75, 'design' ) ;
#156 = CALENDAR_DATE ( 2022, 20, 6 ) ;
#157 = PERSON_AND_ORGANIZATION ( #307, #137 ) ;
#158 = AXIS2_PLACEMENT_3D ( 'NONE', #27, #49, #101 ) ;
#159 = ORIENTED_EDGE ( 'NONE', *, *, #171, .F. ) ;
#160 = DIRECTION ( 'NONE',  ( -1.000000000000000000, 0.000000000000000000, 0.000000000000000000 ) ) ;
#161 = EDGE_CURVE ( 'NONE', #230, #90, #44, .T. ) ;
#162 = EDGE_LOOP ( 'NONE', ( #199, #256 ) ) ;
#163 = ORIENTED_EDGE ( 'NONE', *, *, #161, .F. ) ;
#164 = AXIS2_PLACEMENT_3D ( 'NONE', #73, #292, #128 ) ;
#165 = PLANE ( 'NONE',  #177 ) ;
#166 = APPROVAL ( #175, 'NEURÈENÝ' ) ;
#167 = CARTESIAN_POINT ( 'NONE',  ( 0.000000000000000000, 0.000000000000000000, 10.00000000000000000 ) ) ;
#168 = CARTESIAN_POINT ( 'NONE',  ( 0.000000000000000000, 0.000000000000000000, 170.0000000000000000 ) ) ;
#169 = ADVANCED_FACE ( 'NONE', ( #46 ), #20, .F. ) ;
#170 = CARTESIAN_POINT ( 'NONE',  ( 0.000000000000000000, 0.000000000000000000, 10.00000000000000000 ) ) ;
#171 = EDGE_CURVE ( 'NONE', #85, #228, #280, .T. ) ;
#172 = CARTESIAN_POINT ( 'NONE',  ( -16.00000000000000000, 0.000000000000000000, 0.000000000000000000 ) ) ;
#173 = AXIS2_PLACEMENT_3D ( 'NONE', #212, #125, #22 ) ;
#174 = CC_DESIGN_PERSON_AND_ORGANIZATION_ASSIGNMENT ( #138, #200, ( #3 ) ) ;
#175 = APPROVAL_STATUS ( 'not_yet_approved' ) ;
#176 = CARTESIAN_POINT ( 'NONE',  ( 0.000000000000000000, 0.000000000000000000, 0.000000000000000000 ) ) ;
#177 = AXIS2_PLACEMENT_3D ( 'NONE', #306, #94, #248 ) ;
#178 = CARTESIAN_POINT ( 'NONE',  ( 0.000000000000000000, 0.000000000000000000, 0.000000000000000000 ) ) ;
#179 = VERTEX_POINT ( 'NONE', #267 ) ;
#180 = UNCERTAINTY_MEASURE_WITH_UNIT (LENGTH_MEASURE( 1.000000000000000082E-05 ), #103, 'distance_accuracy_value', 'NONE');
#181 = APPROVAL_DATE_TIME ( #275, #274 ) ;
#182 = DIRECTION ( 'NONE',  ( 1.000000000000000000, 0.000000000000000000, 0.000000000000000000 ) ) ;
#183 = ORIENTED_EDGE ( 'NONE', *, *, #33, .F. ) ;
#184 = ORIENTED_EDGE ( 'NONE', *, *, #64, .T. ) ;
#185 = ORIENTED_EDGE ( 'NONE', *, *, #283, .T. ) ;
#186 = EDGE_LOOP ( 'NONE', ( #282, #61, #118, #29 ) ) ;
#187 = DIRECTION ( 'NONE',  ( 0.000000000000000000, 0.000000000000000000, 1.000000000000000000 ) ) ;
#188 = PRODUCT_RELATED_PRODUCT_CATEGORY ( 'detail', '', ( #303 ) ) ;
#189 = CYLINDRICAL_SURFACE ( 'NONE', #205, 12.50000000000000000 ) ;
#190 = AXIS2_PLACEMENT_3D ( 'NONE', #25, #240, #264 ) ;
#191 = CARTESIAN_POINT ( 'NONE',  ( 16.00000000000000000, 1.959434878635765131E-15, 0.000000000000000000 ) ) ;
#192 = FACE_OUTER_BOUND ( 'NONE', #134, .T. ) ;
#193 = DIRECTION ( 'NONE',  ( 1.000000000000000000, 0.000000000000000000, -0.000000000000000000 ) ) ;
#194 = VECTOR ( 'NONE', #14, 1000.000000000000000 ) ;
#195 = EDGE_CURVE ( 'NONE', #179, #18, #6, .T. ) ;
#196 =( NAMED_UNIT ( * ) SI_UNIT ( $, .STERADIAN. ) SOLID_ANGLE_UNIT ( ) );
#197 = EDGE_CURVE ( 'NONE', #42, #276, #89, .T. ) ;
#198 = DATE_AND_TIME ( #225, #45 ) ;
#199 = ORIENTED_EDGE ( 'NONE', *, *, #33, .T. ) ;
#200 = PERSON_AND_ORGANIZATION_ROLE ( 'classification_officer' ) ;
#201 = PRODUCT_DEFINITION_SHAPE ( 'NONE', 'NONE',  #259 ) ;
#202 = APPROVAL_STATUS ( 'not_yet_approved' ) ;
#203 = LINE ( 'NONE', #88, #31 ) ;
#204 = CC_DESIGN_PERSON_AND_ORGANIZATION_ASSIGNMENT ( #249, #55, ( #303 ) ) ;
#205 = AXIS2_PLACEMENT_3D ( 'NONE', #168, #148, #218 ) ;
#206 = CYLINDRICAL_SURFACE ( 'NONE', #119, 16.00000000000000000 ) ;
#207 = DIRECTION ( 'NONE',  ( 0.000000000000000000, 0.000000000000000000, 1.000000000000000000 ) ) ;
#208 = DIRECTION ( 'NONE',  ( -0.000000000000000000, -0.000000000000000000, -1.000000000000000000 ) ) ;
#209 = ORIENTED_EDGE ( 'NONE', *, *, #92, .F. ) ;
#210 = CC_DESIGN_APPROVAL ( #166, ( #259 ) ) ;
#211 = LOCAL_TIME ( 11, 18, 52.00000000000000000, #296 ) ;
#212 = CARTESIAN_POINT ( 'NONE',  ( 0.000000000000000000, 0.000000000000000000, 170.0000000000000000 ) ) ;
#213 = FACE_OUTER_BOUND ( 'NONE', #139, .T. ) ;
#214 = EDGE_CURVE ( 'NONE', #90, #230, #260, .T. ) ;
#215 = DIRECTION ( 'NONE',  ( 1.000000000000000000, 0.000000000000000000, 0.000000000000000000 ) ) ;
#216 = AXIS2_PLACEMENT_3D ( 'NONE', #141, #207, #66 ) ;
#217 = DIRECTION ( 'NONE',  ( 0.000000000000000000, 0.000000000000000000, 1.000000000000000000 ) ) ;
#218 = DIRECTION ( 'NONE',  ( -1.000000000000000000, 0.000000000000000000, 0.000000000000000000 ) ) ;
#219 = CC_DESIGN_PERSON_AND_ORGANIZATION_ASSIGNMENT ( #135, #32, ( #259 ) ) ;
#220 = SECURITY_CLASSIFICATION_LEVEL ( 'unclassified' ) ;
#221 = PRODUCT_DEFINITION_FORMATION_WITH_SPECIFIED_SOURCE ( 'LIBOVOLNÝ', '', #303, .NOT_KNOWN. ) ;
#222 = DIRECTION ( 'NONE',  ( 0.000000000000000000, 0.000000000000000000, 1.000000000000000000 ) ) ;
#223 = EDGE_LOOP ( 'NONE', ( #154, #136, #108, #116 ) ) ;
#224 = EDGE_CURVE ( 'NONE', #42, #230, #50, .T. ) ;
#225 = CALENDAR_DATE ( 2022, 20, 6 ) ;
#226 = CIRCLE ( 'NONE', #269, 12.50000000000000000 ) ;
#227 = APPROVAL_STATUS ( 'not_yet_approved' ) ;
#228 = VERTEX_POINT ( 'NONE', #99 ) ;
#229 = SHAPE_DEFINITION_REPRESENTATION ( #201, #273 ) ;
#230 = VERTEX_POINT ( 'NONE', #191 ) ;
#231 = CC_DESIGN_PERSON_AND_ORGANIZATION_ASSIGNMENT ( #253, #11, ( #221 ) ) ;
#232 = CALENDAR_DATE ( 2022, 20, 6 ) ;
#233 = CARTESIAN_POINT ( 'NONE',  ( 12.70000000000000107, 0.000000000000000000, 10.00000000000000711 ) ) ;
#234 = CIRCLE ( 'NONE', #272, 12.70000000000000107 ) ;
#235 = ORIENTED_EDGE ( 'NONE', *, *, #9, .T. ) ;
#236 = EDGE_CURVE ( 'NONE', #54, #17, #226, .T. ) ;
#237 = EDGE_LOOP ( 'NONE', ( #115, #163 ) ) ;
#238 = EDGE_CURVE ( 'NONE', #276, #42, #102, .T. ) ;
#239 = DIRECTION ( 'NONE',  ( -0.000000000000000000, -0.000000000000000000, -1.000000000000000000 ) ) ;
#240 = DIRECTION ( 'NONE',  ( 0.000000000000000000, 0.000000000000000000, 1.000000000000000000 ) ) ;
#241 = LOCAL_TIME ( 11, 18, 52.00000000000000000, #59 ) ;
#242 = CC_DESIGN_SECURITY_CLASSIFICATION ( #3, ( #221 ) ) ;
#243 = DIRECTION ( 'NONE',  ( 1.224646799147353207E-16, 1.000000000000000000, -0.000000000000000000 ) ) ;
#244 = DIRECTION ( 'NONE',  ( -0.000000000000000000, -0.000000000000000000, -1.000000000000000000 ) ) ;
#245 = DIRECTION ( 'NONE',  ( 1.000000000000000000, 0.000000000000000000, 0.000000000000000000 ) ) ;
#246 = AXIS2_PLACEMENT_3D ( 'NONE', #122, #244, #215 ) ;
#247 = ADVANCED_FACE ( 'NONE', ( #100, #192 ), #289, .T. ) ;
#248 = DIRECTION ( 'NONE',  ( 1.000000000000000000, 0.000000000000000000, -0.000000000000000000 ) ) ;
#249 = PERSON_AND_ORGANIZATION ( #307, #137 ) ;
#250 = PERSON_AND_ORGANIZATION ( #307, #137 ) ;
#251 = ADVANCED_FACE ( 'NONE', ( #67 ), #151, .F. ) ;
#252 = ORIENTED_EDGE ( 'NONE', *, *, #92, .T. ) ;
#253 = PERSON_AND_ORGANIZATION ( #307, #137 ) ;
#254 = AXIS2_PLACEMENT_3D ( 'NONE', #43, #266, #48 ) ;
#255 = LOCAL_TIME ( 11, 18, 52.00000000000000000, #293 ) ;
#256 = ORIENTED_EDGE ( 'NONE', *, *, #171, .T. ) ;
#257 = ORIENTED_EDGE ( 'NONE', *, *, #195, .F. ) ;
#258 = DIRECTION ( 'NONE',  ( -1.000000000000000000, 0.000000000000000000, 0.000000000000000000 ) ) ;
#259 = PRODUCT_DEFINITION ( 'NEZNÁMÝ', '', #221, #155 ) ;
#260 = CIRCLE ( 'NONE', #123, 16.00000000000000000 ) ;
#261 = DIRECTION ( 'NONE',  ( -1.000000000000000000, 0.000000000000000000, 0.000000000000000000 ) ) ;
#262 = CARTESIAN_POINT ( 'NONE',  ( 0.000000000000000000, 0.000000000000000000, 10.00000000000000000 ) ) ;
#263 = DIRECTION ( 'NONE',  ( 0.000000000000000000, 0.000000000000000000, 1.000000000000000000 ) ) ;
#264 = DIRECTION ( 'NONE',  ( 1.000000000000000000, 0.000000000000000000, 0.000000000000000000 ) ) ;
#265 = APPROVAL_PERSON_ORGANIZATION ( #250, #86, #80 ) ;
#266 = DIRECTION ( 'NONE',  ( 0.000000000000000000, -1.000000000000000000, 0.000000000000000000 ) ) ;
#267 = CARTESIAN_POINT ( 'NONE',  ( -12.70000000000000107, 1.555301434917138630E-15, 10.00000000000000711 ) ) ;
#268 = CARTESIAN_POINT ( 'NONE',  ( 12.50000000000000000, 1.530808498934191521E-15, 170.0000000000000000 ) ) ;
#269 = AXIS2_PLACEMENT_3D ( 'NONE', #287, #5, #70 ) ;
#270 = DATE_TIME_ROLE ( 'creation_date' ) ;
#271 = APPLICATION_PROTOCOL_DEFINITION ( 'international standard', 'config_control_design', 1994, #117 ) ;
#272 = AXIS2_PLACEMENT_3D ( 'NONE', #299, #208, #182 ) ;
#273 = ADVANCED_BREP_SHAPE_REPRESENTATION ( '823b', ( #105, #51 ), #65 ) ;
#274 = APPROVAL ( #202, 'NEURÈENÝ' ) ;
#275 = DATE_AND_TIME ( #232, #291 ) ;
#276 = VERTEX_POINT ( 'NONE', #77 ) ;
#277 = ORIENTED_EDGE ( 'NONE', *, *, #283, .F. ) ;
#278 = FACE_OUTER_BOUND ( 'NONE', #63, .T. ) ;
#279 = FACE_OUTER_BOUND ( 'NONE', #186, .T. ) ;
#280 = CIRCLE ( 'NONE', #173, 12.50000000000000000 ) ;
#281 = FACE_OUTER_BOUND ( 'NONE', #162, .T. ) ;
#282 = ORIENTED_EDGE ( 'NONE', *, *, #224, .F. ) ;
#283 = EDGE_CURVE ( 'NONE', #17, #54, #294, .T. ) ;
#284 = CARTESIAN_POINT ( 'NONE',  ( 16.00000000000000000, 1.959434878635765131E-15, 10.00000000000000000 ) ) ;
#285 = FACE_OUTER_BOUND ( 'NONE', #111, .T. ) ;
#286 = CLOSED_SHELL ( 'NONE', ( #147, #24, #30, #47, #247, #251, #78, #58, #169 ) ) ;
#287 = CARTESIAN_POINT ( 'NONE',  ( 0.000000000000000000, 0.000000000000000000, 10.20000000000001528 ) ) ;
#288 = CC_DESIGN_PERSON_AND_ORGANIZATION_ASSIGNMENT ( #110, #126, ( #221 ) ) ;
#289 = PLANE ( 'NONE',  #109 ) ;
#290 = DIRECTION ( 'NONE',  ( 1.000000000000000000, 0.000000000000000000, 0.000000000000000000 ) ) ;
#291 = LOCAL_TIME ( 11, 18, 52.00000000000000000, #87 ) ;
#292 = DIRECTION ( 'NONE',  ( 0.000000000000000000, 0.000000000000000000, 1.000000000000000000 ) ) ;
#293 = COORDINATED_UNIVERSAL_TIME_OFFSET ( 1, 0, .AHEAD. ) ;
#294 = CIRCLE ( 'NONE', #164, 12.50000000000000000 ) ;
#295 = EDGE_LOOP ( 'NONE', ( #83, #277, #252, #257 ) ) ;
#296 = COORDINATED_UNIVERSAL_TIME_OFFSET ( 1, 0, .AHEAD. ) ;
#297 = ORIENTED_EDGE ( 'NONE', *, *, #9, .F. ) ;
#298 = APPROVAL_ROLE ( '' ) ;
#299 = CARTESIAN_POINT ( 'NONE',  ( 0.000000000000000000, 0.000000000000000000, 10.00000000000000000 ) ) ;
#300 = CC_DESIGN_DATE_AND_TIME_ASSIGNMENT ( #112, #84, ( #3 ) ) ;
#301 = CYLINDRICAL_SURFACE ( 'NONE', #2, 12.50000000000000000 ) ;
#302 = DIRECTION ( 'NONE',  ( -0.000000000000000000, -0.000000000000000000, -1.000000000000000000 ) ) ;
#303 = PRODUCT ( '823b', '823b', '', ( #53 ) ) ;
#304 = CARTESIAN_POINT ( 'NONE',  ( 12.50000000000000000, 1.530808498934191521E-15, 10.20000000000001528 ) ) ;
#305 = CIRCLE ( 'NONE', #216, 12.50000000000000000 ) ;
#306 = CARTESIAN_POINT ( 'NONE',  ( 0.000000000000000000, 0.000000000000000000, 170.0000000000000000 ) ) ;
#307 = PERSON ( 'NEURÈENÝ', 'NEURÈENÝ', 'NEURÈENÝ', ('NEURÈENÝ'), ('NEURÈENÝ'), ('NEURÈENÝ') ) ;
ENDSEC;
END-ISO-10303-21;
