ISO-10303-21;
HEADER;
FILE_DESCRIPTION (( 'STEP AP203' ),
    '1' );
FILE_NAME ('859a.STEP',
    '2022-06-20T09:36:50',
    ( '' ),
    ( '' ),
    'SwSTEP 2.0',
    'SolidWorks 2019',
    '' );
FILE_SCHEMA (( 'CONFIG_CONTROL_DESIGN' ));
ENDSEC;

DATA;
#1 = EDGE_LOOP ( 'NONE', ( #98, #5, #275, #100 ) ) ;
#2 = CARTESIAN_POINT ( 'NONE',  ( 8.000000000000000000, 9.797174393178825657E-16, 5.000000000000000000 ) ) ;
#3 = ADVANCED_FACE ( 'NONE', ( #248 ), #269, .T. ) ;
#4 = ORIENTED_EDGE ( 'NONE', *, *, #50, .T. ) ;
#5 = ORIENTED_EDGE ( 'NONE', *, *, #182, .F. ) ;
#6 = CC_DESIGN_DATE_AND_TIME_ASSIGNMENT ( #153, #131, ( #173 ) ) ;
#7 = EDGE_LOOP ( 'NONE', ( #123, #211, #149, #187 ) ) ;
#8 = EDGE_CURVE ( 'NONE', #239, #124, #263, .T. ) ;
#9 = MECHANICAL_CONTEXT ( 'NONE', #36, 'mechanical' ) ;
#10 = ORIENTED_EDGE ( 'NONE', *, *, #253, .T. ) ;
#11 = CIRCLE ( 'NONE', #201, 8.000000000000000000 ) ;
#12 = VERTEX_POINT ( 'NONE', #31 ) ;
#13 = APPLICATION_CONTEXT ( 'configuration controlled 3d designs of mechanical parts and assemblies' ) ;
#14 = APPROVAL_DATE_TIME ( #226, #166 ) ;
#15 = CARTESIAN_POINT ( 'NONE',  ( 5.250000000000000888, 6.429395695523605139E-16, 505.0000000000000000 ) ) ;
#16 = CARTESIAN_POINT ( 'NONE',  ( 0.000000000000000000, 0.000000000000000000, 0.000000000000000000 ) ) ;
#17 = PRODUCT_RELATED_PRODUCT_CATEGORY ( 'detail', '', ( #238 ) ) ;
#18 = APPROVAL_ROLE ( '' ) ;
#19 = DIRECTION ( 'NONE',  ( -0.000000000000000000, -0.000000000000000000, -1.000000000000000000 ) ) ;
#20 = AXIS2_PLACEMENT_3D ( 'NONE', #282, #162, #184 ) ;
#21 = PRODUCT_DEFINITION_SHAPE ( 'NONE', 'NONE',  #173 ) ;
#22 = DIRECTION ( 'NONE',  ( 0.000000000000000000, 0.000000000000000000, 1.000000000000000000 ) ) ;
#23 = ADVANCED_FACE ( 'NONE', ( #53 ), #67, .F. ) ;
#24 = CARTESIAN_POINT ( 'NONE',  ( -8.000000000000000000, 0.000000000000000000, 5.000000000000000000 ) ) ;
#25 = DIRECTION ( 'NONE',  ( 1.224646799147353207E-16, 1.000000000000000000, -0.000000000000000000 ) ) ;
#26 = AXIS2_PLACEMENT_3D ( 'NONE', #261, #66, #284 ) ;
#27 = DIRECTION ( 'NONE',  ( 1.000000000000000000, 0.000000000000000000, 0.000000000000000000 ) ) ;
#28 = MANIFOLD_SOLID_BREP ( 'Zaoblit1', #161 ) ;
#29 = CARTESIAN_POINT ( 'NONE',  ( 0.000000000000000000, 0.000000000000000000, 5.199999999999982414 ) ) ;
#30 = DIRECTION ( 'NONE',  ( 0.000000000000000000, 0.000000000000000000, 1.000000000000000000 ) ) ;
#31 = CARTESIAN_POINT ( 'NONE',  ( -5.250000000000000888, 0.000000000000000000, 505.0000000000000000 ) ) ;
#32 = CC_DESIGN_PERSON_AND_ORGANIZATION_ASSIGNMENT ( #43, #254, ( #207 ) ) ;
#33 = AXIS2_PLACEMENT_3D ( 'NONE', #301, #258, #305 ) ;
#34 = ORIENTED_EDGE ( 'NONE', *, *, #205, .F. ) ;
#35 = VERTEX_POINT ( 'NONE', #220 ) ;
#36 = APPLICATION_CONTEXT ( 'configuration controlled 3d designs of mechanical parts and assemblies' ) ;
#37 = APPROVAL_STATUS ( 'not_yet_approved' ) ;
#38 = ORIENTED_EDGE ( 'NONE', *, *, #182, .T. ) ;
#39 = AXIS2_PLACEMENT_3D ( 'NONE', #255, #165, #283 ) ;
#40 = FACE_OUTER_BOUND ( 'NONE', #292, .T. ) ;
#41 = COORDINATED_UNIVERSAL_TIME_OFFSET ( 1, 0, .AHEAD. ) ;
#42 = CC_DESIGN_PERSON_AND_ORGANIZATION_ASSIGNMENT ( #188, #87, ( #207 ) ) ;
#43 = PERSON_AND_ORGANIZATION ( #278, #272 ) ;
#44 = AXIS2_PLACEMENT_3D ( 'NONE', #198, #274, #106 ) ;
#45 = PERSON_AND_ORGANIZATION_ROLE ( 'creator' ) ;
#46 = FACE_OUTER_BOUND ( 'NONE', #82, .T. ) ;
#47 = LOCAL_TIME ( 11, 36, 50.00000000000000000, #300 ) ;
#48 = APPROVAL_PERSON_ORGANIZATION ( #65, #134, #159 ) ;
#49 = SECURITY_CLASSIFICATION ( '', '', #306 ) ;
#50 = EDGE_CURVE ( 'NONE', #12, #146, #243, .T. ) ;
#51 = CARTESIAN_POINT ( 'NONE',  ( -5.450000000000001066, 6.674325055353076224E-16, 5.199999999999982414 ) ) ;
#52 = DIRECTION ( 'NONE',  ( 1.000000000000000000, 0.000000000000000000, 0.000000000000000000 ) ) ;
#53 = FACE_OUTER_BOUND ( 'NONE', #170, .T. ) ;
#54 = ORIENTED_EDGE ( 'NONE', *, *, #249, .F. ) ;
#55 = FACE_OUTER_BOUND ( 'NONE', #125, .T. ) ;
#56 = ORIENTED_EDGE ( 'NONE', *, *, #103, .T. ) ;
#57 = ORIENTED_EDGE ( 'NONE', *, *, #50, .F. ) ;
#58 = APPROVAL_STATUS ( 'not_yet_approved' ) ;
#59 = DIRECTION ( 'NONE',  ( -0.000000000000000000, -0.000000000000000000, -1.000000000000000000 ) ) ;
#60 = CIRCLE ( 'NONE', #102, 8.000000000000000000 ) ;
#61 = CC_DESIGN_SECURITY_CLASSIFICATION ( #49, ( #207 ) ) ;
#62 = DIRECTION ( 'NONE',  ( 1.000000000000000000, 0.000000000000000000, -0.000000000000000000 ) ) ;
#63 = APPROVAL_DATE_TIME ( #234, #134 ) ;
#64 = DIRECTION ( 'NONE',  ( 1.000000000000000000, 0.000000000000000000, 0.000000000000000000 ) ) ;
#65 = PERSON_AND_ORGANIZATION ( #278, #272 ) ;
#66 = DIRECTION ( 'NONE',  ( -0.000000000000000000, -0.000000000000000000, -1.000000000000000000 ) ) ;
#67 = TOROIDAL_SURFACE ( 'NONE', #175, 5.450000000000001066, 0.2000000000000000111 ) ;
#68 = EDGE_CURVE ( 'NONE', #244, #252, #225, .T. ) ;
#69 = PERSON_AND_ORGANIZATION_ROLE ( 'classification_officer' ) ;
#70 = FACE_OUTER_BOUND ( 'NONE', #259, .T. ) ;
#71 = AXIS2_PLACEMENT_3D ( 'NONE', #237, #22, #156 ) ;
#72 = DIRECTION ( 'NONE',  ( -0.000000000000000000, -0.000000000000000000, -1.000000000000000000 ) ) ;
#73 = TOROIDAL_SURFACE ( 'NONE', #33, 5.450000000000001066, 0.2000000000000000111 ) ;
#74 = CARTESIAN_POINT ( 'NONE',  ( 5.250000000000000888, 6.429395695523605139E-16, 505.0000000000000000 ) ) ;
#75 = AXIS2_PLACEMENT_3D ( 'NONE', #257, #286, #202 ) ;
#76 = DIRECTION ( 'NONE',  ( 0.000000000000000000, 0.000000000000000000, 1.000000000000000000 ) ) ;
#77 = VERTEX_POINT ( 'NONE', #302 ) ;
#78 = DIRECTION ( 'NONE',  ( 1.000000000000000000, 0.000000000000000000, 0.000000000000000000 ) ) ;
#79 = ORIENTED_EDGE ( 'NONE', *, *, #268, .F. ) ;
#80 = VECTOR ( 'NONE', #208, 1000.000000000000000 ) ;
#81 = ADVANCED_FACE ( 'NONE', ( #127 ), #230, .F. ) ;
#82 = EDGE_LOOP ( 'NONE', ( #250, #178 ) ) ;
#83 = EDGE_LOOP ( 'NONE', ( #56, #227 ) ) ;
#84 = CARTESIAN_POINT ( 'NONE',  ( 5.450000000000001066, 0.000000000000000000, 5.199999999999982414 ) ) ;
#85 = UNCERTAINTY_MEASURE_WITH_UNIT (LENGTH_MEASURE( 1.000000000000000082E-05 ), #291, 'distance_accuracy_value', 'NONE');
#86 = ADVANCED_FACE ( 'NONE', ( #70 ), #73, .F. ) ;
#87 = PERSON_AND_ORGANIZATION_ROLE ( 'design_supplier' ) ;
#88 = DIRECTION ( 'NONE',  ( 1.000000000000000000, 0.000000000000000000, 0.000000000000000000 ) ) ;
#89 = DIRECTION ( 'NONE',  ( 1.000000000000000000, 0.000000000000000000, 0.000000000000000000 ) ) ;
#90 = CARTESIAN_POINT ( 'NONE',  ( -5.450000000000001066, 6.674325055353076224E-16, 4.999999999999991118 ) ) ;
#91 = CARTESIAN_POINT ( 'NONE',  ( 0.000000000000000000, 0.000000000000000000, 5.000000000000000000 ) ) ;
#92 =( GEOMETRIC_REPRESENTATION_CONTEXT ( 3 ) GLOBAL_UNCERTAINTY_ASSIGNED_CONTEXT ( ( #85 ) ) GLOBAL_UNIT_ASSIGNED_CONTEXT ( ( #291, #144, #121 ) ) REPRESENTATION_CONTEXT ( 'NONE', 'WORKASPACE' ) );
#93 = APPROVAL_DATE_TIME ( #232, #147 ) ;
#94 = DIRECTION ( 'NONE',  ( -0.000000000000000000, -0.000000000000000000, -1.000000000000000000 ) ) ;
#95 = CC_DESIGN_PERSON_AND_ORGANIZATION_ASSIGNMENT ( #229, #45, ( #173 ) ) ;
#96 = DIRECTION ( 'NONE',  ( 0.000000000000000000, 0.000000000000000000, 1.000000000000000000 ) ) ;
#97 = AXIS2_PLACEMENT_3D ( 'NONE', #51, #25, #242 ) ;
#98 = ORIENTED_EDGE ( 'NONE', *, *, #288, .F. ) ;
#99 = DIRECTION ( 'NONE',  ( -1.000000000000000000, 0.000000000000000000, 0.000000000000000000 ) ) ;
#100 = ORIENTED_EDGE ( 'NONE', *, *, #262, .T. ) ;
#101 = DIRECTION ( 'NONE',  ( 0.000000000000000000, 0.000000000000000000, 1.000000000000000000 ) ) ;
#102 = AXIS2_PLACEMENT_3D ( 'NONE', #91, #96, #27 ) ;
#103 = EDGE_CURVE ( 'NONE', #252, #222, #206, .T. ) ;
#104 = EDGE_LOOP ( 'NONE', ( #54, #174, #4, #176 ) ) ;
#105 = ORIENTED_EDGE ( 'NONE', *, *, #68, .F. ) ;
#106 = DIRECTION ( 'NONE',  ( -1.000000000000000000, 0.000000000000000000, 0.000000000000000000 ) ) ;
#107 = COORDINATED_UNIVERSAL_TIME_OFFSET ( 1, 0, .AHEAD. ) ;
#108 = COORDINATED_UNIVERSAL_TIME_OFFSET ( 1, 0, .AHEAD. ) ;
#109 = AXIS2_PLACEMENT_3D ( 'NONE', #235, #233, #88 ) ;
#110 = CARTESIAN_POINT ( 'NONE',  ( -5.250000000000000888, 0.000000000000000000, 5.199999999999982414 ) ) ;
#111 = CC_DESIGN_DATE_AND_TIME_ASSIGNMENT ( #251, #180, ( #49 ) ) ;
#112 = PERSON_AND_ORGANIZATION ( #278, #272 ) ;
#113 = DIRECTION ( 'NONE',  ( 0.000000000000000000, 0.000000000000000000, 1.000000000000000000 ) ) ;
#114 = ORIENTED_EDGE ( 'NONE', *, *, #249, .T. ) ;
#115 = DIRECTION ( 'NONE',  ( 1.000000000000000000, 0.000000000000000000, -0.000000000000000000 ) ) ;
#116 = CIRCLE ( 'NONE', #20, 8.000000000000000000 ) ;
#117 = CARTESIAN_POINT ( 'NONE',  ( 0.000000000000000000, 0.000000000000000000, 505.0000000000000000 ) ) ;
#118 = DIRECTION ( 'NONE',  ( 1.000000000000000000, 0.000000000000000000, 0.000000000000000000 ) ) ;
#119 = DIRECTION ( 'NONE',  ( 0.000000000000000000, 0.000000000000000000, 1.000000000000000000 ) ) ;
#120 = AXIS2_PLACEMENT_3D ( 'NONE', #290, #76, #169 ) ;
#121 =( NAMED_UNIT ( * ) SI_UNIT ( $, .STERADIAN. ) SOLID_ANGLE_UNIT ( ) );
#122 = EDGE_CURVE ( 'NONE', #12, #137, #271, .T. ) ;
#123 = ORIENTED_EDGE ( 'NONE', *, *, #304, .F. ) ;
#124 = VERTEX_POINT ( 'NONE', #151 ) ;
#125 = EDGE_LOOP ( 'NONE', ( #38, #277 ) ) ;
#126 = AXIS2_PLACEMENT_3D ( 'NONE', #276, #101, #148 ) ;
#127 = FACE_OUTER_BOUND ( 'NONE', #195, .T. ) ;
#128 = CALENDAR_DATE ( 2022, 20, 6 ) ;
#129 = DIRECTION ( 'NONE',  ( 0.000000000000000000, 0.000000000000000000, -1.000000000000000000 ) ) ;
#130 = APPROVAL_STATUS ( 'not_yet_approved' ) ;
#131 = DATE_TIME_ROLE ( 'creation_date' ) ;
#132 = LOCAL_TIME ( 11, 36, 50.00000000000000000, #41 ) ;
#133 = LINE ( 'NONE', #24, #240 ) ;
#134 = APPROVAL ( #58, 'NEURÈENÝ' ) ;
#135 = DIRECTION ( 'NONE',  ( -0.000000000000000000, -0.000000000000000000, -1.000000000000000000 ) ) ;
#136 = CYLINDRICAL_SURFACE ( 'NONE', #293, 8.000000000000000000 ) ;
#137 = VERTEX_POINT ( 'NONE', #15 ) ;
#138 = SHAPE_DEFINITION_REPRESENTATION ( #21, #163 ) ;
#139 = CARTESIAN_POINT ( 'NONE',  ( 0.000000000000000000, 0.000000000000000000, 5.000000000000000000 ) ) ;
#140 = ORIENTED_EDGE ( 'NONE', *, *, #268, .T. ) ;
#141 = CARTESIAN_POINT ( 'NONE',  ( 0.000000000000000000, 0.000000000000000000, 5.000000000000000000 ) ) ;
#142 = EDGE_CURVE ( 'NONE', #222, #252, #143, .T. ) ;
#143 = CIRCLE ( 'NONE', #216, 5.450000000000001066 ) ;
#144 =( NAMED_UNIT ( * ) PLANE_ANGLE_UNIT ( ) SI_UNIT ( $, .RADIAN. ) );
#145 = CARTESIAN_POINT ( 'NONE',  ( -5.250000000000000888, 0.000000000000000000, 505.0000000000000000 ) ) ;
#146 = VERTEX_POINT ( 'NONE', #110 ) ;
#147 = APPROVAL ( #130, 'NEURÈENÝ' ) ;
#148 = DIRECTION ( 'NONE',  ( 1.000000000000000000, 0.000000000000000000, 0.000000000000000000 ) ) ;
#149 = ORIENTED_EDGE ( 'NONE', *, *, #8, .T. ) ;
#150 = CALENDAR_DATE ( 2022, 20, 6 ) ;
#151 = CARTESIAN_POINT ( 'NONE',  ( -8.000000000000000000, 0.000000000000000000, 0.000000000000000000 ) ) ;
#152 = AXIS2_PLACEMENT_3D ( 'NONE', #171, #192, #215 ) ;
#153 = DATE_AND_TIME ( #260, #164 ) ;
#154 = PLANE ( 'NONE',  #71 ) ;
#155 = COORDINATED_UNIVERSAL_TIME_OFFSET ( 1, 0, .AHEAD. ) ;
#156 = DIRECTION ( 'NONE',  ( 1.000000000000000000, 0.000000000000000000, -0.000000000000000000 ) ) ;
#157 = ADVANCED_FACE ( 'NONE', ( #204 ), #186, .T. ) ;
#158 = ORIENTED_EDGE ( 'NONE', *, *, #253, .F. ) ;
#159 = APPROVAL_ROLE ( '' ) ;
#160 = AXIS2_PLACEMENT_3D ( 'NONE', #84, #179, #129 ) ;
#161 = CLOSED_SHELL ( 'NONE', ( #23, #223, #157, #245, #279, #81, #3, #209, #86 ) ) ;
#162 = DIRECTION ( 'NONE',  ( 0.000000000000000000, 0.000000000000000000, 1.000000000000000000 ) ) ;
#163 = ADVANCED_BREP_SHAPE_REPRESENTATION ( '859a', ( #28, #126 ), #92 ) ;
#164 = LOCAL_TIME ( 11, 36, 50.00000000000000000, #155 ) ;
#165 = DIRECTION ( 'NONE',  ( 0.000000000000000000, 0.000000000000000000, 1.000000000000000000 ) ) ;
#166 = APPROVAL ( #37, 'NEURÈENÝ' ) ;
#167 = CARTESIAN_POINT ( 'NONE',  ( 5.450000000000001066, 0.000000000000000000, 4.999999999999991118 ) ) ;
#168 = AXIS2_PLACEMENT_3D ( 'NONE', #16, #113, #62 ) ;
#169 = DIRECTION ( 'NONE',  ( 1.000000000000000000, 0.000000000000000000, 0.000000000000000000 ) ) ;
#170 = EDGE_LOOP ( 'NONE', ( #34, #10, #194, #105 ) ) ;
#171 = CARTESIAN_POINT ( 'NONE',  ( 0.000000000000000000, 0.000000000000000000, 5.199999999999982414 ) ) ;
#172 = LOCAL_TIME ( 11, 36, 50.00000000000000000, #108 ) ;
#173 = PRODUCT_DEFINITION ( 'NEZNÁMÝ', '', #207, #281 ) ;
#174 = ORIENTED_EDGE ( 'NONE', *, *, #122, .F. ) ;
#175 = AXIS2_PLACEMENT_3D ( 'NONE', #29, #119, #118 ) ;
#176 = ORIENTED_EDGE ( 'NONE', *, *, #205, .T. ) ;
#177 = CIRCLE ( 'NONE', #297, 5.250000000000000888 ) ;
#178 = ORIENTED_EDGE ( 'NONE', *, *, #273, .T. ) ;
#179 = DIRECTION ( 'NONE',  ( 0.000000000000000000, -1.000000000000000000, 0.000000000000000000 ) ) ;
#180 = DATE_TIME_ROLE ( 'classification_date' ) ;
#181 = CARTESIAN_POINT ( 'NONE',  ( 0.000000000000000000, 0.000000000000000000, 5.000000000000000000 ) ) ;
#182 = EDGE_CURVE ( 'NONE', #35, #77, #116, .T. ) ;
#183 = CALENDAR_DATE ( 2022, 20, 6 ) ;
#184 = DIRECTION ( 'NONE',  ( 1.000000000000000000, 0.000000000000000000, 0.000000000000000000 ) ) ;
#185 = CALENDAR_DATE ( 2022, 20, 6 ) ;
#186 = CYLINDRICAL_SURFACE ( 'NONE', #26, 8.000000000000000000 ) ;
#187 = ORIENTED_EDGE ( 'NONE', *, *, #221, .F. ) ;
#188 = PERSON_AND_ORGANIZATION ( #278, #272 ) ;
#189 = AXIS2_PLACEMENT_3D ( 'NONE', #307, #59, #64 ) ;
#190 = CYLINDRICAL_SURFACE ( 'NONE', #75, 5.250000000000000888 ) ;
#191 = CIRCLE ( 'NONE', #152, 5.250000000000000888 ) ;
#192 = DIRECTION ( 'NONE',  ( 0.000000000000000000, 0.000000000000000000, 1.000000000000000000 ) ) ;
#193 = CIRCLE ( 'NONE', #39, 5.250000000000000888 ) ;
#194 = ORIENTED_EDGE ( 'NONE', *, *, #103, .F. ) ;
#195 = EDGE_LOOP ( 'NONE', ( #200, #298 ) ) ;
#196 = AXIS2_PLACEMENT_3D ( 'NONE', #141, #246, #115 ) ;
#197 = CC_DESIGN_APPROVAL ( #147, ( #49 ) ) ;
#198 = CARTESIAN_POINT ( 'NONE',  ( 0.000000000000000000, 0.000000000000000000, 505.0000000000000000 ) ) ;
#199 = PERSON_AND_ORGANIZATION_ROLE ( 'design_owner' ) ;
#200 = ORIENTED_EDGE ( 'NONE', *, *, #262, .F. ) ;
#201 = AXIS2_PLACEMENT_3D ( 'NONE', #270, #265, #52 ) ;
#202 = DIRECTION ( 'NONE',  ( -1.000000000000000000, 0.000000000000000000, 0.000000000000000000 ) ) ;
#203 = APPLICATION_PROTOCOL_DEFINITION ( 'international standard', 'config_control_design', 1994, #13 ) ;
#204 = FACE_OUTER_BOUND ( 'NONE', #7, .T. ) ;
#205 = EDGE_CURVE ( 'NONE', #146, #244, #193, .T. ) ;
#206 = CIRCLE ( 'NONE', #189, 5.450000000000001066 ) ;
#207 = PRODUCT_DEFINITION_FORMATION_WITH_SPECIFIED_SOURCE ( 'LIBOVOLNÝ', '', #238, .NOT_KNOWN. ) ;
#208 = DIRECTION ( 'NONE',  ( -0.000000000000000000, -0.000000000000000000, -1.000000000000000000 ) ) ;
#209 = ADVANCED_FACE ( 'NONE', ( #46 ), #154, .T. ) ;
#210 = DIRECTION ( 'NONE',  ( -0.000000000000000000, -0.000000000000000000, -1.000000000000000000 ) ) ;
#211 = ORIENTED_EDGE ( 'NONE', *, *, #288, .T. ) ;
#212 = LINE ( 'NONE', #2, #228 ) ;
#213 = APPROVAL_PERSON_ORGANIZATION ( #256, #147, #18 ) ;
#214 = LINE ( 'NONE', #74, #287 ) ;
#215 = DIRECTION ( 'NONE',  ( 1.000000000000000000, 0.000000000000000000, 0.000000000000000000 ) ) ;
#216 = AXIS2_PLACEMENT_3D ( 'NONE', #181, #19, #89 ) ;
#217 = ORIENTED_EDGE ( 'NONE', *, *, #68, .T. ) ;
#218 = CC_DESIGN_APPROVAL ( #166, ( #207 ) ) ;
#219 = APPROVAL_PERSON_ORGANIZATION ( #112, #166, #236 ) ;
#220 = CARTESIAN_POINT ( 'NONE',  ( -8.000000000000000000, 0.000000000000000000, 5.000000000000000000 ) ) ;
#221 = EDGE_CURVE ( 'NONE', #35, #124, #133, .T. ) ;
#222 = VERTEX_POINT ( 'NONE', #90 ) ;
#223 = ADVANCED_FACE ( 'NONE', ( #40 ), #190, .T. ) ;
#224 = ORIENTED_EDGE ( 'NONE', *, *, #142, .F. ) ;
#225 = CIRCLE ( 'NONE', #160, 0.1999999999999996503 ) ;
#226 = DATE_AND_TIME ( #150, #47 ) ;
#227 = ORIENTED_EDGE ( 'NONE', *, *, #142, .T. ) ;
#228 = VECTOR ( 'NONE', #72, 1000.000000000000000 ) ;
#229 = PERSON_AND_ORGANIZATION ( #278, #272 ) ;
#230 = PLANE ( 'NONE',  #168 ) ;
#231 = CC_DESIGN_PERSON_AND_ORGANIZATION_ASSIGNMENT ( #285, #69, ( #49 ) ) ;
#232 = DATE_AND_TIME ( #128, #132 ) ;
#233 = DIRECTION ( 'NONE',  ( 0.000000000000000000, 0.000000000000000000, 1.000000000000000000 ) ) ;
#234 = DATE_AND_TIME ( #185, #172 ) ;
#235 = CARTESIAN_POINT ( 'NONE',  ( 0.000000000000000000, 0.000000000000000000, 505.0000000000000000 ) ) ;
#236 = APPROVAL_ROLE ( '' ) ;
#237 = CARTESIAN_POINT ( 'NONE',  ( 0.000000000000000000, 0.000000000000000000, 505.0000000000000000 ) ) ;
#238 = PRODUCT ( '859a', '859a', '', ( #9 ) ) ;
#239 = VERTEX_POINT ( 'NONE', #299 ) ;
#240 = VECTOR ( 'NONE', #210, 1000.000000000000000 ) ;
#241 = PLANE ( 'NONE',  #196 ) ;
#242 = DIRECTION ( 'NONE',  ( -1.000000000000000000, 1.224646799147353454E-16, 0.000000000000000000 ) ) ;
#243 = LINE ( 'NONE', #145, #80 ) ;
#244 = VERTEX_POINT ( 'NONE', #280 ) ;
#245 = ADVANCED_FACE ( 'NONE', ( #289 ), #136, .T. ) ;
#246 = DIRECTION ( 'NONE',  ( 0.000000000000000000, 0.000000000000000000, 1.000000000000000000 ) ) ;
#247 = CIRCLE ( 'NONE', #97, 0.1999999999999996503 ) ;
#248 = FACE_OUTER_BOUND ( 'NONE', #104, .T. ) ;
#249 = EDGE_CURVE ( 'NONE', #137, #244, #214, .T. ) ;
#250 = ORIENTED_EDGE ( 'NONE', *, *, #122, .T. ) ;
#251 = DATE_AND_TIME ( #183, #295 ) ;
#252 = VERTEX_POINT ( 'NONE', #167 ) ;
#253 = EDGE_CURVE ( 'NONE', #146, #222, #247, .T. ) ;
#254 = PERSON_AND_ORGANIZATION_ROLE ( 'creator' ) ;
#255 = CARTESIAN_POINT ( 'NONE',  ( 0.000000000000000000, 0.000000000000000000, 5.199999999999982414 ) ) ;
#256 = PERSON_AND_ORGANIZATION ( #278, #272 ) ;
#257 = CARTESIAN_POINT ( 'NONE',  ( 0.000000000000000000, 0.000000000000000000, 505.0000000000000000 ) ) ;
#258 = DIRECTION ( 'NONE',  ( 0.000000000000000000, 0.000000000000000000, 1.000000000000000000 ) ) ;
#259 = EDGE_LOOP ( 'NONE', ( #158, #79, #217, #224 ) ) ;
#260 = CALENDAR_DATE ( 2022, 20, 6 ) ;
#261 = CARTESIAN_POINT ( 'NONE',  ( 0.000000000000000000, 0.000000000000000000, 5.000000000000000000 ) ) ;
#262 = EDGE_CURVE ( 'NONE', #124, #239, #11, .T. ) ;
#263 = CIRCLE ( 'NONE', #120, 8.000000000000000000 ) ;
#264 = CC_DESIGN_PERSON_AND_ORGANIZATION_ASSIGNMENT ( #296, #199, ( #238 ) ) ;
#265 = DIRECTION ( 'NONE',  ( 0.000000000000000000, 0.000000000000000000, 1.000000000000000000 ) ) ;
#266 = ORIENTED_EDGE ( 'NONE', *, *, #273, .F. ) ;
#267 = FACE_BOUND ( 'NONE', #83, .T. ) ;
#268 = EDGE_CURVE ( 'NONE', #244, #146, #191, .T. ) ;
#269 = CYLINDRICAL_SURFACE ( 'NONE', #44, 5.250000000000000888 ) ;
#270 = CARTESIAN_POINT ( 'NONE',  ( 0.000000000000000000, 0.000000000000000000, 0.000000000000000000 ) ) ;
#271 = CIRCLE ( 'NONE', #109, 5.250000000000000888 ) ;
#272 = ORGANIZATION ( 'NEURÈENÝ', 'NEURÈENÝ', '' ) ;
#273 = EDGE_CURVE ( 'NONE', #137, #12, #177, .T. ) ;
#274 = DIRECTION ( 'NONE',  ( -0.000000000000000000, -0.000000000000000000, -1.000000000000000000 ) ) ;
#275 = ORIENTED_EDGE ( 'NONE', *, *, #221, .T. ) ;
#276 = CARTESIAN_POINT ( 'NONE',  ( 0.000000000000000000, 0.000000000000000000, 0.000000000000000000 ) ) ;
#277 = ORIENTED_EDGE ( 'NONE', *, *, #304, .T. ) ;
#278 = PERSON ( 'NEURÈENÝ', 'NEURÈENÝ', 'NEURÈENÝ', ('NEURÈENÝ'), ('NEURÈENÝ'), ('NEURÈENÝ') ) ;
#279 = ADVANCED_FACE ( 'NONE', ( #267, #55 ), #241, .T. ) ;
#280 = CARTESIAN_POINT ( 'NONE',  ( 5.250000000000000888, 6.429395695523605139E-16, 5.199999999999982414 ) ) ;
#281 = DESIGN_CONTEXT ( 'detailed design', #13, 'design' ) ;
#282 = CARTESIAN_POINT ( 'NONE',  ( 0.000000000000000000, 0.000000000000000000, 5.000000000000000000 ) ) ;
#283 = DIRECTION ( 'NONE',  ( 1.000000000000000000, 0.000000000000000000, 0.000000000000000000 ) ) ;
#284 = DIRECTION ( 'NONE',  ( -1.000000000000000000, 0.000000000000000000, 0.000000000000000000 ) ) ;
#285 = PERSON_AND_ORGANIZATION ( #278, #272 ) ;
#286 = DIRECTION ( 'NONE',  ( -0.000000000000000000, -0.000000000000000000, -1.000000000000000000 ) ) ;
#287 = VECTOR ( 'NONE', #94, 1000.000000000000000 ) ;
#288 = EDGE_CURVE ( 'NONE', #77, #239, #212, .T. ) ;
#289 = FACE_OUTER_BOUND ( 'NONE', #1, .T. ) ;
#290 = CARTESIAN_POINT ( 'NONE',  ( 0.000000000000000000, 0.000000000000000000, 0.000000000000000000 ) ) ;
#291 =( LENGTH_UNIT ( ) NAMED_UNIT ( * ) SI_UNIT ( .MILLI., .METRE. ) );
#292 = EDGE_LOOP ( 'NONE', ( #266, #114, #140, #57 ) ) ;
#293 = AXIS2_PLACEMENT_3D ( 'NONE', #139, #135, #99 ) ;
#294 = APPLICATION_PROTOCOL_DEFINITION ( 'international standard', 'config_control_design', 1994, #36 ) ;
#295 = LOCAL_TIME ( 11, 36, 50.00000000000000000, #107 ) ;
#296 = PERSON_AND_ORGANIZATION ( #278, #272 ) ;
#297 = AXIS2_PLACEMENT_3D ( 'NONE', #117, #30, #78 ) ;
#298 = ORIENTED_EDGE ( 'NONE', *, *, #8, .F. ) ;
#299 = CARTESIAN_POINT ( 'NONE',  ( 8.000000000000000000, 9.797174393178825657E-16, 0.000000000000000000 ) ) ;
#300 = COORDINATED_UNIVERSAL_TIME_OFFSET ( 1, 0, .AHEAD. ) ;
#301 = CARTESIAN_POINT ( 'NONE',  ( 0.000000000000000000, 0.000000000000000000, 5.199999999999982414 ) ) ;
#302 = CARTESIAN_POINT ( 'NONE',  ( 8.000000000000000000, 9.797174393178825657E-16, 5.000000000000000000 ) ) ;
#303 = CC_DESIGN_APPROVAL ( #134, ( #173 ) ) ;
#304 = EDGE_CURVE ( 'NONE', #77, #35, #60, .T. ) ;
#305 = DIRECTION ( 'NONE',  ( 1.000000000000000000, 0.000000000000000000, 0.000000000000000000 ) ) ;
#306 = SECURITY_CLASSIFICATION_LEVEL ( 'unclassified' ) ;
#307 = CARTESIAN_POINT ( 'NONE',  ( 0.000000000000000000, 0.000000000000000000, 5.000000000000000000 ) ) ;
ENDSEC;
END-ISO-10303-21;
