ISO-10303-21;
HEADER;
FILE_DESCRIPTION (( 'STEP AP203' ),
    '1' );
FILE_NAME ('0473.STEP',
    '2022-06-20T09:54:44',
    ( '' ),
    ( '' ),
    'SwSTEP 2.0',
    'SolidWorks 2019',
    '' );
FILE_SCHEMA (( 'CONFIG_CONTROL_DESIGN' ));
ENDSEC;

DATA;
#1 = FACE_OUTER_BOUND ( 'NONE', #227, .T. ) ;
#2 = EDGE_CURVE ( 'NONE', #282, #21, #260, .T. ) ;
#3 = CARTESIAN_POINT ( 'NONE',  ( 0.000000000000000000, 0.000000000000000000, 0.000000000000000000 ) ) ;
#4 = PERSON_AND_ORGANIZATION ( #306, #42 ) ;
#5 = ORIENTED_EDGE ( 'NONE', *, *, #151, .F. ) ;
#6 = AXIS2_PLACEMENT_3D ( 'NONE', #127, #55, #9 ) ;
#7 = LOCAL_TIME ( 11, 54, 44.00000000000000000, #292 ) ;
#8 = CARTESIAN_POINT ( 'NONE',  ( 0.000000000000000000, 0.000000000000000000, 165.0000000000000000 ) ) ;
#9 = DIRECTION ( 'NONE',  ( 1.000000000000000000, 0.000000000000000000, 0.000000000000000000 ) ) ;
#10 = CARTESIAN_POINT ( 'NONE',  ( 0.000000000000000000, 0.000000000000000000, 5.000000000000000000 ) ) ;
#11 = MECHANICAL_CONTEXT ( 'NONE', #171, 'mechanical' ) ;
#12 = FACE_OUTER_BOUND ( 'NONE', #40, .T. ) ;
#13 = DIRECTION ( 'NONE',  ( 1.000000000000000000, 0.000000000000000000, 0.000000000000000000 ) ) ;
#14 = PERSON_AND_ORGANIZATION ( #306, #42 ) ;
#15 = CARTESIAN_POINT ( 'NONE',  ( 0.000000000000000000, 0.000000000000000000, 5.200000000000009948 ) ) ;
#16 = DIRECTION ( 'NONE',  ( 1.000000000000000000, 0.000000000000000000, 0.000000000000000000 ) ) ;
#17 = EDGE_LOOP ( 'NONE', ( #18, #256 ) ) ;
#18 = ORIENTED_EDGE ( 'NONE', *, *, #143, .T. ) ;
#19 = VECTOR ( 'NONE', #248, 1000.000000000000000 ) ;
#20 = ORIENTED_EDGE ( 'NONE', *, *, #70, .F. ) ;
#21 = VERTEX_POINT ( 'NONE', #142 ) ;
#22 = EDGE_CURVE ( 'NONE', #282, #64, #86, .T. ) ;
#23 = DIRECTION ( 'NONE',  ( -0.000000000000000000, -0.000000000000000000, -1.000000000000000000 ) ) ;
#24 = CARTESIAN_POINT ( 'NONE',  ( -6.000000000000000888, 0.000000000000000000, 0.000000000000000000 ) ) ;
#25 = PERSON_AND_ORGANIZATION_ROLE ( 'creator' ) ;
#26 = DIRECTION ( 'NONE',  ( 0.000000000000000000, 0.000000000000000000, 1.000000000000000000 ) ) ;
#27 = LINE ( 'NONE', #279, #19 ) ;
#28 = PERSON_AND_ORGANIZATION_ROLE ( 'creator' ) ;
#29 = ORIENTED_EDGE ( 'NONE', *, *, #245, .F. ) ;
#30 = DATE_AND_TIME ( #170, #167 ) ;
#31 = PRODUCT_DEFINITION ( 'NEZNÁMÝ', '', #166, #115 ) ;
#32 = FACE_OUTER_BOUND ( 'NONE', #288, .T. ) ;
#33 = PERSON_AND_ORGANIZATION ( #306, #42 ) ;
#34 = AXIS2_PLACEMENT_3D ( 'NONE', #69, #26, #99 ) ;
#35 = CIRCLE ( 'NONE', #6, 3.250000000000000444 ) ;
#36 = APPROVAL ( #101, 'NEURÈENÝ' ) ;
#37 = FACE_OUTER_BOUND ( 'NONE', #161, .T. ) ;
#38 = CARTESIAN_POINT ( 'NONE',  ( 0.000000000000000000, 0.000000000000000000, 0.000000000000000000 ) ) ;
#39 = VECTOR ( 'NONE', #23, 1000.000000000000000 ) ;
#40 = EDGE_LOOP ( 'NONE', ( #90, #231, #307, #5 ) ) ;
#41 = ADVANCED_FACE ( 'NONE', ( #163 ), #168, .F. ) ;
#42 = ORGANIZATION ( 'NEURÈENÝ', 'NEURÈENÝ', '' ) ;
#43 = DIRECTION ( 'NONE',  ( -0.000000000000000000, -0.000000000000000000, -1.000000000000000000 ) ) ;
#44 = VERTEX_POINT ( 'NONE', #24 ) ;
#45 = AXIS2_PLACEMENT_3D ( 'NONE', #79, #175, #278 ) ;
#46 = ORIENTED_EDGE ( 'NONE', *, *, #238, .F. ) ;
#47 = LINE ( 'NONE', #266, #137 ) ;
#48 = CARTESIAN_POINT ( 'NONE',  ( 0.000000000000000000, 0.000000000000000000, 5.200000000000009948 ) ) ;
#49 = CARTESIAN_POINT ( 'NONE',  ( 3.450000000000000178, 0.000000000000000000, 5.200000000000009948 ) ) ;
#50 = CALENDAR_DATE ( 2022, 20, 6 ) ;
#51 = DIRECTION ( 'NONE',  ( 1.000000000000000000, 0.000000000000000000, 0.000000000000000000 ) ) ;
#52 = DIRECTION ( 'NONE',  ( -1.000000000000000000, 0.000000000000000000, 0.000000000000000000 ) ) ;
#53 = DIRECTION ( 'NONE',  ( 1.000000000000000000, 0.000000000000000000, 0.000000000000000000 ) ) ;
#54 = DIRECTION ( 'NONE',  ( 1.000000000000000000, 0.000000000000000000, -0.000000000000000000 ) ) ;
#55 = DIRECTION ( 'NONE',  ( 0.000000000000000000, 0.000000000000000000, 1.000000000000000000 ) ) ;
#56 = EDGE_CURVE ( 'NONE', #64, #282, #261, .T. ) ;
#57 = CARTESIAN_POINT ( 'NONE',  ( 6.000000000000000888, 7.347880794884120722E-16, 0.000000000000000000 ) ) ;
#58 = CALENDAR_DATE ( 2022, 20, 6 ) ;
#59 = LOCAL_TIME ( 11, 54, 44.00000000000000000, #155 ) ;
#60 = ORIENTED_EDGE ( 'NONE', *, *, #98, .T. ) ;
#61 = CC_DESIGN_PERSON_AND_ORGANIZATION_ASSIGNMENT ( #33, #100, ( #223 ) ) ;
#62 = EDGE_LOOP ( 'NONE', ( #111, #203, #184, #257 ) ) ;
#63 = TOROIDAL_SURFACE ( 'NONE', #221, 3.450000000000000178, 0.2000000000000000111 ) ;
#64 = VERTEX_POINT ( 'NONE', #97 ) ;
#65 = APPLICATION_PROTOCOL_DEFINITION ( 'international standard', 'config_control_design', 1994, #171 ) ;
#66 = DIRECTION ( 'NONE',  ( -0.000000000000000000, -0.000000000000000000, -1.000000000000000000 ) ) ;
#67 = DIRECTION ( 'NONE',  ( -0.000000000000000000, -0.000000000000000000, -1.000000000000000000 ) ) ;
#68 = CARTESIAN_POINT ( 'NONE',  ( 0.000000000000000000, 0.000000000000000000, 165.0000000000000000 ) ) ;
#69 = CARTESIAN_POINT ( 'NONE',  ( 0.000000000000000000, 0.000000000000000000, 5.000000000000000000 ) ) ;
#70 = EDGE_CURVE ( 'NONE', #226, #267, #285, .T. ) ;
#71 = AXIS2_PLACEMENT_3D ( 'NONE', #68, #295, #162 ) ;
#72 = APPLICATION_PROTOCOL_DEFINITION ( 'international standard', 'config_control_design', 1994, #78 ) ;
#73 = DATE_AND_TIME ( #76, #303 ) ;
#74 = SECURITY_CLASSIFICATION ( '', '', #116 ) ;
#75 = DIRECTION ( 'NONE',  ( 0.000000000000000000, 0.000000000000000000, 1.000000000000000000 ) ) ;
#76 = CALENDAR_DATE ( 2022, 20, 6 ) ;
#77 = CC_DESIGN_DATE_AND_TIME_ASSIGNMENT ( #277, #85, ( #74 ) ) ;
#78 = APPLICATION_CONTEXT ( 'configuration controlled 3d designs of mechanical parts and assemblies' ) ;
#79 = CARTESIAN_POINT ( 'NONE',  ( 0.000000000000000000, 0.000000000000000000, 165.0000000000000000 ) ) ;
#80 = SHAPE_DEFINITION_REPRESENTATION ( #210, #287 ) ;
#81 = DIRECTION ( 'NONE',  ( -1.000000000000000000, 0.000000000000000000, 0.000000000000000000 ) ) ;
#82 = MANIFOLD_SOLID_BREP ( 'Zaoblit1', #268 ) ;
#83 = AXIS2_PLACEMENT_3D ( 'NONE', #38, #222, #13 ) ;
#84 = EDGE_CURVE ( 'NONE', #280, #304, #109, .T. ) ;
#85 = DATE_TIME_ROLE ( 'classification_date' ) ;
#86 = CIRCLE ( 'NONE', #246, 3.250000000000000444 ) ;
#87 = ORIENTED_EDGE ( 'NONE', *, *, #118, .T. ) ;
#88 = AXIS2_PLACEMENT_3D ( 'NONE', #123, #217, #274 ) ;
#89 = APPROVAL_PERSON_ORGANIZATION ( #239, #220, #242 ) ;
#90 = ORIENTED_EDGE ( 'NONE', *, *, #201, .F. ) ;
#91 = EDGE_CURVE ( 'NONE', #44, #302, #300, .T. ) ;
#92 = UNCERTAINTY_MEASURE_WITH_UNIT (LENGTH_MEASURE( 1.000000000000000082E-05 ), #247, 'distance_accuracy_value', 'NONE');
#93 = EDGE_CURVE ( 'NONE', #304, #280, #275, .T. ) ;
#94 = CARTESIAN_POINT ( 'NONE',  ( 3.250000000000000444, 3.980102097228898231E-16, 165.0000000000000000 ) ) ;
#95 = DIRECTION ( 'NONE',  ( 1.000000000000000000, 0.000000000000000000, 0.000000000000000000 ) ) ;
#96 = CARTESIAN_POINT ( 'NONE',  ( 3.250000000000000444, 3.980102097228898231E-16, 5.200000000000009948 ) ) ;
#97 = CARTESIAN_POINT ( 'NONE',  ( 3.250000000000000444, 3.980102097228898231E-16, 165.0000000000000000 ) ) ;
#98 = EDGE_CURVE ( 'NONE', #304, #302, #47, .T. ) ;
#99 = DIRECTION ( 'NONE',  ( 1.000000000000000000, 0.000000000000000000, 0.000000000000000000 ) ) ;
#100 = PERSON_AND_ORGANIZATION_ROLE ( 'design_owner' ) ;
#101 = APPROVAL_STATUS ( 'not_yet_approved' ) ;
#102 = CIRCLE ( 'NONE', #148, 0.2000000000000000944 ) ;
#103 = CARTESIAN_POINT ( 'NONE',  ( 0.000000000000000000, 0.000000000000000000, 165.0000000000000000 ) ) ;
#104 = APPROVAL_STATUS ( 'not_yet_approved' ) ;
#105 = ADVANCED_FACE ( 'NONE', ( #117 ), #169, .T. ) ;
#106 = AXIS2_PLACEMENT_3D ( 'NONE', #10, #75, #54 ) ;
#107 = ORIENTED_EDGE ( 'NONE', *, *, #2, .T. ) ;
#108 = EDGE_LOOP ( 'NONE', ( #255, #87, #202, #159 ) ) ;
#109 = CIRCLE ( 'NONE', #125, 6.000000000000000888 ) ;
#110 = ORIENTED_EDGE ( 'NONE', *, *, #201, .T. ) ;
#111 = ORIENTED_EDGE ( 'NONE', *, *, #98, .F. ) ;
#112 = DIRECTION ( 'NONE',  ( 1.000000000000000000, 0.000000000000000000, 0.000000000000000000 ) ) ;
#113 = LOCAL_TIME ( 11, 54, 44.00000000000000000, #195 ) ;
#114 = DIRECTION ( 'NONE',  ( 0.000000000000000000, 0.000000000000000000, 1.000000000000000000 ) ) ;
#115 = DESIGN_CONTEXT ( 'detailed design', #78, 'design' ) ;
#116 = SECURITY_CLASSIFICATION_LEVEL ( 'unclassified' ) ;
#117 = FACE_OUTER_BOUND ( 'NONE', #108, .T. ) ;
#118 = EDGE_CURVE ( 'NONE', #64, #119, #232, .T. ) ;
#119 = VERTEX_POINT ( 'NONE', #96 ) ;
#120 = COORDINATED_UNIVERSAL_TIME_OFFSET ( 1, 0, .AHEAD. ) ;
#121 = DIRECTION ( 'NONE',  ( 0.000000000000000000, 0.000000000000000000, 1.000000000000000000 ) ) ;
#122 = CIRCLE ( 'NONE', #172, 0.1999999999999996503 ) ;
#123 = CARTESIAN_POINT ( 'NONE',  ( 0.000000000000000000, 0.000000000000000000, 0.000000000000000000 ) ) ;
#124 = FACE_OUTER_BOUND ( 'NONE', #62, .T. ) ;
#125 = AXIS2_PLACEMENT_3D ( 'NONE', #291, #235, #95 ) ;
#126 = APPROVAL_STATUS ( 'not_yet_approved' ) ;
#127 = CARTESIAN_POINT ( 'NONE',  ( 0.000000000000000000, 0.000000000000000000, 5.200000000000009948 ) ) ;
#128 = DIRECTION ( 'NONE',  ( 1.224646799147353207E-16, 1.000000000000000000, -0.000000000000000000 ) ) ;
#129 = AXIS2_PLACEMENT_3D ( 'NONE', #254, #43, #52 ) ;
#130 = CC_DESIGN_APPROVAL ( #290, ( #74 ) ) ;
#131 = CYLINDRICAL_SURFACE ( 'NONE', #241, 3.250000000000000444 ) ;
#132 =( NAMED_UNIT ( * ) SI_UNIT ( $, .STERADIAN. ) SOLID_ANGLE_UNIT ( ) );
#133 = ADVANCED_FACE ( 'NONE', ( #185 ), #251, .F. ) ;
#134 = ORIENTED_EDGE ( 'NONE', *, *, #22, .T. ) ;
#135 = AXIS2_PLACEMENT_3D ( 'NONE', #15, #173, #16 ) ;
#136 = ORIENTED_EDGE ( 'NONE', *, *, #93, .F. ) ;
#137 = VECTOR ( 'NONE', #189, 1000.000000000000000 ) ;
#138 = ORIENTED_EDGE ( 'NONE', *, *, #219, .F. ) ;
#139 = DIRECTION ( 'NONE',  ( 1.000000000000000000, 0.000000000000000000, -0.000000000000000000 ) ) ;
#140 = DIRECTION ( 'NONE',  ( 0.000000000000000000, 0.000000000000000000, 1.000000000000000000 ) ) ;
#141 = CC_DESIGN_APPROVAL ( #36, ( #31 ) ) ;
#142 = CARTESIAN_POINT ( 'NONE',  ( -3.250000000000000444, 0.000000000000000000, 5.200000000000009948 ) ) ;
#143 = EDGE_CURVE ( 'NONE', #267, #226, #181, .T. ) ;
#144 = CARTESIAN_POINT ( 'NONE',  ( 0.000000000000000000, 0.000000000000000000, 5.000000000000000000 ) ) ;
#145 = DATE_TIME_ROLE ( 'creation_date' ) ;
#146 = DIRECTION ( 'NONE',  ( 0.000000000000000000, -1.000000000000000000, 0.000000000000000000 ) ) ;
#147 =( NAMED_UNIT ( * ) PLANE_ANGLE_UNIT ( ) SI_UNIT ( $, .RADIAN. ) );
#148 = AXIS2_PLACEMENT_3D ( 'NONE', #199, #128, #249 ) ;
#149 = DATE_AND_TIME ( #265, #113 ) ;
#150 = CARTESIAN_POINT ( 'NONE',  ( -3.250000000000000444, 0.000000000000000000, 165.0000000000000000 ) ) ;
#151 = EDGE_CURVE ( 'NONE', #119, #267, #122, .T. ) ;
#152 = PERSON_AND_ORGANIZATION ( #306, #42 ) ;
#153 = CARTESIAN_POINT ( 'NONE',  ( 0.000000000000000000, 0.000000000000000000, 5.200000000000009948 ) ) ;
#154 = DIRECTION ( 'NONE',  ( 1.000000000000000000, 0.000000000000000000, 0.000000000000000000 ) ) ;
#155 = COORDINATED_UNIVERSAL_TIME_OFFSET ( 1, 0, .AHEAD. ) ;
#156 = CYLINDRICAL_SURFACE ( 'NONE', #129, 6.000000000000000888 ) ;
#157 = CC_DESIGN_PERSON_AND_ORGANIZATION_ASSIGNMENT ( #190, #28, ( #31 ) ) ;
#158 = CIRCLE ( 'NONE', #83, 6.000000000000000888 ) ;
#159 = ORIENTED_EDGE ( 'NONE', *, *, #2, .F. ) ;
#160 = ORIENTED_EDGE ( 'NONE', *, *, #91, .F. ) ;
#161 = EDGE_LOOP ( 'NONE', ( #230, #182, #107, #110 ) ) ;
#162 = DIRECTION ( 'NONE',  ( -1.000000000000000000, 0.000000000000000000, 0.000000000000000000 ) ) ;
#163 = FACE_OUTER_BOUND ( 'NONE', #206, .T. ) ;
#164 = AXIS2_PLACEMENT_3D ( 'NONE', #3, #213, #112 ) ;
#165 = DIRECTION ( 'NONE',  ( 1.000000000000000000, 0.000000000000000000, 0.000000000000000000 ) ) ;
#166 = PRODUCT_DEFINITION_FORMATION_WITH_SPECIFIED_SOURCE ( 'LIBOVOLNÝ', '', #223, .NOT_KNOWN. ) ;
#167 = LOCAL_TIME ( 11, 54, 44.00000000000000000, #120 ) ;
#168 = PLANE ( 'NONE',  #179 ) ;
#169 = CYLINDRICAL_SURFACE ( 'NONE', #71, 3.250000000000000444 ) ;
#170 = CALENDAR_DATE ( 2022, 20, 6 ) ;
#171 = APPLICATION_CONTEXT ( 'configuration controlled 3d designs of mechanical parts and assemblies' ) ;
#172 = AXIS2_PLACEMENT_3D ( 'NONE', #49, #146, #211 ) ;
#173 = DIRECTION ( 'NONE',  ( 0.000000000000000000, 0.000000000000000000, 1.000000000000000000 ) ) ;
#174 = CC_DESIGN_SECURITY_CLASSIFICATION ( #74, ( #166 ) ) ;
#175 = DIRECTION ( 'NONE',  ( 0.000000000000000000, 0.000000000000000000, 1.000000000000000000 ) ) ;
#176 = FACE_BOUND ( 'NONE', #17, .T. ) ;
#177 = FACE_OUTER_BOUND ( 'NONE', #204, .T. ) ;
#178 = ADVANCED_FACE ( 'NONE', ( #1 ), #187, .T. ) ;
#179 = AXIS2_PLACEMENT_3D ( 'NONE', #293, #234, #139 ) ;
#180 = ORIENTED_EDGE ( 'NONE', *, *, #151, .T. ) ;
#181 = CIRCLE ( 'NONE', #216, 3.450000000000000178 ) ;
#182 = ORIENTED_EDGE ( 'NONE', *, *, #22, .F. ) ;
#183 = ORIENTED_EDGE ( 'NONE', *, *, #245, .T. ) ;
#184 = ORIENTED_EDGE ( 'NONE', *, *, #197, .T. ) ;
#185 = FACE_OUTER_BOUND ( 'NONE', #252, .T. ) ;
#186 = CC_DESIGN_PERSON_AND_ORGANIZATION_ASSIGNMENT ( #152, #244, ( #166 ) ) ;
#187 = CYLINDRICAL_SURFACE ( 'NONE', #281, 6.000000000000000888 ) ;
#188 = PERSON_AND_ORGANIZATION_ROLE ( 'classification_officer' ) ;
#189 = DIRECTION ( 'NONE',  ( -0.000000000000000000, -0.000000000000000000, -1.000000000000000000 ) ) ;
#190 = PERSON_AND_ORGANIZATION ( #306, #42 ) ;
#191 = DIRECTION ( 'NONE',  ( 1.000000000000000000, 0.000000000000000000, 0.000000000000000000 ) ) ;
#192 = APPROVAL_DATE_TIME ( #30, #220 ) ;
#193 = ORIENTED_EDGE ( 'NONE', *, *, #84, .T. ) ;
#194 = APPROVAL_DATE_TIME ( #149, #36 ) ;
#195 = COORDINATED_UNIVERSAL_TIME_OFFSET ( 1, 0, .AHEAD. ) ;
#196 = PLANE ( 'NONE',  #45 ) ;
#197 = EDGE_CURVE ( 'NONE', #280, #44, #27, .T. ) ;
#198 = AXIS2_PLACEMENT_3D ( 'NONE', #218, #114, #165 ) ;
#199 = CARTESIAN_POINT ( 'NONE',  ( -3.450000000000000178, 4.225031457058368824E-16, 5.200000000000009948 ) ) ;
#200 = CARTESIAN_POINT ( 'NONE',  ( -6.000000000000000888, 0.000000000000000000, 5.000000000000000000 ) ) ;
#201 = EDGE_CURVE ( 'NONE', #21, #119, #258, .T. ) ;
#202 = ORIENTED_EDGE ( 'NONE', *, *, #219, .T. ) ;
#203 = ORIENTED_EDGE ( 'NONE', *, *, #84, .F. ) ;
#204 = EDGE_LOOP ( 'NONE', ( #134, #228 ) ) ;
#205 = ADVANCED_FACE ( 'NONE', ( #12 ), #63, .F. ) ;
#206 = EDGE_LOOP ( 'NONE', ( #160, #29 ) ) ;
#207 = DIRECTION ( 'NONE',  ( -0.000000000000000000, -0.000000000000000000, -1.000000000000000000 ) ) ;
#208 = APPROVAL_PERSON_ORGANIZATION ( #4, #36, #214 ) ;
#209 = CC_DESIGN_PERSON_AND_ORGANIZATION_ASSIGNMENT ( #212, #188, ( #74 ) ) ;
#210 = PRODUCT_DEFINITION_SHAPE ( 'NONE', 'NONE',  #31 ) ;
#211 = DIRECTION ( 'NONE',  ( 0.000000000000000000, 0.000000000000000000, -1.000000000000000000 ) ) ;
#212 = PERSON_AND_ORGANIZATION ( #306, #42 ) ;
#213 = DIRECTION ( 'NONE',  ( 0.000000000000000000, 0.000000000000000000, 1.000000000000000000 ) ) ;
#214 = APPROVAL_ROLE ( '' ) ;
#215 = CARTESIAN_POINT ( 'NONE',  ( 0.000000000000000000, 0.000000000000000000, 5.000000000000000000 ) ) ;
#216 = AXIS2_PLACEMENT_3D ( 'NONE', #263, #66, #53 ) ;
#217 = DIRECTION ( 'NONE',  ( 0.000000000000000000, 0.000000000000000000, 1.000000000000000000 ) ) ;
#218 = CARTESIAN_POINT ( 'NONE',  ( 0.000000000000000000, 0.000000000000000000, 165.0000000000000000 ) ) ;
#219 = EDGE_CURVE ( 'NONE', #119, #21, #35, .T. ) ;
#220 = APPROVAL ( #126, 'NEURÈENÝ' ) ;
#221 = AXIS2_PLACEMENT_3D ( 'NONE', #153, #271, #154 ) ;
#222 = DIRECTION ( 'NONE',  ( 0.000000000000000000, 0.000000000000000000, 1.000000000000000000 ) ) ;
#223 = PRODUCT ( '0473', '0473', '', ( #11 ) ) ;
#224 = APPROVAL_DATE_TIME ( #298, #290 ) ;
#225 = CC_DESIGN_APPROVAL ( #220, ( #166 ) ) ;
#226 = VERTEX_POINT ( 'NONE', #250 ) ;
#227 = EDGE_LOOP ( 'NONE', ( #136, #60, #183, #284 ) ) ;
#228 = ORIENTED_EDGE ( 'NONE', *, *, #56, .T. ) ;
#229 = PRODUCT_RELATED_PRODUCT_CATEGORY ( 'detail', '', ( #223 ) ) ;
#230 = ORIENTED_EDGE ( 'NONE', *, *, #118, .F. ) ;
#231 = ORIENTED_EDGE ( 'NONE', *, *, #238, .T. ) ;
#232 = LINE ( 'NONE', #94, #39 ) ;
#233 = CC_DESIGN_PERSON_AND_ORGANIZATION_ASSIGNMENT ( #297, #25, ( #166 ) ) ;
#234 = DIRECTION ( 'NONE',  ( 0.000000000000000000, 0.000000000000000000, 1.000000000000000000 ) ) ;
#235 = DIRECTION ( 'NONE',  ( 0.000000000000000000, 0.000000000000000000, 1.000000000000000000 ) ) ;
#236 = DIRECTION ( 'NONE',  ( -1.000000000000000000, 0.000000000000000000, 0.000000000000000000 ) ) ;
#237 = VECTOR ( 'NONE', #294, 1000.000000000000000 ) ;
#238 = EDGE_CURVE ( 'NONE', #21, #226, #102, .T. ) ;
#239 = PERSON_AND_ORGANIZATION ( #306, #42 ) ;
#240 = CARTESIAN_POINT ( 'NONE',  ( -3.250000000000000444, 0.000000000000000000, 165.0000000000000000 ) ) ;
#241 = AXIS2_PLACEMENT_3D ( 'NONE', #103, #299, #81 ) ;
#242 = APPROVAL_ROLE ( '' ) ;
#243 = CARTESIAN_POINT ( 'NONE',  ( 3.450000000000000178, 0.000000000000000000, 5.000000000000005329 ) ) ;
#244 = PERSON_AND_ORGANIZATION_ROLE ( 'design_supplier' ) ;
#245 = EDGE_CURVE ( 'NONE', #302, #44, #158, .T. ) ;
#246 = AXIS2_PLACEMENT_3D ( 'NONE', #8, #121, #262 ) ;
#247 =( LENGTH_UNIT ( ) NAMED_UNIT ( * ) SI_UNIT ( .MILLI., .METRE. ) );
#248 = DIRECTION ( 'NONE',  ( -0.000000000000000000, -0.000000000000000000, -1.000000000000000000 ) ) ;
#249 = DIRECTION ( 'NONE',  ( -1.000000000000000000, 1.224646799147350742E-16, 0.000000000000000000 ) ) ;
#250 = CARTESIAN_POINT ( 'NONE',  ( -3.450000000000000178, 4.225031457058368824E-16, 5.000000000000005329 ) ) ;
#251 = TOROIDAL_SURFACE ( 'NONE', #289, 3.450000000000000178, 0.2000000000000000111 ) ;
#252 = EDGE_LOOP ( 'NONE', ( #46, #138, #180, #20 ) ) ;
#253 = APPROVAL_ROLE ( '' ) ;
#254 = CARTESIAN_POINT ( 'NONE',  ( 0.000000000000000000, 0.000000000000000000, 5.000000000000000000 ) ) ;
#255 = ORIENTED_EDGE ( 'NONE', *, *, #56, .F. ) ;
#256 = ORIENTED_EDGE ( 'NONE', *, *, #70, .T. ) ;
#257 = ORIENTED_EDGE ( 'NONE', *, *, #91, .T. ) ;
#258 = CIRCLE ( 'NONE', #135, 3.250000000000000444 ) ;
#259 = ADVANCED_FACE ( 'NONE', ( #177 ), #196, .T. ) ;
#260 = LINE ( 'NONE', #240, #237 ) ;
#261 = CIRCLE ( 'NONE', #198, 3.250000000000000444 ) ;
#262 = DIRECTION ( 'NONE',  ( 1.000000000000000000, 0.000000000000000000, 0.000000000000000000 ) ) ;
#263 = CARTESIAN_POINT ( 'NONE',  ( 0.000000000000000000, 0.000000000000000000, 5.000000000000000000 ) ) ;
#264 = APPROVAL_PERSON_ORGANIZATION ( #14, #290, #253 ) ;
#265 = CALENDAR_DATE ( 2022, 20, 6 ) ;
#266 = CARTESIAN_POINT ( 'NONE',  ( 6.000000000000000888, 7.347880794884120722E-16, 5.000000000000000000 ) ) ;
#267 = VERTEX_POINT ( 'NONE', #243 ) ;
#268 = CLOSED_SHELL ( 'NONE', ( #205, #105, #178, #283, #301, #41, #272, #259, #133 ) ) ;
#269 =( GEOMETRIC_REPRESENTATION_CONTEXT ( 3 ) GLOBAL_UNCERTAINTY_ASSIGNED_CONTEXT ( ( #92 ) ) GLOBAL_UNIT_ASSIGNED_CONTEXT ( ( #247, #147, #132 ) ) REPRESENTATION_CONTEXT ( 'NONE', 'WORKASPACE' ) );
#270 = COORDINATED_UNIVERSAL_TIME_OFFSET ( 1, 0, .AHEAD. ) ;
#271 = DIRECTION ( 'NONE',  ( 0.000000000000000000, 0.000000000000000000, 1.000000000000000000 ) ) ;
#272 = ADVANCED_FACE ( 'NONE', ( #37 ), #131, .T. ) ;
#273 = CARTESIAN_POINT ( 'NONE',  ( 6.000000000000000888, 7.347880794884120722E-16, 5.000000000000000000 ) ) ;
#274 = DIRECTION ( 'NONE',  ( 1.000000000000000000, 0.000000000000000000, 0.000000000000000000 ) ) ;
#275 = CIRCLE ( 'NONE', #34, 6.000000000000000888 ) ;
#276 = PLANE ( 'NONE',  #106 ) ;
#277 = DATE_AND_TIME ( #50, #7 ) ;
#278 = DIRECTION ( 'NONE',  ( 1.000000000000000000, 0.000000000000000000, -0.000000000000000000 ) ) ;
#279 = CARTESIAN_POINT ( 'NONE',  ( -6.000000000000000888, 0.000000000000000000, 5.000000000000000000 ) ) ;
#280 = VERTEX_POINT ( 'NONE', #200 ) ;
#281 = AXIS2_PLACEMENT_3D ( 'NONE', #144, #67, #236 ) ;
#282 = VERTEX_POINT ( 'NONE', #150 ) ;
#283 = ADVANCED_FACE ( 'NONE', ( #124 ), #156, .T. ) ;
#284 = ORIENTED_EDGE ( 'NONE', *, *, #197, .F. ) ;
#285 = CIRCLE ( 'NONE', #305, 3.450000000000000178 ) ;
#286 = ORIENTED_EDGE ( 'NONE', *, *, #93, .T. ) ;
#287 = ADVANCED_BREP_SHAPE_REPRESENTATION ( '0473', ( #82, #88 ), #269 ) ;
#288 = EDGE_LOOP ( 'NONE', ( #193, #286 ) ) ;
#289 = AXIS2_PLACEMENT_3D ( 'NONE', #48, #140, #51 ) ;
#290 = APPROVAL ( #104, 'NEURÈENÝ' ) ;
#291 = CARTESIAN_POINT ( 'NONE',  ( 0.000000000000000000, 0.000000000000000000, 5.000000000000000000 ) ) ;
#292 = COORDINATED_UNIVERSAL_TIME_OFFSET ( 1, 0, .AHEAD. ) ;
#293 = CARTESIAN_POINT ( 'NONE',  ( 0.000000000000000000, 0.000000000000000000, 0.000000000000000000 ) ) ;
#294 = DIRECTION ( 'NONE',  ( -0.000000000000000000, -0.000000000000000000, -1.000000000000000000 ) ) ;
#295 = DIRECTION ( 'NONE',  ( -0.000000000000000000, -0.000000000000000000, -1.000000000000000000 ) ) ;
#296 = CC_DESIGN_DATE_AND_TIME_ASSIGNMENT ( #73, #145, ( #31 ) ) ;
#297 = PERSON_AND_ORGANIZATION ( #306, #42 ) ;
#298 = DATE_AND_TIME ( #58, #59 ) ;
#299 = DIRECTION ( 'NONE',  ( -0.000000000000000000, -0.000000000000000000, -1.000000000000000000 ) ) ;
#300 = CIRCLE ( 'NONE', #164, 6.000000000000000888 ) ;
#301 = ADVANCED_FACE ( 'NONE', ( #176, #32 ), #276, .T. ) ;
#302 = VERTEX_POINT ( 'NONE', #57 ) ;
#303 = LOCAL_TIME ( 11, 54, 44.00000000000000000, #270 ) ;
#304 = VERTEX_POINT ( 'NONE', #273 ) ;
#305 = AXIS2_PLACEMENT_3D ( 'NONE', #215, #207, #191 ) ;
#306 = PERSON ( 'NEURÈENÝ', 'NEURÈENÝ', 'NEURÈENÝ', ('NEURÈENÝ'), ('NEURÈENÝ'), ('NEURÈENÝ') ) ;
#307 = ORIENTED_EDGE ( 'NONE', *, *, #143, .F. ) ;
ENDSEC;
END-ISO-10303-21;
