ISO-10303-21;
HEADER;
FILE_DESCRIPTION (( 'STEP AP203' ),
    '1' );
FILE_NAME ('eef3.STEP',
    '2022-06-20T09:39:12',
    ( '' ),
    ( '' ),
    'SwSTEP 2.0',
    'SolidWorks 2019',
    '' );
FILE_SCHEMA (( 'CONFIG_CONTROL_DESIGN' ));
ENDSEC;

DATA;
#1 = APPROVAL ( #69, 'NEURÈENÝ' ) ;
#2 = AXIS2_PLACEMENT_3D ( 'NONE', #139, #112, #63 ) ;
#3 = ORIENTED_EDGE ( 'NONE', *, *, #79, .F. ) ;
#4 = LOCAL_TIME ( 11, 39, 12.00000000000000000, #15 ) ;
#5 = EDGE_LOOP ( 'NONE', ( #181, #58 ) ) ;
#6 = CIRCLE ( 'NONE', #136, 5.100000000000001421 ) ;
#7 = ORIENTED_EDGE ( 'NONE', *, *, #32, .T. ) ;
#8 = LINE ( 'NONE', #304, #204 ) ;
#9 = EDGE_CURVE ( 'NONE', #277, #184, #215, .T. ) ;
#10 = EDGE_LOOP ( 'NONE', ( #244, #151 ) ) ;
#11 = EDGE_CURVE ( 'NONE', #140, #300, #169, .T. ) ;
#12 = DIRECTION ( 'NONE',  ( 0.000000000000000000, 0.000000000000000000, 1.000000000000000000 ) ) ;
#13 = VECTOR ( 'NONE', #145, 1000.000000000000000 ) ;
#14 = ORIENTED_EDGE ( 'NONE', *, *, #125, .F. ) ;
#15 = COORDINATED_UNIVERSAL_TIME_OFFSET ( 1, 0, .AHEAD. ) ;
#16 = PLANE ( 'NONE',  #2 ) ;
#17 = ORIENTED_EDGE ( 'NONE', *, *, #32, .F. ) ;
#18 = PERSON_AND_ORGANIZATION_ROLE ( 'creator' ) ;
#19 = AXIS2_PLACEMENT_3D ( 'NONE', #118, #165, #226 ) ;
#20 = DIRECTION ( 'NONE',  ( -0.000000000000000000, -0.000000000000000000, -1.000000000000000000 ) ) ;
#21 = LOCAL_TIME ( 11, 39, 12.00000000000000000, #209 ) ;
#22 = PERSON_AND_ORGANIZATION ( #147, #237 ) ;
#23 = DIRECTION ( 'NONE',  ( -0.000000000000000000, -0.000000000000000000, -1.000000000000000000 ) ) ;
#24 = CIRCLE ( 'NONE', #198, 8.000000000000000000 ) ;
#25 = CC_DESIGN_APPROVAL ( #1, ( #62 ) ) ;
#26 = ORIENTED_EDGE ( 'NONE', *, *, #289, .F. ) ;
#27 = DIRECTION ( 'NONE',  ( 1.000000000000000000, 0.000000000000000000, 0.000000000000000000 ) ) ;
#28 = ORIENTED_EDGE ( 'NONE', *, *, #48, .T. ) ;
#29 = APPLICATION_PROTOCOL_DEFINITION ( 'international standard', 'config_control_design', 1994, #149 ) ;
#30 = MANIFOLD_SOLID_BREP ( 'Zaoblit1', #267 ) ;
#31 = DIRECTION ( 'NONE',  ( -1.000000000000000000, 0.000000000000000000, 0.000000000000000000 ) ) ;
#32 = EDGE_CURVE ( 'NONE', #184, #89, #40, .T. ) ;
#33 = DIRECTION ( 'NONE',  ( 1.000000000000000000, 0.000000000000000000, 0.000000000000000000 ) ) ;
#34 = DIRECTION ( 'NONE',  ( 1.000000000000000000, 0.000000000000000000, 0.000000000000000000 ) ) ;
#35 = CARTESIAN_POINT ( 'NONE',  ( 0.000000000000000000, 0.000000000000000000, 5.000000000000000000 ) ) ;
#36 = DIRECTION ( 'NONE',  ( -1.000000000000000000, 0.000000000000000000, 0.000000000000000000 ) ) ;
#37 = CIRCLE ( 'NONE', #49, 5.300000000000000711 ) ;
#38 = FACE_OUTER_BOUND ( 'NONE', #187, .T. ) ;
#39 = ORIENTED_EDGE ( 'NONE', *, *, #47, .F. ) ;
#40 = LINE ( 'NONE', #183, #265 ) ;
#41 = DATE_AND_TIME ( #235, #148 ) ;
#42 = DIRECTION ( 'NONE',  ( 0.000000000000000000, 0.000000000000000000, 1.000000000000000000 ) ) ;
#43 = DATE_TIME_ROLE ( 'creation_date' ) ;
#44 = AXIS2_PLACEMENT_3D ( 'NONE', #241, #74, #53 ) ;
#45 = CARTESIAN_POINT ( 'NONE',  ( 0.000000000000000000, 0.000000000000000000, 320.0000000000000000 ) ) ;
#46 = AXIS2_PLACEMENT_3D ( 'NONE', #251, #12, #157 ) ;
#47 = EDGE_CURVE ( 'NONE', #210, #153, #196, .T. ) ;
#48 = EDGE_CURVE ( 'NONE', #153, #140, #186, .T. ) ;
#49 = AXIS2_PLACEMENT_3D ( 'NONE', #225, #85, #161 ) ;
#50 = CARTESIAN_POINT ( 'NONE',  ( 5.100000000000001421, 6.245698675651502811E-16, 320.0000000000000000 ) ) ;
#51 = EDGE_CURVE ( 'NONE', #174, #140, #290, .T. ) ;
#52 = EDGE_CURVE ( 'NONE', #218, #300, #232, .T. ) ;
#53 = DIRECTION ( 'NONE',  ( -1.000000000000000000, 0.000000000000000000, 0.000000000000000000 ) ) ;
#54 = FACE_OUTER_BOUND ( 'NONE', #239, .T. ) ;
#55 = AXIS2_PLACEMENT_3D ( 'NONE', #35, #243, #133 ) ;
#56 = ORIENTED_EDGE ( 'NONE', *, *, #289, .T. ) ;
#57 = ADVANCED_FACE ( 'NONE', ( #203 ), #278, .T. ) ;
#58 = ORIENTED_EDGE ( 'NONE', *, *, #263, .T. ) ;
#59 = MECHANICAL_CONTEXT ( 'NONE', #149, 'mechanical' ) ;
#60 = ORIENTED_EDGE ( 'NONE', *, *, #51, .T. ) ;
#61 = CARTESIAN_POINT ( 'NONE',  ( 5.300000000000000711, 0.000000000000000000, 4.999999999999991118 ) ) ;
#62 = SECURITY_CLASSIFICATION ( '', '', #119 ) ;
#63 = DIRECTION ( 'NONE',  ( 1.000000000000000000, 0.000000000000000000, -0.000000000000000000 ) ) ;
#64 =( LENGTH_UNIT ( ) NAMED_UNIT ( * ) SI_UNIT ( .MILLI., .METRE. ) );
#65 = CARTESIAN_POINT ( 'NONE',  ( -5.100000000000001421, 0.000000000000000000, 320.0000000000000000 ) ) ;
#66 = CARTESIAN_POINT ( 'NONE',  ( 0.000000000000000000, 0.000000000000000000, 5.000000000000000000 ) ) ;
#67 = CARTESIAN_POINT ( 'NONE',  ( -8.000000000000000000, 0.000000000000000000, 0.000000000000000000 ) ) ;
#68 = EDGE_LOOP ( 'NONE', ( #107, #297, #211, #17 ) ) ;
#69 = APPROVAL_STATUS ( 'not_yet_approved' ) ;
#70 = CIRCLE ( 'NONE', #137, 5.100000000000001421 ) ;
#71 = PERSON_AND_ORGANIZATION_ROLE ( 'design_supplier' ) ;
#72 = CARTESIAN_POINT ( 'NONE',  ( 0.000000000000000000, 0.000000000000000000, 5.199999999999982414 ) ) ;
#73 = APPROVAL_ROLE ( '' ) ;
#74 = DIRECTION ( 'NONE',  ( -0.000000000000000000, -0.000000000000000000, -1.000000000000000000 ) ) ;
#75 = APPROVAL_DATE_TIME ( #230, #191 ) ;
#76 = APPROVAL_PERSON_ORGANIZATION ( #138, #302, #189 ) ;
#77 = CALENDAR_DATE ( 2022, 20, 6 ) ;
#78 = CC_DESIGN_PERSON_AND_ORGANIZATION_ASSIGNMENT ( #254, #171, ( #123 ) ) ;
#79 = EDGE_CURVE ( 'NONE', #174, #218, #285, .T. ) ;
#80 = DIRECTION ( 'NONE',  ( 1.000000000000000000, 0.000000000000000000, 0.000000000000000000 ) ) ;
#81 = EDGE_LOOP ( 'NONE', ( #173, #264, #303, #131 ) ) ;
#82 = CIRCLE ( 'NONE', #163, 8.000000000000000000 ) ;
#83 =( NAMED_UNIT ( * ) SI_UNIT ( $, .STERADIAN. ) SOLID_ANGLE_UNIT ( ) );
#84 = DIRECTION ( 'NONE',  ( 0.000000000000000000, 0.000000000000000000, 1.000000000000000000 ) ) ;
#85 = DIRECTION ( 'NONE',  ( -0.000000000000000000, -0.000000000000000000, -1.000000000000000000 ) ) ;
#86 = CARTESIAN_POINT ( 'NONE',  ( 8.000000000000000000, 9.797174393178825657E-16, 5.000000000000000000 ) ) ;
#87 = DIRECTION ( 'NONE',  ( 1.000000000000000000, 0.000000000000000000, 0.000000000000000000 ) ) ;
#88 =( NAMED_UNIT ( * ) PLANE_ANGLE_UNIT ( ) SI_UNIT ( $, .RADIAN. ) );
#89 = VERTEX_POINT ( 'NONE', #67 ) ;
#90 = UNCERTAINTY_MEASURE_WITH_UNIT (LENGTH_MEASURE( 1.000000000000000082E-05 ), #64, 'distance_accuracy_value', 'NONE');
#91 = DIRECTION ( 'NONE',  ( 1.000000000000000000, 0.000000000000000000, 0.000000000000000000 ) ) ;
#92 = EDGE_LOOP ( 'NONE', ( #39, #200, #60, #95 ) ) ;
#93 = APPROVAL_STATUS ( 'not_yet_approved' ) ;
#94 = AXIS2_PLACEMENT_3D ( 'NONE', #162, #250, #34 ) ;
#95 = ORIENTED_EDGE ( 'NONE', *, *, #48, .F. ) ;
#96 = CALENDAR_DATE ( 2022, 20, 6 ) ;
#97 = PERSON_AND_ORGANIZATION ( #147, #237 ) ;
#98 = DATE_TIME_ROLE ( 'classification_date' ) ;
#99 = AXIS2_PLACEMENT_3D ( 'NONE', #190, #274, #167 ) ;
#100 = LOCAL_TIME ( 11, 39, 12.00000000000000000, #121 ) ;
#101 = DIRECTION ( 'NONE',  ( 0.000000000000000000, 0.000000000000000000, 1.000000000000000000 ) ) ;
#102 = PRODUCT_RELATED_PRODUCT_CATEGORY ( 'detail', '', ( #123 ) ) ;
#103 = AXIS2_PLACEMENT_3D ( 'NONE', #106, #201, #292 ) ;
#104 = DIRECTION ( 'NONE',  ( 0.000000000000000000, 0.000000000000000000, 1.000000000000000000 ) ) ;
#105 = PLANE ( 'NONE',  #103 ) ;
#106 = CARTESIAN_POINT ( 'NONE',  ( 0.000000000000000000, 0.000000000000000000, 0.000000000000000000 ) ) ;
#107 = ORIENTED_EDGE ( 'NONE', *, *, #9, .F. ) ;
#108 = CARTESIAN_POINT ( 'NONE',  ( 8.000000000000000000, 9.797174393178825657E-16, 5.000000000000000000 ) ) ;
#109 = AXIS2_PLACEMENT_3D ( 'NONE', #205, #104, #270 ) ;
#110 = EDGE_LOOP ( 'NONE', ( #253, #288, #7, #56 ) ) ;
#111 = PERSON_AND_ORGANIZATION ( #147, #237 ) ;
#112 = DIRECTION ( 'NONE',  ( 0.000000000000000000, 0.000000000000000000, 1.000000000000000000 ) ) ;
#113 = ORIENTED_EDGE ( 'NONE', *, *, #195, .T. ) ;
#114 = EDGE_CURVE ( 'NONE', #277, #160, #296, .T. ) ;
#115 = PERSON_AND_ORGANIZATION ( #147, #237 ) ;
#116 = AXIS2_PLACEMENT_3D ( 'NONE', #299, #20, #36 ) ;
#117 = AXIS2_PLACEMENT_3D ( 'NONE', #66, #154, #268 ) ;
#118 = CARTESIAN_POINT ( 'NONE',  ( 5.300000000000000711, 0.000000000000000000, 5.199999999999982414 ) ) ;
#119 = SECURITY_CLASSIFICATION_LEVEL ( 'unclassified' ) ;
#120 = PRODUCT_DEFINITION_SHAPE ( 'NONE', 'NONE',  #233 ) ;
#121 = COORDINATED_UNIVERSAL_TIME_OFFSET ( 1, 0, .AHEAD. ) ;
#122 = AXIS2_PLACEMENT_3D ( 'NONE', #206, #282, #91 ) ;
#123 = PRODUCT ( 'eef3', 'eef3', '', ( #59 ) ) ;
#124 = AXIS2_PLACEMENT_3D ( 'NONE', #182, #275, #31 ) ;
#125 = EDGE_CURVE ( 'NONE', #140, #174, #6, .T. ) ;
#126 = ORIENTED_EDGE ( 'NONE', *, *, #11, .T. ) ;
#127 = CC_DESIGN_SECURITY_CLASSIFICATION ( #62, ( #152 ) ) ;
#128 = CARTESIAN_POINT ( 'NONE',  ( -8.000000000000000000, 0.000000000000000000, 5.000000000000000000 ) ) ;
#129 = CARTESIAN_POINT ( 'NONE',  ( 0.000000000000000000, 0.000000000000000000, 0.000000000000000000 ) ) ;
#130 = CC_DESIGN_PERSON_AND_ORGANIZATION_ASSIGNMENT ( #115, #305, ( #62 ) ) ;
#131 = ORIENTED_EDGE ( 'NONE', *, *, #263, .F. ) ;
#132 = EDGE_LOOP ( 'NONE', ( #14, #126, #180, #3 ) ) ;
#133 = DIRECTION ( 'NONE',  ( -1.000000000000000000, 0.000000000000000000, 0.000000000000000000 ) ) ;
#134 = FACE_OUTER_BOUND ( 'NONE', #175, .T. ) ;
#135 = DIRECTION ( 'NONE',  ( 1.000000000000000000, 0.000000000000000000, 0.000000000000000000 ) ) ;
#136 = AXIS2_PLACEMENT_3D ( 'NONE', #252, #178, #87 ) ;
#137 = AXIS2_PLACEMENT_3D ( 'NONE', #45, #172, #220 ) ;
#138 = PERSON_AND_ORGANIZATION ( #147, #237 ) ;
#139 = CARTESIAN_POINT ( 'NONE',  ( 0.000000000000000000, 0.000000000000000000, 320.0000000000000000 ) ) ;
#140 = VERTEX_POINT ( 'NONE', #272 ) ;
#141 = PERSON_AND_ORGANIZATION ( #147, #237 ) ;
#142 = ADVANCED_FACE ( 'NONE', ( #38 ), #16, .T. ) ;
#143 = DIRECTION ( 'NONE',  ( 0.000000000000000000, 0.000000000000000000, 1.000000000000000000 ) ) ;
#144 = CC_DESIGN_DATE_AND_TIME_ASSIGNMENT ( #185, #98, ( #62 ) ) ;
#145 = DIRECTION ( 'NONE',  ( -0.000000000000000000, -0.000000000000000000, -1.000000000000000000 ) ) ;
#146 = APPROVAL_STATUS ( 'not_yet_approved' ) ;
#147 = PERSON ( 'NEURÈENÝ', 'NEURÈENÝ', 'NEURÈENÝ', ('NEURÈENÝ'), ('NEURÈENÝ'), ('NEURÈENÝ') ) ;
#148 = LOCAL_TIME ( 11, 39, 12.00000000000000000, #281 ) ;
#149 = APPLICATION_CONTEXT ( 'configuration controlled 3d designs of mechanical parts and assemblies' ) ;
#150 = DESIGN_CONTEXT ( 'detailed design', #217, 'design' ) ;
#151 = ORIENTED_EDGE ( 'NONE', *, *, #9, .T. ) ;
#152 = PRODUCT_DEFINITION_FORMATION_WITH_SPECIFIED_SOURCE ( 'LIBOVOLNÝ', '', #123, .NOT_KNOWN. ) ;
#153 = VERTEX_POINT ( 'NONE', #287 ) ;
#154 = DIRECTION ( 'NONE',  ( 0.000000000000000000, 0.000000000000000000, 1.000000000000000000 ) ) ;
#155 = ORIENTED_EDGE ( 'NONE', *, *, #179, .F. ) ;
#156 = CC_DESIGN_APPROVAL ( #191, ( #233 ) ) ;
#157 = DIRECTION ( 'NONE',  ( 1.000000000000000000, 0.000000000000000000, 0.000000000000000000 ) ) ;
#158 = CARTESIAN_POINT ( 'NONE',  ( 0.000000000000000000, 0.000000000000000000, 5.000000000000000000 ) ) ;
#159 = CYLINDRICAL_SURFACE ( 'NONE', #124, 5.100000000000001421 ) ;
#160 = VERTEX_POINT ( 'NONE', #238 ) ;
#161 = DIRECTION ( 'NONE',  ( 1.000000000000000000, 0.000000000000000000, 0.000000000000000000 ) ) ;
#162 = CARTESIAN_POINT ( 'NONE',  ( 0.000000000000000000, 0.000000000000000000, 5.000000000000000000 ) ) ;
#163 = AXIS2_PLACEMENT_3D ( 'NONE', #266, #262, #27 ) ;
#164 = DATE_AND_TIME ( #77, #4 ) ;
#165 = DIRECTION ( 'NONE',  ( 0.000000000000000000, -1.000000000000000000, 0.000000000000000000 ) ) ;
#166 = APPLICATION_PROTOCOL_DEFINITION ( 'international standard', 'config_control_design', 1994, #217 ) ;
#167 = DIRECTION ( 'NONE',  ( -1.000000000000000000, 1.224646799147353454E-16, 0.000000000000000000 ) ) ;
#168 = PERSON_AND_ORGANIZATION ( #147, #237 ) ;
#169 = CIRCLE ( 'NONE', #99, 0.1999999999999996503 ) ;
#170 = ADVANCED_FACE ( 'NONE', ( #54 ), #242, .T. ) ;
#171 = PERSON_AND_ORGANIZATION_ROLE ( 'design_owner' ) ;
#172 = DIRECTION ( 'NONE',  ( 0.000000000000000000, 0.000000000000000000, 1.000000000000000000 ) ) ;
#173 = ORIENTED_EDGE ( 'NONE', *, *, #11, .F. ) ;
#174 = VERTEX_POINT ( 'NONE', #213 ) ;
#175 = EDGE_LOOP ( 'NONE', ( #26, #155 ) ) ;
#176 = DIRECTION ( 'NONE',  ( 0.000000000000000000, 0.000000000000000000, 1.000000000000000000 ) ) ;
#177 = EDGE_CURVE ( 'NONE', #184, #277, #82, .T. ) ;
#178 = DIRECTION ( 'NONE',  ( 0.000000000000000000, 0.000000000000000000, 1.000000000000000000 ) ) ;
#179 = EDGE_CURVE ( 'NONE', #160, #89, #24, .T. ) ;
#180 = ORIENTED_EDGE ( 'NONE', *, *, #52, .F. ) ;
#181 = ORIENTED_EDGE ( 'NONE', *, *, #52, .T. ) ;
#182 = CARTESIAN_POINT ( 'NONE',  ( 0.000000000000000000, 0.000000000000000000, 320.0000000000000000 ) ) ;
#183 = CARTESIAN_POINT ( 'NONE',  ( -8.000000000000000000, 0.000000000000000000, 5.000000000000000000 ) ) ;
#184 = VERTEX_POINT ( 'NONE', #128 ) ;
#185 = DATE_AND_TIME ( #257, #188 ) ;
#186 = LINE ( 'NONE', #65, #13 ) ;
#187 = EDGE_LOOP ( 'NONE', ( #113, #229 ) ) ;
#188 = LOCAL_TIME ( 11, 39, 12.00000000000000000, #258 ) ;
#189 = APPROVAL_ROLE ( '' ) ;
#190 = CARTESIAN_POINT ( 'NONE',  ( -5.300000000000000711, 6.490628035480972910E-16, 5.199999999999982414 ) ) ;
#191 = APPROVAL ( #93, 'NEURÈENÝ' ) ;
#192 = APPROVAL_ROLE ( '' ) ;
#193 = DATE_AND_TIME ( #96, #21 ) ;
#194 = AXIS2_PLACEMENT_3D ( 'NONE', #72, #143, #255 ) ;
#195 = EDGE_CURVE ( 'NONE', #153, #210, #70, .T. ) ;
#196 = CIRCLE ( 'NONE', #122, 5.100000000000001421 ) ;
#197 = CC_DESIGN_PERSON_AND_ORGANIZATION_ASSIGNMENT ( #22, #18, ( #152 ) ) ;
#198 = AXIS2_PLACEMENT_3D ( 'NONE', #129, #101, #80 ) ;
#199 = AXIS2_PLACEMENT_3D ( 'NONE', #245, #84, #269 ) ;
#200 = ORIENTED_EDGE ( 'NONE', *, *, #207, .T. ) ;
#201 = DIRECTION ( 'NONE',  ( 0.000000000000000000, 0.000000000000000000, 1.000000000000000000 ) ) ;
#202 = PLANE ( 'NONE',  #117 ) ;
#203 = FACE_OUTER_BOUND ( 'NONE', #68, .T. ) ;
#204 = VECTOR ( 'NONE', #23, 1000.000000000000000 ) ;
#205 = CARTESIAN_POINT ( 'NONE',  ( 0.000000000000000000, 0.000000000000000000, 5.199999999999982414 ) ) ;
#206 = CARTESIAN_POINT ( 'NONE',  ( 0.000000000000000000, 0.000000000000000000, 320.0000000000000000 ) ) ;
#207 = EDGE_CURVE ( 'NONE', #210, #174, #8, .T. ) ;
#208 = ORIENTED_EDGE ( 'NONE', *, *, #207, .F. ) ;
#209 = COORDINATED_UNIVERSAL_TIME_OFFSET ( 1, 0, .AHEAD. ) ;
#210 = VERTEX_POINT ( 'NONE', #50 ) ;
#211 = ORIENTED_EDGE ( 'NONE', *, *, #179, .T. ) ;
#212 = TOROIDAL_SURFACE ( 'NONE', #109, 5.300000000000000711, 0.2000000000000000111 ) ;
#213 = CARTESIAN_POINT ( 'NONE',  ( 5.100000000000001421, 6.245698675651502811E-16, 5.199999999999982414 ) ) ;
#214 = APPROVAL_DATE_TIME ( #164, #1 ) ;
#215 = CIRCLE ( 'NONE', #246, 8.000000000000000000 ) ;
#216 = TOROIDAL_SURFACE ( 'NONE', #295, 5.300000000000000711, 0.2000000000000000111 ) ;
#217 = APPLICATION_CONTEXT ( 'configuration controlled 3d designs of mechanical parts and assemblies' ) ;
#218 = VERTEX_POINT ( 'NONE', #61 ) ;
#219 = CC_DESIGN_APPROVAL ( #302, ( #152 ) ) ;
#220 = DIRECTION ( 'NONE',  ( 1.000000000000000000, 0.000000000000000000, 0.000000000000000000 ) ) ;
#221 = ADVANCED_FACE ( 'NONE', ( #247 ), #159, .T. ) ;
#222 = CARTESIAN_POINT ( 'NONE',  ( 0.000000000000000000, 0.000000000000000000, 5.199999999999982414 ) ) ;
#223 = ADVANCED_FACE ( 'NONE', ( #273 ), #249, .T. ) ;
#224 = FACE_OUTER_BOUND ( 'NONE', #132, .T. ) ;
#225 = CARTESIAN_POINT ( 'NONE',  ( 0.000000000000000000, 0.000000000000000000, 5.000000000000000000 ) ) ;
#226 = DIRECTION ( 'NONE',  ( 0.000000000000000000, 0.000000000000000000, -1.000000000000000000 ) ) ;
#227 = DIRECTION ( 'NONE',  ( -0.000000000000000000, -0.000000000000000000, -1.000000000000000000 ) ) ;
#228 = PERSON_AND_ORGANIZATION_ROLE ( 'creator' ) ;
#229 = ORIENTED_EDGE ( 'NONE', *, *, #47, .T. ) ;
#230 = DATE_AND_TIME ( #284, #100 ) ;
#231 = ADVANCED_FACE ( 'NONE', ( #134 ), #105, .F. ) ;
#232 = CIRCLE ( 'NONE', #94, 5.300000000000000711 ) ;
#233 = PRODUCT_DEFINITION ( 'NEZNÁMÝ', '', #152, #150 ) ;
#234 = APPROVAL_PERSON_ORGANIZATION ( #141, #1, #192 ) ;
#235 = CALENDAR_DATE ( 2022, 20, 6 ) ;
#236 = CC_DESIGN_PERSON_AND_ORGANIZATION_ASSIGNMENT ( #168, #71, ( #152 ) ) ;
#237 = ORGANIZATION ( 'NEURÈENÝ', 'NEURÈENÝ', '' ) ;
#238 = CARTESIAN_POINT ( 'NONE',  ( 8.000000000000000000, 9.797174393178825657E-16, 0.000000000000000000 ) ) ;
#239 = EDGE_LOOP ( 'NONE', ( #208, #283, #28, #261 ) ) ;
#240 = ADVANCED_BREP_SHAPE_REPRESENTATION ( 'eef3', ( #30, #199 ), #259 ) ;
#241 = CARTESIAN_POINT ( 'NONE',  ( 0.000000000000000000, 0.000000000000000000, 320.0000000000000000 ) ) ;
#242 = CYLINDRICAL_SURFACE ( 'NONE', #44, 5.100000000000001421 ) ;
#243 = DIRECTION ( 'NONE',  ( -0.000000000000000000, -0.000000000000000000, -1.000000000000000000 ) ) ;
#244 = ORIENTED_EDGE ( 'NONE', *, *, #177, .T. ) ;
#245 = CARTESIAN_POINT ( 'NONE',  ( 0.000000000000000000, 0.000000000000000000, 0.000000000000000000 ) ) ;
#246 = AXIS2_PLACEMENT_3D ( 'NONE', #158, #42, #135 ) ;
#247 = FACE_OUTER_BOUND ( 'NONE', #92, .T. ) ;
#248 = CC_DESIGN_DATE_AND_TIME_ASSIGNMENT ( #193, #43, ( #233 ) ) ;
#249 = CYLINDRICAL_SURFACE ( 'NONE', #55, 8.000000000000000000 ) ;
#250 = DIRECTION ( 'NONE',  ( -0.000000000000000000, -0.000000000000000000, -1.000000000000000000 ) ) ;
#251 = CARTESIAN_POINT ( 'NONE',  ( 0.000000000000000000, 0.000000000000000000, 0.000000000000000000 ) ) ;
#252 = CARTESIAN_POINT ( 'NONE',  ( 0.000000000000000000, 0.000000000000000000, 5.199999999999982414 ) ) ;
#253 = ORIENTED_EDGE ( 'NONE', *, *, #114, .F. ) ;
#254 = PERSON_AND_ORGANIZATION ( #147, #237 ) ;
#255 = DIRECTION ( 'NONE',  ( 1.000000000000000000, 0.000000000000000000, 0.000000000000000000 ) ) ;
#256 = APPROVAL_DATE_TIME ( #41, #302 ) ;
#257 = CALENDAR_DATE ( 2022, 20, 6 ) ;
#258 = COORDINATED_UNIVERSAL_TIME_OFFSET ( 1, 0, .AHEAD. ) ;
#259 =( GEOMETRIC_REPRESENTATION_CONTEXT ( 3 ) GLOBAL_UNCERTAINTY_ASSIGNED_CONTEXT ( ( #90 ) ) GLOBAL_UNIT_ASSIGNED_CONTEXT ( ( #64, #88, #83 ) ) REPRESENTATION_CONTEXT ( 'NONE', 'WORKASPACE' ) );
#260 = ADVANCED_FACE ( 'NONE', ( #293, #291 ), #202, .T. ) ;
#261 = ORIENTED_EDGE ( 'NONE', *, *, #125, .T. ) ;
#262 = DIRECTION ( 'NONE',  ( 0.000000000000000000, 0.000000000000000000, 1.000000000000000000 ) ) ;
#263 = EDGE_CURVE ( 'NONE', #300, #218, #37, .T. ) ;
#264 = ORIENTED_EDGE ( 'NONE', *, *, #51, .F. ) ;
#265 = VECTOR ( 'NONE', #227, 1000.000000000000000 ) ;
#266 = CARTESIAN_POINT ( 'NONE',  ( 0.000000000000000000, 0.000000000000000000, 5.000000000000000000 ) ) ;
#267 = CLOSED_SHELL ( 'NONE', ( #280, #221, #57, #223, #260, #231, #170, #142, #301 ) ) ;
#268 = DIRECTION ( 'NONE',  ( 1.000000000000000000, 0.000000000000000000, -0.000000000000000000 ) ) ;
#269 = DIRECTION ( 'NONE',  ( 1.000000000000000000, 0.000000000000000000, 0.000000000000000000 ) ) ;
#270 = DIRECTION ( 'NONE',  ( 1.000000000000000000, 0.000000000000000000, 0.000000000000000000 ) ) ;
#271 = VECTOR ( 'NONE', #276, 1000.000000000000000 ) ;
#272 = CARTESIAN_POINT ( 'NONE',  ( -5.100000000000001421, 0.000000000000000000, 5.199999999999982414 ) ) ;
#273 = FACE_OUTER_BOUND ( 'NONE', #110, .T. ) ;
#274 = DIRECTION ( 'NONE',  ( 1.224646799147353207E-16, 1.000000000000000000, -0.000000000000000000 ) ) ;
#275 = DIRECTION ( 'NONE',  ( -0.000000000000000000, -0.000000000000000000, -1.000000000000000000 ) ) ;
#276 = DIRECTION ( 'NONE',  ( -0.000000000000000000, -0.000000000000000000, -1.000000000000000000 ) ) ;
#277 = VERTEX_POINT ( 'NONE', #108 ) ;
#278 = CYLINDRICAL_SURFACE ( 'NONE', #116, 8.000000000000000000 ) ;
#279 = CIRCLE ( 'NONE', #46, 8.000000000000000000 ) ;
#280 = ADVANCED_FACE ( 'NONE', ( #224 ), #212, .F. ) ;
#281 = COORDINATED_UNIVERSAL_TIME_OFFSET ( 1, 0, .AHEAD. ) ;
#282 = DIRECTION ( 'NONE',  ( 0.000000000000000000, 0.000000000000000000, 1.000000000000000000 ) ) ;
#283 = ORIENTED_EDGE ( 'NONE', *, *, #195, .F. ) ;
#284 = CALENDAR_DATE ( 2022, 20, 6 ) ;
#285 = CIRCLE ( 'NONE', #19, 0.1999999999999996503 ) ;
#286 = APPROVAL_PERSON_ORGANIZATION ( #111, #191, #73 ) ;
#287 = CARTESIAN_POINT ( 'NONE',  ( -5.100000000000001421, 0.000000000000000000, 320.0000000000000000 ) ) ;
#288 = ORIENTED_EDGE ( 'NONE', *, *, #177, .F. ) ;
#289 = EDGE_CURVE ( 'NONE', #89, #160, #279, .T. ) ;
#290 = CIRCLE ( 'NONE', #194, 5.100000000000001421 ) ;
#291 = FACE_OUTER_BOUND ( 'NONE', #10, .T. ) ;
#292 = DIRECTION ( 'NONE',  ( 1.000000000000000000, 0.000000000000000000, -0.000000000000000000 ) ) ;
#293 = FACE_BOUND ( 'NONE', #5, .T. ) ;
#294 = CARTESIAN_POINT ( 'NONE',  ( -5.300000000000000711, 6.490628035480971924E-16, 4.999999999999991118 ) ) ;
#295 = AXIS2_PLACEMENT_3D ( 'NONE', #222, #176, #33 ) ;
#296 = LINE ( 'NONE', #86, #271 ) ;
#297 = ORIENTED_EDGE ( 'NONE', *, *, #114, .T. ) ;
#298 = FACE_OUTER_BOUND ( 'NONE', #81, .T. ) ;
#299 = CARTESIAN_POINT ( 'NONE',  ( 0.000000000000000000, 0.000000000000000000, 5.000000000000000000 ) ) ;
#300 = VERTEX_POINT ( 'NONE', #294 ) ;
#301 = ADVANCED_FACE ( 'NONE', ( #298 ), #216, .F. ) ;
#302 = APPROVAL ( #146, 'NEURÈENÝ' ) ;
#303 = ORIENTED_EDGE ( 'NONE', *, *, #79, .T. ) ;
#304 = CARTESIAN_POINT ( 'NONE',  ( 5.100000000000001421, 6.245698675651502811E-16, 320.0000000000000000 ) ) ;
#305 = PERSON_AND_ORGANIZATION_ROLE ( 'classification_officer' ) ;
#306 = CC_DESIGN_PERSON_AND_ORGANIZATION_ASSIGNMENT ( #97, #228, ( #233 ) ) ;
#307 = SHAPE_DEFINITION_REPRESENTATION ( #120, #240 ) ;
ENDSEC;
END-ISO-10303-21;
