ISO-10303-21;
HEADER;
FILE_DESCRIPTION (( 'STEP AP203' ),
    '1' );
FILE_NAME ('766f.STEP',
    '2022-06-20T09:37:12',
    ( '' ),
    ( '' ),
    'SwSTEP 2.0',
    'SolidWorks 2019',
    '' );
FILE_SCHEMA (( 'CONFIG_CONTROL_DESIGN' ));
ENDSEC;

DATA;
#1 = CC_DESIGN_PERSON_AND_ORGANIZATION_ASSIGNMENT ( #256, #232, ( #270 ) ) ;
#2 = EDGE_LOOP ( 'NONE', ( #19, #238, #94, #157 ) ) ;
#3 = ORIENTED_EDGE ( 'NONE', *, *, #169, .T. ) ;
#4 = AXIS2_PLACEMENT_3D ( 'NONE', #34, #81, #249 ) ;
#5 = ORIENTED_EDGE ( 'NONE', *, *, #40, .T. ) ;
#6 = ADVANCED_FACE ( 'NONE', ( #50 ), #49, .T. ) ;
#7 = PERSON_AND_ORGANIZATION_ROLE ( 'creator' ) ;
#8 = ORIENTED_EDGE ( 'NONE', *, *, #237, .T. ) ;
#9 = DIRECTION ( 'NONE',  ( 1.000000000000000000, 0.000000000000000000, 0.000000000000000000 ) ) ;
#10 = ADVANCED_FACE ( 'NONE', ( #259 ), #26, .T. ) ;
#11 = AXIS2_PLACEMENT_3D ( 'NONE', #135, #273, #208 ) ;
#12 = CARTESIAN_POINT ( 'NONE',  ( 0.000000000000000000, 0.000000000000000000, 320.0000000000000000 ) ) ;
#13 = CARTESIAN_POINT ( 'NONE',  ( 0.000000000000000000, 0.000000000000000000, 5.000000000000000000 ) ) ;
#14 = CARTESIAN_POINT ( 'NONE',  ( 5.450000000000001066, 0.000000000000000000, 4.999999999999991118 ) ) ;
#15 = CARTESIAN_POINT ( 'NONE',  ( 8.000000000000000000, 9.797174393178825657E-16, 5.000000000000000000 ) ) ;
#16 = CIRCLE ( 'NONE', #187, 0.1999999999999996503 ) ;
#17 = CC_DESIGN_APPROVAL ( #254, ( #25 ) ) ;
#18 = CARTESIAN_POINT ( 'NONE',  ( -8.000000000000000000, 0.000000000000000000, 5.000000000000000000 ) ) ;
#19 = ORIENTED_EDGE ( 'NONE', *, *, #29, .F. ) ;
#20 = ADVANCED_FACE ( 'NONE', ( #168 ), #117, .F. ) ;
#21 = CC_DESIGN_PERSON_AND_ORGANIZATION_ASSIGNMENT ( #46, #7, ( #25 ) ) ;
#22 = APPROVAL_STATUS ( 'not_yet_approved' ) ;
#23 = DIRECTION ( 'NONE',  ( 1.000000000000000000, 0.000000000000000000, 0.000000000000000000 ) ) ;
#24 = CC_DESIGN_PERSON_AND_ORGANIZATION_ASSIGNMENT ( #211, #252, ( #93 ) ) ;
#25 = PRODUCT_DEFINITION_FORMATION_WITH_SPECIFIED_SOURCE ( 'LIBOVOLNÝ', '', #93, .NOT_KNOWN. ) ;
#26 = CYLINDRICAL_SURFACE ( 'NONE', #113, 5.250000000000000888 ) ;
#27 = PERSON ( 'NEURÈENÝ', 'NEURÈENÝ', 'NEURÈENÝ', ('NEURÈENÝ'), ('NEURÈENÝ'), ('NEURÈENÝ') ) ;
#28 = VERTEX_POINT ( 'NONE', #242 ) ;
#29 = EDGE_CURVE ( 'NONE', #99, #28, #271, .T. ) ;
#30 = DIRECTION ( 'NONE',  ( 0.000000000000000000, 0.000000000000000000, 1.000000000000000000 ) ) ;
#31 = CALENDAR_DATE ( 2022, 20, 6 ) ;
#32 = VERTEX_POINT ( 'NONE', #15 ) ;
#33 = ORIENTED_EDGE ( 'NONE', *, *, #204, .T. ) ;
#34 = CARTESIAN_POINT ( 'NONE',  ( 0.000000000000000000, 0.000000000000000000, 5.000000000000000000 ) ) ;
#35 = LOCAL_TIME ( 11, 37, 12.00000000000000000, #285 ) ;
#36 = LINE ( 'NONE', #269, #239 ) ;
#37 = DIRECTION ( 'NONE',  ( 0.000000000000000000, 0.000000000000000000, 1.000000000000000000 ) ) ;
#38 = CARTESIAN_POINT ( 'NONE',  ( -5.450000000000001066, 6.674325055353076224E-16, 5.199999999999982414 ) ) ;
#39 = DIRECTION ( 'NONE',  ( -0.000000000000000000, -0.000000000000000000, -1.000000000000000000 ) ) ;
#40 = EDGE_CURVE ( 'NONE', #28, #190, #295, .T. ) ;
#41 = COORDINATED_UNIVERSAL_TIME_OFFSET ( 1, 0, .AHEAD. ) ;
#42 = PERSON_AND_ORGANIZATION ( #27, #251 ) ;
#43 = UNCERTAINTY_MEASURE_WITH_UNIT (LENGTH_MEASURE( 1.000000000000000082E-05 ), #233, 'distance_accuracy_value', 'NONE');
#44 = SHAPE_DEFINITION_REPRESENTATION ( #255, #150 ) ;
#45 = CIRCLE ( 'NONE', #223, 8.000000000000000000 ) ;
#46 = PERSON_AND_ORGANIZATION ( #27, #251 ) ;
#47 = ORIENTED_EDGE ( 'NONE', *, *, #131, .F. ) ;
#48 = LOCAL_TIME ( 11, 37, 12.00000000000000000, #68 ) ;
#49 = CYLINDRICAL_SURFACE ( 'NONE', #75, 5.250000000000000888 ) ;
#50 = FACE_OUTER_BOUND ( 'NONE', #264, .T. ) ;
#51 = VECTOR ( 'NONE', #85, 1000.000000000000000 ) ;
#52 = ORIENTED_EDGE ( 'NONE', *, *, #29, .T. ) ;
#53 = CARTESIAN_POINT ( 'NONE',  ( 0.000000000000000000, 0.000000000000000000, 0.000000000000000000 ) ) ;
#54 = CARTESIAN_POINT ( 'NONE',  ( -5.250000000000000888, 0.000000000000000000, 5.199999999999982414 ) ) ;
#55 = LOCAL_TIME ( 11, 37, 12.00000000000000000, #219 ) ;
#56 = CARTESIAN_POINT ( 'NONE',  ( 8.000000000000000000, 9.797174393178825657E-16, 0.000000000000000000 ) ) ;
#57 = ADVANCED_FACE ( 'NONE', ( #80 ), #103, .F. ) ;
#58 = CYLINDRICAL_SURFACE ( 'NONE', #120, 8.000000000000000000 ) ;
#59 = PRODUCT_RELATED_PRODUCT_CATEGORY ( 'detail', '', ( #93 ) ) ;
#60 = FACE_OUTER_BOUND ( 'NONE', #90, .T. ) ;
#61 = MECHANICAL_CONTEXT ( 'NONE', #136, 'mechanical' ) ;
#62 =( NAMED_UNIT ( * ) SI_UNIT ( $, .STERADIAN. ) SOLID_ANGLE_UNIT ( ) );
#63 = CLOSED_SHELL ( 'NONE', ( #226, #6, #278, #115, #100, #57, #10, #229, #20 ) ) ;
#64 = CALENDAR_DATE ( 2022, 20, 6 ) ;
#65 = DIRECTION ( 'NONE',  ( 1.000000000000000000, 0.000000000000000000, 0.000000000000000000 ) ) ;
#66 = LINE ( 'NONE', #302, #181 ) ;
#67 = AXIS2_PLACEMENT_3D ( 'NONE', #221, #197, #76 ) ;
#68 = COORDINATED_UNIVERSAL_TIME_OFFSET ( 1, 0, .AHEAD. ) ;
#69 = ORIENTED_EDGE ( 'NONE', *, *, #267, .T. ) ;
#70 = VERTEX_POINT ( 'NONE', #203 ) ;
#71 = EDGE_CURVE ( 'NONE', #32, #183, #36, .T. ) ;
#72 = DATE_AND_TIME ( #217, #48 ) ;
#73 = DIRECTION ( 'NONE',  ( -1.000000000000000000, 0.000000000000000000, 0.000000000000000000 ) ) ;
#74 = DATE_TIME_ROLE ( 'classification_date' ) ;
#75 = AXIS2_PLACEMENT_3D ( 'NONE', #123, #142, #102 ) ;
#76 = DIRECTION ( 'NONE',  ( 1.000000000000000000, 0.000000000000000000, 0.000000000000000000 ) ) ;
#77 = EDGE_CURVE ( 'NONE', #216, #183, #45, .T. ) ;
#78 = ORIENTED_EDGE ( 'NONE', *, *, #237, .F. ) ;
#79 = DIRECTION ( 'NONE',  ( 1.000000000000000000, 0.000000000000000000, 0.000000000000000000 ) ) ;
#80 = FACE_OUTER_BOUND ( 'NONE', #218, .T. ) ;
#81 = DIRECTION ( 'NONE',  ( 0.000000000000000000, 0.000000000000000000, 1.000000000000000000 ) ) ;
#82 = CC_DESIGN_APPROVAL ( #189, ( #199 ) ) ;
#83 = DIRECTION ( 'NONE',  ( -0.000000000000000000, -0.000000000000000000, -1.000000000000000000 ) ) ;
#84 = CC_DESIGN_DATE_AND_TIME_ASSIGNMENT ( #304, #277, ( #270 ) ) ;
#85 = DIRECTION ( 'NONE',  ( -0.000000000000000000, -0.000000000000000000, -1.000000000000000000 ) ) ;
#86 = AXIS2_PLACEMENT_3D ( 'NONE', #294, #245, #265 ) ;
#87 = APPROVAL_ROLE ( '' ) ;
#88 = CARTESIAN_POINT ( 'NONE',  ( 0.000000000000000000, 0.000000000000000000, 0.000000000000000000 ) ) ;
#89 = DIRECTION ( 'NONE',  ( 0.000000000000000000, 0.000000000000000000, 1.000000000000000000 ) ) ;
#90 = EDGE_LOOP ( 'NONE', ( #96, #3 ) ) ;
#91 = EDGE_CURVE ( 'NONE', #28, #99, #300, .T. ) ;
#92 = CARTESIAN_POINT ( 'NONE',  ( 0.000000000000000000, 0.000000000000000000, 5.000000000000000000 ) ) ;
#93 = PRODUCT ( '766f', '766f', '', ( #61 ) ) ;
#94 = ORIENTED_EDGE ( 'NONE', *, *, #95, .F. ) ;
#95 = EDGE_CURVE ( 'NONE', #190, #263, #110, .T. ) ;
#96 = ORIENTED_EDGE ( 'NONE', *, *, #131, .T. ) ;
#97 = DIRECTION ( 'NONE',  ( -0.000000000000000000, -0.000000000000000000, -1.000000000000000000 ) ) ;
#98 = APPROVAL_PERSON_ORGANIZATION ( #42, #254, #112 ) ;
#99 = VERTEX_POINT ( 'NONE', #54 ) ;
#100 = ADVANCED_FACE ( 'NONE', ( #151, #246 ), #128, .T. ) ;
#101 = SECURITY_CLASSIFICATION_LEVEL ( 'unclassified' ) ;
#102 = DIRECTION ( 'NONE',  ( -1.000000000000000000, 0.000000000000000000, 0.000000000000000000 ) ) ;
#103 = PLANE ( 'NONE',  #139 ) ;
#104 = DIRECTION ( 'NONE',  ( 0.000000000000000000, 0.000000000000000000, 1.000000000000000000 ) ) ;
#105 = DIRECTION ( 'NONE',  ( 0.000000000000000000, 0.000000000000000000, 1.000000000000000000 ) ) ;
#106 = DIRECTION ( 'NONE',  ( -0.000000000000000000, -0.000000000000000000, -1.000000000000000000 ) ) ;
#107 = CIRCLE ( 'NONE', #173, 5.250000000000000888 ) ;
#108 = LOCAL_TIME ( 11, 37, 12.00000000000000000, #41 ) ;
#109 = DIRECTION ( 'NONE',  ( 1.000000000000000000, 0.000000000000000000, -0.000000000000000000 ) ) ;
#110 = CIRCLE ( 'NONE', #280, 5.450000000000001066 ) ;
#111 = APPROVAL_STATUS ( 'not_yet_approved' ) ;
#112 = APPROVAL_ROLE ( '' ) ;
#113 = AXIS2_PLACEMENT_3D ( 'NONE', #118, #97, #73 ) ;
#114 = CC_DESIGN_APPROVAL ( #161, ( #270 ) ) ;
#115 = ADVANCED_FACE ( 'NONE', ( #297 ), #58, .T. ) ;
#116 = ORIENTED_EDGE ( 'NONE', *, *, #91, .T. ) ;
#117 = TOROIDAL_SURFACE ( 'NONE', #289, 5.450000000000001066, 0.2000000000000000111 ) ;
#118 = CARTESIAN_POINT ( 'NONE',  ( 0.000000000000000000, 0.000000000000000000, 320.0000000000000000 ) ) ;
#119 = DIRECTION ( 'NONE',  ( 1.000000000000000000, 0.000000000000000000, 0.000000000000000000 ) ) ;
#120 = AXIS2_PLACEMENT_3D ( 'NONE', #129, #83, #177 ) ;
#121 = AXIS2_PLACEMENT_3D ( 'NONE', #92, #39, #133 ) ;
#122 = APPROVAL_STATUS ( 'not_yet_approved' ) ;
#123 = CARTESIAN_POINT ( 'NONE',  ( 0.000000000000000000, 0.000000000000000000, 320.0000000000000000 ) ) ;
#124 = DIRECTION ( 'NONE',  ( -0.000000000000000000, -0.000000000000000000, -1.000000000000000000 ) ) ;
#125 = MANIFOLD_SOLID_BREP ( 'Zaoblit1', #63 ) ;
#126 = CARTESIAN_POINT ( 'NONE',  ( 0.000000000000000000, 0.000000000000000000, 320.0000000000000000 ) ) ;
#127 = EDGE_CURVE ( 'NONE', #274, #32, #134, .T. ) ;
#128 = PLANE ( 'NONE',  #4 ) ;
#129 = CARTESIAN_POINT ( 'NONE',  ( 0.000000000000000000, 0.000000000000000000, 5.000000000000000000 ) ) ;
#130 = DIRECTION ( 'NONE',  ( 1.224646799147353207E-16, 1.000000000000000000, -0.000000000000000000 ) ) ;
#131 = EDGE_CURVE ( 'NONE', #148, #70, #107, .T. ) ;
#132 = TOROIDAL_SURFACE ( 'NONE', #305, 5.450000000000001066, 0.2000000000000000111 ) ;
#133 = DIRECTION ( 'NONE',  ( -1.000000000000000000, 0.000000000000000000, 0.000000000000000000 ) ) ;
#134 = CIRCLE ( 'NONE', #205, 8.000000000000000000 ) ;
#135 = CARTESIAN_POINT ( 'NONE',  ( 0.000000000000000000, 0.000000000000000000, 0.000000000000000000 ) ) ;
#136 = APPLICATION_CONTEXT ( 'configuration controlled 3d designs of mechanical parts and assemblies' ) ;
#137 = CARTESIAN_POINT ( 'NONE',  ( -5.450000000000001066, 6.674325055353076224E-16, 4.999999999999991118 ) ) ;
#138 = APPROVAL_PERSON_ORGANIZATION ( #196, #189, #167 ) ;
#139 = AXIS2_PLACEMENT_3D ( 'NONE', #202, #299, #109 ) ;
#140 = EDGE_LOOP ( 'NONE', ( #286, #47, #33, #52 ) ) ;
#141 = AXIS2_PLACEMENT_3D ( 'NONE', #88, #160, #65 ) ;
#142 = DIRECTION ( 'NONE',  ( -0.000000000000000000, -0.000000000000000000, -1.000000000000000000 ) ) ;
#143 = APPLICATION_CONTEXT ( 'configuration controlled 3d designs of mechanical parts and assemblies' ) ;
#144 = CARTESIAN_POINT ( 'NONE',  ( 0.000000000000000000, 0.000000000000000000, 5.199999999999982414 ) ) ;
#145 = ORIENTED_EDGE ( 'NONE', *, *, #234, .F. ) ;
#146 = AXIS2_PLACEMENT_3D ( 'NONE', #296, #206, #176 ) ;
#147 =( GEOMETRIC_REPRESENTATION_CONTEXT ( 3 ) GLOBAL_UNCERTAINTY_ASSIGNED_CONTEXT ( ( #43 ) ) GLOBAL_UNIT_ASSIGNED_CONTEXT ( ( #233, #301, #62 ) ) REPRESENTATION_CONTEXT ( 'NONE', 'WORKASPACE' ) );
#148 = VERTEX_POINT ( 'NONE', #154 ) ;
#149 = DIRECTION ( 'NONE',  ( 1.000000000000000000, 0.000000000000000000, 0.000000000000000000 ) ) ;
#150 = ADVANCED_BREP_SHAPE_REPRESENTATION ( '766f', ( #125, #141 ), #147 ) ;
#151 = FACE_BOUND ( 'NONE', #288, .T. ) ;
#152 = CIRCLE ( 'NONE', #298, 8.000000000000000000 ) ;
#153 = DIRECTION ( 'NONE',  ( -1.000000000000000000, 1.224646799147353454E-16, 0.000000000000000000 ) ) ;
#154 = CARTESIAN_POINT ( 'NONE',  ( -5.250000000000000888, 0.000000000000000000, 320.0000000000000000 ) ) ;
#155 = CARTESIAN_POINT ( 'NONE',  ( 0.000000000000000000, 0.000000000000000000, 5.199999999999982414 ) ) ;
#156 = DIRECTION ( 'NONE',  ( -0.000000000000000000, -0.000000000000000000, -1.000000000000000000 ) ) ;
#157 = ORIENTED_EDGE ( 'NONE', *, *, #40, .F. ) ;
#158 = DIRECTION ( 'NONE',  ( 0.000000000000000000, 0.000000000000000000, 1.000000000000000000 ) ) ;
#159 = APPLICATION_PROTOCOL_DEFINITION ( 'international standard', 'config_control_design', 1994, #143 ) ;
#160 = DIRECTION ( 'NONE',  ( 0.000000000000000000, 0.000000000000000000, 1.000000000000000000 ) ) ;
#161 = APPROVAL ( #111, 'NEURÈENÝ' ) ;
#162 = PERSON_AND_ORGANIZATION_ROLE ( 'design_supplier' ) ;
#163 = CC_DESIGN_DATE_AND_TIME_ASSIGNMENT ( #72, #74, ( #199 ) ) ;
#164 = ORIENTED_EDGE ( 'NONE', *, *, #204, .F. ) ;
#165 = ORIENTED_EDGE ( 'NONE', *, *, #186, .F. ) ;
#166 = LOCAL_TIME ( 11, 37, 12.00000000000000000, #184 ) ;
#167 = APPROVAL_ROLE ( '' ) ;
#168 = FACE_OUTER_BOUND ( 'NONE', #307, .T. ) ;
#169 = EDGE_CURVE ( 'NONE', #70, #148, #306, .T. ) ;
#170 = APPROVAL_DATE_TIME ( #235, #189 ) ;
#171 = ORIENTED_EDGE ( 'NONE', *, *, #71, .T. ) ;
#172 = ORIENTED_EDGE ( 'NONE', *, *, #267, .F. ) ;
#173 = AXIS2_PLACEMENT_3D ( 'NONE', #126, #105, #9 ) ;
#174 = PLANE ( 'NONE',  #212 ) ;
#175 = CARTESIAN_POINT ( 'NONE',  ( 0.000000000000000000, 0.000000000000000000, 5.199999999999982414 ) ) ;
#176 = DIRECTION ( 'NONE',  ( 1.000000000000000000, 0.000000000000000000, 0.000000000000000000 ) ) ;
#177 = DIRECTION ( 'NONE',  ( -1.000000000000000000, 0.000000000000000000, 0.000000000000000000 ) ) ;
#178 = EDGE_CURVE ( 'NONE', #274, #216, #198, .T. ) ;
#179 = CARTESIAN_POINT ( 'NONE',  ( -8.000000000000000000, 0.000000000000000000, 0.000000000000000000 ) ) ;
#180 = DIRECTION ( 'NONE',  ( 1.000000000000000000, 0.000000000000000000, -0.000000000000000000 ) ) ;
#181 = VECTOR ( 'NONE', #156, 1000.000000000000000 ) ;
#182 = DIRECTION ( 'NONE',  ( -0.000000000000000000, -0.000000000000000000, -1.000000000000000000 ) ) ;
#183 = VERTEX_POINT ( 'NONE', #56 ) ;
#184 = COORDINATED_UNIVERSAL_TIME_OFFSET ( 1, 0, .AHEAD. ) ;
#185 = CARTESIAN_POINT ( 'NONE',  ( 0.000000000000000000, 0.000000000000000000, 5.000000000000000000 ) ) ;
#186 = EDGE_CURVE ( 'NONE', #99, #263, #16, .T. ) ;
#187 = AXIS2_PLACEMENT_3D ( 'NONE', #38, #130, #153 ) ;
#188 = DIRECTION ( 'NONE',  ( 1.000000000000000000, 0.000000000000000000, 0.000000000000000000 ) ) ;
#189 = APPROVAL ( #122, 'NEURÈENÝ' ) ;
#190 = VERTEX_POINT ( 'NONE', #14 ) ;
#191 = PERSON_AND_ORGANIZATION ( #27, #251 ) ;
#192 = ORIENTED_EDGE ( 'NONE', *, *, #127, .F. ) ;
#193 = ORIENTED_EDGE ( 'NONE', *, *, #77, .T. ) ;
#194 = APPROVAL_PERSON_ORGANIZATION ( #230, #161, #87 ) ;
#195 = ORIENTED_EDGE ( 'NONE', *, *, #95, .T. ) ;
#196 = PERSON_AND_ORGANIZATION ( #27, #251 ) ;
#197 = DIRECTION ( 'NONE',  ( 0.000000000000000000, 0.000000000000000000, 1.000000000000000000 ) ) ;
#198 = LINE ( 'NONE', #228, #220 ) ;
#199 = SECURITY_CLASSIFICATION ( '', '', #101 ) ;
#200 = CC_DESIGN_PERSON_AND_ORGANIZATION_ASSIGNMENT ( #191, #215, ( #199 ) ) ;
#201 = DIRECTION ( 'NONE',  ( 1.000000000000000000, 0.000000000000000000, 0.000000000000000000 ) ) ;
#202 = CARTESIAN_POINT ( 'NONE',  ( 0.000000000000000000, 0.000000000000000000, 0.000000000000000000 ) ) ;
#203 = CARTESIAN_POINT ( 'NONE',  ( 5.250000000000000888, 6.429395695523605139E-16, 320.0000000000000000 ) ) ;
#204 = EDGE_CURVE ( 'NONE', #148, #99, #248, .T. ) ;
#205 = AXIS2_PLACEMENT_3D ( 'NONE', #13, #225, #149 ) ;
#206 = DIRECTION ( 'NONE',  ( 0.000000000000000000, 0.000000000000000000, 1.000000000000000000 ) ) ;
#207 = APPLICATION_PROTOCOL_DEFINITION ( 'international standard', 'config_control_design', 1994, #136 ) ;
#208 = DIRECTION ( 'NONE',  ( 1.000000000000000000, 0.000000000000000000, 0.000000000000000000 ) ) ;
#209 = DESIGN_CONTEXT ( 'detailed design', #143, 'design' ) ;
#210 = CALENDAR_DATE ( 2022, 20, 6 ) ;
#211 = PERSON_AND_ORGANIZATION ( #27, #251 ) ;
#212 = AXIS2_PLACEMENT_3D ( 'NONE', #12, #158, #180 ) ;
#213 = AXIS2_PLACEMENT_3D ( 'NONE', #185, #182, #23 ) ;
#214 = ORIENTED_EDGE ( 'NONE', *, *, #77, .F. ) ;
#215 = PERSON_AND_ORGANIZATION_ROLE ( 'classification_officer' ) ;
#216 = VERTEX_POINT ( 'NONE', #179 ) ;
#217 = CALENDAR_DATE ( 2022, 20, 6 ) ;
#218 = EDGE_LOOP ( 'NONE', ( #214, #172 ) ) ;
#219 = COORDINATED_UNIVERSAL_TIME_OFFSET ( 1, 0, .AHEAD. ) ;
#220 = VECTOR ( 'NONE', #268, 1000.000000000000000 ) ;
#221 = CARTESIAN_POINT ( 'NONE',  ( 0.000000000000000000, 0.000000000000000000, 5.199999999999982414 ) ) ;
#222 = ORIENTED_EDGE ( 'NONE', *, *, #127, .T. ) ;
#223 = AXIS2_PLACEMENT_3D ( 'NONE', #53, #104, #250 ) ;
#224 = DIRECTION ( 'NONE',  ( 1.000000000000000000, 0.000000000000000000, 0.000000000000000000 ) ) ;
#225 = DIRECTION ( 'NONE',  ( 0.000000000000000000, 0.000000000000000000, 1.000000000000000000 ) ) ;
#226 = ADVANCED_FACE ( 'NONE', ( #272 ), #132, .F. ) ;
#227 = CARTESIAN_POINT ( 'NONE',  ( -5.250000000000000888, 0.000000000000000000, 320.0000000000000000 ) ) ;
#228 = CARTESIAN_POINT ( 'NONE',  ( -8.000000000000000000, 0.000000000000000000, 5.000000000000000000 ) ) ;
#229 = ADVANCED_FACE ( 'NONE', ( #60 ), #174, .T. ) ;
#230 = PERSON_AND_ORGANIZATION ( #27, #251 ) ;
#231 = FACE_OUTER_BOUND ( 'NONE', #281, .T. ) ;
#232 = PERSON_AND_ORGANIZATION_ROLE ( 'creator' ) ;
#233 =( LENGTH_UNIT ( ) NAMED_UNIT ( * ) SI_UNIT ( .MILLI., .METRE. ) );
#234 = EDGE_CURVE ( 'NONE', #263, #190, #247, .T. ) ;
#235 = DATE_AND_TIME ( #240, #55 ) ;
#236 = EDGE_LOOP ( 'NONE', ( #222, #8 ) ) ;
#237 = EDGE_CURVE ( 'NONE', #32, #274, #152, .T. ) ;
#238 = ORIENTED_EDGE ( 'NONE', *, *, #186, .T. ) ;
#239 = VECTOR ( 'NONE', #106, 1000.000000000000000 ) ;
#240 = CALENDAR_DATE ( 2022, 20, 6 ) ;
#241 = ORIENTED_EDGE ( 'NONE', *, *, #178, .F. ) ;
#242 = CARTESIAN_POINT ( 'NONE',  ( 5.250000000000000888, 6.429395695523605139E-16, 5.199999999999982414 ) ) ;
#243 = EDGE_LOOP ( 'NONE', ( #284, #192, #290, #193 ) ) ;
#244 = AXIS2_PLACEMENT_3D ( 'NONE', #175, #37, #201 ) ;
#245 = DIRECTION ( 'NONE',  ( 0.000000000000000000, -1.000000000000000000, 0.000000000000000000 ) ) ;
#246 = FACE_OUTER_BOUND ( 'NONE', #236, .T. ) ;
#247 = CIRCLE ( 'NONE', #213, 5.450000000000001066 ) ;
#248 = LINE ( 'NONE', #227, #51 ) ;
#249 = DIRECTION ( 'NONE',  ( 1.000000000000000000, 0.000000000000000000, -0.000000000000000000 ) ) ;
#250 = DIRECTION ( 'NONE',  ( 1.000000000000000000, 0.000000000000000000, 0.000000000000000000 ) ) ;
#251 = ORGANIZATION ( 'NEURÈENÝ', 'NEURÈENÝ', '' ) ;
#252 = PERSON_AND_ORGANIZATION_ROLE ( 'design_owner' ) ;
#253 = ORIENTED_EDGE ( 'NONE', *, *, #234, .T. ) ;
#254 = APPROVAL ( #22, 'NEURÈENÝ' ) ;
#255 = PRODUCT_DEFINITION_SHAPE ( 'NONE', 'NONE',  #270 ) ;
#256 = PERSON_AND_ORGANIZATION ( #27, #251 ) ;
#257 = APPROVAL_DATE_TIME ( #275, #161 ) ;
#258 = APPROVAL_DATE_TIME ( #282, #254 ) ;
#259 = FACE_OUTER_BOUND ( 'NONE', #140, .T. ) ;
#260 = CIRCLE ( 'NONE', #11, 8.000000000000000000 ) ;
#261 = ORIENTED_EDGE ( 'NONE', *, *, #91, .F. ) ;
#262 = ORIENTED_EDGE ( 'NONE', *, *, #293, .T. ) ;
#263 = VERTEX_POINT ( 'NONE', #137 ) ;
#264 = EDGE_LOOP ( 'NONE', ( #276, #262, #116, #164 ) ) ;
#265 = DIRECTION ( 'NONE',  ( 0.000000000000000000, 0.000000000000000000, -1.000000000000000000 ) ) ;
#266 = CARTESIAN_POINT ( 'NONE',  ( 0.000000000000000000, 0.000000000000000000, 5.000000000000000000 ) ) ;
#267 = EDGE_CURVE ( 'NONE', #183, #216, #260, .T. ) ;
#268 = DIRECTION ( 'NONE',  ( -0.000000000000000000, -0.000000000000000000, -1.000000000000000000 ) ) ;
#269 = CARTESIAN_POINT ( 'NONE',  ( 8.000000000000000000, 9.797174393178825657E-16, 5.000000000000000000 ) ) ;
#270 = PRODUCT_DEFINITION ( 'NEZNÁMÝ', '', #25, #209 ) ;
#271 = CIRCLE ( 'NONE', #67, 5.250000000000000888 ) ;
#272 = FACE_OUTER_BOUND ( 'NONE', #2, .T. ) ;
#273 = DIRECTION ( 'NONE',  ( 0.000000000000000000, 0.000000000000000000, 1.000000000000000000 ) ) ;
#274 = VERTEX_POINT ( 'NONE', #18 ) ;
#275 = DATE_AND_TIME ( #64, #166 ) ;
#276 = ORIENTED_EDGE ( 'NONE', *, *, #169, .F. ) ;
#277 = DATE_TIME_ROLE ( 'creation_date' ) ;
#278 = ADVANCED_FACE ( 'NONE', ( #231 ), #279, .T. ) ;
#279 = CYLINDRICAL_SURFACE ( 'NONE', #121, 8.000000000000000000 ) ;
#280 = AXIS2_PLACEMENT_3D ( 'NONE', #266, #124, #224 ) ;
#281 = EDGE_LOOP ( 'NONE', ( #78, #171, #69, #241 ) ) ;
#282 = DATE_AND_TIME ( #31, #35 ) ;
#283 = CC_DESIGN_PERSON_AND_ORGANIZATION_ASSIGNMENT ( #287, #162, ( #25 ) ) ;
#284 = ORIENTED_EDGE ( 'NONE', *, *, #71, .F. ) ;
#285 = COORDINATED_UNIVERSAL_TIME_OFFSET ( 1, 0, .AHEAD. ) ;
#286 = ORIENTED_EDGE ( 'NONE', *, *, #293, .F. ) ;
#287 = PERSON_AND_ORGANIZATION ( #27, #251 ) ;
#288 = EDGE_LOOP ( 'NONE', ( #195, #253 ) ) ;
#289 = AXIS2_PLACEMENT_3D ( 'NONE', #144, #30, #119 ) ;
#290 = ORIENTED_EDGE ( 'NONE', *, *, #178, .T. ) ;
#291 = DIRECTION ( 'NONE',  ( 0.000000000000000000, 0.000000000000000000, 1.000000000000000000 ) ) ;
#292 = CC_DESIGN_SECURITY_CLASSIFICATION ( #199, ( #25 ) ) ;
#293 = EDGE_CURVE ( 'NONE', #70, #28, #66, .T. ) ;
#294 = CARTESIAN_POINT ( 'NONE',  ( 5.450000000000001066, 0.000000000000000000, 5.199999999999982414 ) ) ;
#295 = CIRCLE ( 'NONE', #86, 0.1999999999999996503 ) ;
#296 = CARTESIAN_POINT ( 'NONE',  ( 0.000000000000000000, 0.000000000000000000, 320.0000000000000000 ) ) ;
#297 = FACE_OUTER_BOUND ( 'NONE', #243, .T. ) ;
#298 = AXIS2_PLACEMENT_3D ( 'NONE', #303, #89, #188 ) ;
#299 = DIRECTION ( 'NONE',  ( 0.000000000000000000, 0.000000000000000000, 1.000000000000000000 ) ) ;
#300 = CIRCLE ( 'NONE', #244, 5.250000000000000888 ) ;
#301 =( NAMED_UNIT ( * ) PLANE_ANGLE_UNIT ( ) SI_UNIT ( $, .RADIAN. ) );
#302 = CARTESIAN_POINT ( 'NONE',  ( 5.250000000000000888, 6.429395695523605139E-16, 320.0000000000000000 ) ) ;
#303 = CARTESIAN_POINT ( 'NONE',  ( 0.000000000000000000, 0.000000000000000000, 5.000000000000000000 ) ) ;
#304 = DATE_AND_TIME ( #210, #108 ) ;
#305 = AXIS2_PLACEMENT_3D ( 'NONE', #155, #291, #79 ) ;
#306 = CIRCLE ( 'NONE', #146, 5.250000000000000888 ) ;
#307 = EDGE_LOOP ( 'NONE', ( #165, #261, #5, #145 ) ) ;
ENDSEC;
END-ISO-10303-21;
