ISO-10303-21;
HEADER;
FILE_DESCRIPTION (( 'STEP AP203' ),
    '1' );
FILE_NAME ('8d15.STEP',
    '2022-06-20T09:19:01',
    ( '' ),
    ( '' ),
    'SwSTEP 2.0',
    'SolidWorks 2019',
    '' );
FILE_SCHEMA (( 'CONFIG_CONTROL_DESIGN' ));
ENDSEC;

DATA;
#1 = FACE_OUTER_BOUND ( 'NONE', #134, .T. ) ;
#2 = CC_DESIGN_PERSON_AND_ORGANIZATION_ASSIGNMENT ( #97, #281, ( #67 ) ) ;
#3 = PLANE ( 'NONE',  #146 ) ;
#4 = EDGE_LOOP ( 'NONE', ( #87, #182, #270, #174 ) ) ;
#5 = CC_DESIGN_APPROVAL ( #26, ( #205 ) ) ;
#6 = DIRECTION ( 'NONE',  ( 0.000000000000000000, 0.000000000000000000, 1.000000000000000000 ) ) ;
#7 = ORIENTED_EDGE ( 'NONE', *, *, #88, .T. ) ;
#8 = ORIENTED_EDGE ( 'NONE', *, *, #88, .F. ) ;
#9 = AXIS2_PLACEMENT_3D ( 'NONE', #293, #10, #250 ) ;
#10 = DIRECTION ( 'NONE',  ( -0.000000000000000000, -0.000000000000000000, -1.000000000000000000 ) ) ;
#11 = VERTEX_POINT ( 'NONE', #126 ) ;
#12 = UNCERTAINTY_MEASURE_WITH_UNIT (LENGTH_MEASURE( 1.000000000000000082E-05 ), #59, 'distance_accuracy_value', 'NONE');
#13 = CARTESIAN_POINT ( 'NONE',  ( 0.000000000000000000, 0.000000000000000000, 10.00000000000000000 ) ) ;
#14 = CC_DESIGN_PERSON_AND_ORGANIZATION_ASSIGNMENT ( #117, #42, ( #176 ) ) ;
#15 = DATE_AND_TIME ( #159, #96 ) ;
#16 = CC_DESIGN_APPROVAL ( #219, ( #176 ) ) ;
#17 = DATE_AND_TIME ( #23, #24 ) ;
#18 = COORDINATED_UNIVERSAL_TIME_OFFSET ( 1, 0, .AHEAD. ) ;
#19 = EDGE_CURVE ( 'NONE', #11, #272, #212, .T. ) ;
#20 = DATE_TIME_ROLE ( 'classification_date' ) ;
#21 = AXIS2_PLACEMENT_3D ( 'NONE', #124, #218, #48 ) ;
#22 = DIRECTION ( 'NONE',  ( 0.000000000000000000, 0.000000000000000000, 1.000000000000000000 ) ) ;
#23 = CALENDAR_DATE ( 2022, 20, 6 ) ;
#24 = LOCAL_TIME ( 11, 19, 1.000000000000000000, #46 ) ;
#25 = LINE ( 'NONE', #140, #101 ) ;
#26 = APPROVAL ( #68, 'NEURÈENÝ' ) ;
#27 = ADVANCED_FACE ( 'NONE', ( #285 ), #224, .F. ) ;
#28 = CLOSED_SHELL ( 'NONE', ( #201, #31, #228, #83, #40, #27, #178, #102, #64 ) ) ;
#29 = LOCAL_TIME ( 11, 19, 1.000000000000000000, #141 ) ;
#30 = ORIENTED_EDGE ( 'NONE', *, *, #169, .F. ) ;
#31 = ADVANCED_FACE ( 'NONE', ( #1 ), #32, .T. ) ;
#32 = CYLINDRICAL_SURFACE ( 'NONE', #189, 12.50000000000000000 ) ;
#33 = CIRCLE ( 'NONE', #119, 0.2000000000000005107 ) ;
#34 = FACE_OUTER_BOUND ( 'NONE', #82, .T. ) ;
#35 = CC_DESIGN_APPROVAL ( #202, ( #226 ) ) ;
#36 = EDGE_CURVE ( 'NONE', #112, #232, #196, .T. ) ;
#37 = CC_DESIGN_PERSON_AND_ORGANIZATION_ASSIGNMENT ( #215, #92, ( #226 ) ) ;
#38 = ORIENTED_EDGE ( 'NONE', *, *, #58, .F. ) ;
#39 = ORIENTED_EDGE ( 'NONE', *, *, #36, .F. ) ;
#40 = ADVANCED_FACE ( 'NONE', ( #77, #34 ), #264, .T. ) ;
#41 = DIRECTION ( 'NONE',  ( 1.000000000000000000, 0.000000000000000000, 0.000000000000000000 ) ) ;
#42 = PERSON_AND_ORGANIZATION_ROLE ( 'classification_officer' ) ;
#43 = DIRECTION ( 'NONE',  ( 0.000000000000000000, 0.000000000000000000, 1.000000000000000000 ) ) ;
#44 = APPLICATION_PROTOCOL_DEFINITION ( 'international standard', 'config_control_design', 1994, #187 ) ;
#45 = CARTESIAN_POINT ( 'NONE',  ( 0.000000000000000000, 0.000000000000000000, 10.00000000000000000 ) ) ;
#46 = COORDINATED_UNIVERSAL_TIME_OFFSET ( 1, 0, .AHEAD. ) ;
#47 =( GEOMETRIC_REPRESENTATION_CONTEXT ( 3 ) GLOBAL_UNCERTAINTY_ASSIGNED_CONTEXT ( ( #12 ) ) GLOBAL_UNIT_ASSIGNED_CONTEXT ( ( #59, #129, #230 ) ) REPRESENTATION_CONTEXT ( 'NONE', 'WORKASPACE' ) );
#48 = DIRECTION ( 'NONE',  ( 1.000000000000000000, 0.000000000000000000, 0.000000000000000000 ) ) ;
#49 = EDGE_CURVE ( 'NONE', #90, #257, #304, .T. ) ;
#50 = CARTESIAN_POINT ( 'NONE',  ( 0.000000000000000000, 0.000000000000000000, 10.00000000000000000 ) ) ;
#51 = DIRECTION ( 'NONE',  ( 0.000000000000000000, 0.000000000000000000, 1.000000000000000000 ) ) ;
#52 = ORIENTED_EDGE ( 'NONE', *, *, #58, .T. ) ;
#53 = EDGE_CURVE ( 'NONE', #112, #105, #33, .T. ) ;
#54 = AXIS2_PLACEMENT_3D ( 'NONE', #260, #43, #242 ) ;
#55 = EDGE_CURVE ( 'NONE', #257, #90, #286, .T. ) ;
#56 = APPLICATION_CONTEXT ( 'configuration controlled 3d designs of mechanical parts and assemblies' ) ;
#57 = APPROVAL_PERSON_ORGANIZATION ( #302, #219, #307 ) ;
#58 = EDGE_CURVE ( 'NONE', #272, #11, #240, .T. ) ;
#59 =( LENGTH_UNIT ( ) NAMED_UNIT ( * ) SI_UNIT ( .MILLI., .METRE. ) );
#60 = DIRECTION ( 'NONE',  ( -1.000000000000000000, 0.000000000000000000, 0.000000000000000000 ) ) ;
#61 = ORIENTED_EDGE ( 'NONE', *, *, #109, .T. ) ;
#62 = DIRECTION ( 'NONE',  ( 0.000000000000000000, 0.000000000000000000, 1.000000000000000000 ) ) ;
#63 = EDGE_LOOP ( 'NONE', ( #8, #38, #61, #278 ) ) ;
#64 = ADVANCED_FACE ( 'NONE', ( #283 ), #150, .F. ) ;
#65 = CARTESIAN_POINT ( 'NONE',  ( -12.70000000000000107, 1.555301434917138630E-15, 10.00000000000000000 ) ) ;
#66 = PERSON_AND_ORGANIZATION ( #261, #70 ) ;
#67 = PRODUCT ( '8d15', '8d15', '', ( #217 ) ) ;
#68 = APPROVAL_STATUS ( 'not_yet_approved' ) ;
#69 = AXIS2_PLACEMENT_3D ( 'NONE', #72, #6, #239 ) ;
#70 = ORGANIZATION ( 'NEURÈENÝ', 'NEURÈENÝ', '' ) ;
#71 = APPROVAL_DATE_TIME ( #17, #219 ) ;
#72 = CARTESIAN_POINT ( 'NONE',  ( 0.000000000000000000, 0.000000000000000000, 0.000000000000000000 ) ) ;
#73 = SECURITY_CLASSIFICATION_LEVEL ( 'unclassified' ) ;
#74 = DIRECTION ( 'NONE',  ( -1.000000000000000000, 1.224646799147353207E-16, 0.000000000000000000 ) ) ;
#75 = CC_DESIGN_DATE_AND_TIME_ASSIGNMENT ( #122, #99, ( #226 ) ) ;
#76 = DIRECTION ( 'NONE',  ( 0.000000000000000000, 0.000000000000000000, 1.000000000000000000 ) ) ;
#77 = FACE_BOUND ( 'NONE', #207, .T. ) ;
#78 = LOCAL_TIME ( 11, 19, 1.000000000000000000, #216 ) ;
#79 = VECTOR ( 'NONE', #158, 1000.000000000000000 ) ;
#80 = ORIENTED_EDGE ( 'NONE', *, *, #163, .T. ) ;
#81 = DIRECTION ( 'NONE',  ( 1.000000000000000000, 0.000000000000000000, 0.000000000000000000 ) ) ;
#82 = EDGE_LOOP ( 'NONE', ( #110, #148 ) ) ;
#83 = ADVANCED_FACE ( 'NONE', ( #144 ), #199, .T. ) ;
#84 = CARTESIAN_POINT ( 'NONE',  ( 0.000000000000000000, 0.000000000000000000, 10.00000000000000000 ) ) ;
#85 = CARTESIAN_POINT ( 'NONE',  ( 0.000000000000000000, 0.000000000000000000, 10.00000000000000000 ) ) ;
#86 = DIRECTION ( 'NONE',  ( -0.000000000000000000, -0.000000000000000000, -1.000000000000000000 ) ) ;
#87 = ORIENTED_EDGE ( 'NONE', *, *, #93, .F. ) ;
#88 = EDGE_CURVE ( 'NONE', #11, #232, #25, .T. ) ;
#89 = FACE_OUTER_BOUND ( 'NONE', #253, .T. ) ;
#90 = VERTEX_POINT ( 'NONE', #193 ) ;
#91 = CARTESIAN_POINT ( 'NONE',  ( 0.000000000000000000, 0.000000000000000000, 10.00000000000000000 ) ) ;
#92 = PERSON_AND_ORGANIZATION_ROLE ( 'creator' ) ;
#93 = EDGE_CURVE ( 'NONE', #225, #257, #123, .T. ) ;
#94 = DATE_AND_TIME ( #262, #244 ) ;
#95 = PERSON_AND_ORGANIZATION ( #261, #70 ) ;
#96 = LOCAL_TIME ( 11, 19, 1.000000000000000000, #18 ) ;
#97 = PERSON_AND_ORGANIZATION ( #261, #70 ) ;
#98 = DIRECTION ( 'NONE',  ( -0.000000000000000000, -0.000000000000000000, -1.000000000000000000 ) ) ;
#99 = DATE_TIME_ROLE ( 'creation_date' ) ;
#100 = DIRECTION ( 'NONE',  ( 1.000000000000000000, 0.000000000000000000, -0.000000000000000000 ) ) ;
#101 = VECTOR ( 'NONE', #98, 1000.000000000000000 ) ;
#102 = ADVANCED_FACE ( 'NONE', ( #220 ), #3, .T. ) ;
#103 = CARTESIAN_POINT ( 'NONE',  ( 0.000000000000000000, 0.000000000000000000, 135.0000000000000000 ) ) ;
#104 = DIRECTION ( 'NONE',  ( -0.000000000000000000, -0.000000000000000000, -1.000000000000000000 ) ) ;
#105 = VERTEX_POINT ( 'NONE', #65 ) ;
#106 = PRODUCT_RELATED_PRODUCT_CATEGORY ( 'detail', '', ( #67 ) ) ;
#107 = MANIFOLD_SOLID_BREP ( 'Zaoblit1', #28 ) ;
#108 = CYLINDRICAL_SURFACE ( 'NONE', #289, 16.00000000000000000 ) ;
#109 = EDGE_CURVE ( 'NONE', #272, #112, #203, .T. ) ;
#110 = ORIENTED_EDGE ( 'NONE', *, *, #254, .T. ) ;
#111 = ADVANCED_BREP_SHAPE_REPRESENTATION ( '8d15', ( #107, #151 ), #47 ) ;
#112 = VERTEX_POINT ( 'NONE', #233 ) ;
#113 = DIRECTION ( 'NONE',  ( -0.000000000000000000, -0.000000000000000000, -1.000000000000000000 ) ) ;
#114 = ORIENTED_EDGE ( 'NONE', *, *, #300, .F. ) ;
#115 = DIRECTION ( 'NONE',  ( -0.000000000000000000, -0.000000000000000000, -1.000000000000000000 ) ) ;
#116 = CIRCLE ( 'NONE', #185, 12.70000000000000107 ) ;
#117 = PERSON_AND_ORGANIZATION ( #261, #70 ) ;
#118 = APPROVAL_ROLE ( '' ) ;
#119 = AXIS2_PLACEMENT_3D ( 'NONE', #245, #125, #74 ) ;
#120 = CARTESIAN_POINT ( 'NONE',  ( 0.000000000000000000, 0.000000000000000000, 0.000000000000000000 ) ) ;
#121 = AXIS2_PLACEMENT_3D ( 'NONE', #13, #295, #275 ) ;
#122 = DATE_AND_TIME ( #143, #29 ) ;
#123 = LINE ( 'NONE', #243, #160 ) ;
#124 = CARTESIAN_POINT ( 'NONE',  ( 0.000000000000000000, 0.000000000000000000, 0.000000000000000000 ) ) ;
#125 = DIRECTION ( 'NONE',  ( 1.224646799147353207E-16, 1.000000000000000000, -0.000000000000000000 ) ) ;
#126 = CARTESIAN_POINT ( 'NONE',  ( 12.50000000000000000, 1.530808498934191521E-15, 135.0000000000000000 ) ) ;
#127 = ORIENTED_EDGE ( 'NONE', *, *, #188, .T. ) ;
#128 = CIRCLE ( 'NONE', #121, 16.00000000000000000 ) ;
#129 =( NAMED_UNIT ( * ) PLANE_ANGLE_UNIT ( ) SI_UNIT ( $, .RADIAN. ) );
#130 = ORIENTED_EDGE ( 'NONE', *, *, #53, .F. ) ;
#131 = DIRECTION ( 'NONE',  ( 0.000000000000000000, 0.000000000000000000, -1.000000000000000000 ) ) ;
#132 = AXIS2_PLACEMENT_3D ( 'NONE', #269, #142, #81 ) ;
#133 = DIRECTION ( 'NONE',  ( 0.000000000000000000, -1.000000000000000000, 0.000000000000000000 ) ) ;
#134 = EDGE_LOOP ( 'NONE', ( #296, #7, #229, #204 ) ) ;
#135 = ORIENTED_EDGE ( 'NONE', *, *, #197, .T. ) ;
#136 = FACE_OUTER_BOUND ( 'NONE', #234, .T. ) ;
#137 = EDGE_CURVE ( 'NONE', #155, #90, #299, .T. ) ;
#138 = AXIS2_PLACEMENT_3D ( 'NONE', #45, #290, #173 ) ;
#139 = PERSON_AND_ORGANIZATION ( #261, #70 ) ;
#140 = CARTESIAN_POINT ( 'NONE',  ( 12.50000000000000000, 1.530808498934191521E-15, 135.0000000000000000 ) ) ;
#141 = COORDINATED_UNIVERSAL_TIME_OFFSET ( 1, 0, .AHEAD. ) ;
#142 = DIRECTION ( 'NONE',  ( 0.000000000000000000, 0.000000000000000000, 1.000000000000000000 ) ) ;
#143 = CALENDAR_DATE ( 2022, 20, 6 ) ;
#144 = FACE_OUTER_BOUND ( 'NONE', #4, .T. ) ;
#145 = CC_DESIGN_PERSON_AND_ORGANIZATION_ASSIGNMENT ( #238, #259, ( #205 ) ) ;
#146 = AXIS2_PLACEMENT_3D ( 'NONE', #103, #179, #208 ) ;
#147 = DIRECTION ( 'NONE',  ( 0.000000000000000000, 0.000000000000000000, 1.000000000000000000 ) ) ;
#148 = ORIENTED_EDGE ( 'NONE', *, *, #169, .T. ) ;
#149 = ORIENTED_EDGE ( 'NONE', *, *, #188, .F. ) ;
#150 = TOROIDAL_SURFACE ( 'NONE', #54, 12.70000000000000107, 0.2000000000000000111 ) ;
#151 = AXIS2_PLACEMENT_3D ( 'NONE', #194, #76, #305 ) ;
#152 = DIRECTION ( 'NONE',  ( 1.000000000000000000, 0.000000000000000000, 0.000000000000000000 ) ) ;
#153 = CARTESIAN_POINT ( 'NONE',  ( -16.00000000000000000, 0.000000000000000000, 10.00000000000000000 ) ) ;
#154 = DIRECTION ( 'NONE',  ( 0.000000000000000000, 0.000000000000000000, 1.000000000000000000 ) ) ;
#155 = VERTEX_POINT ( 'NONE', #153 ) ;
#156 = CARTESIAN_POINT ( 'NONE',  ( -16.00000000000000000, 0.000000000000000000, 10.00000000000000000 ) ) ;
#157 = ORIENTED_EDGE ( 'NONE', *, *, #55, .T. ) ;
#158 = DIRECTION ( 'NONE',  ( -0.000000000000000000, -0.000000000000000000, -1.000000000000000000 ) ) ;
#159 = CALENDAR_DATE ( 2022, 20, 6 ) ;
#160 = VECTOR ( 'NONE', #221, 1000.000000000000000 ) ;
#161 = APPROVAL_DATE_TIME ( #94, #26 ) ;
#162 = VECTOR ( 'NONE', #227, 1000.000000000000000 ) ;
#163 = EDGE_CURVE ( 'NONE', #232, #198, #249, .T. ) ;
#164 = ORIENTED_EDGE ( 'NONE', *, *, #163, .F. ) ;
#165 = DIRECTION ( 'NONE',  ( 0.000000000000000000, 0.000000000000000000, 1.000000000000000000 ) ) ;
#166 = AXIS2_PLACEMENT_3D ( 'NONE', #120, #147, #195 ) ;
#167 = APPROVAL_STATUS ( 'not_yet_approved' ) ;
#168 = EDGE_LOOP ( 'NONE', ( #130, #114, #80, #251 ) ) ;
#169 = EDGE_CURVE ( 'NONE', #225, #155, #128, .T. ) ;
#170 = AXIS2_PLACEMENT_3D ( 'NONE', #85, #113, #177 ) ;
#171 = AXIS2_PLACEMENT_3D ( 'NONE', #256, #62, #152 ) ;
#172 = CARTESIAN_POINT ( 'NONE',  ( 0.000000000000000000, 0.000000000000000000, 135.0000000000000000 ) ) ;
#173 = DIRECTION ( 'NONE',  ( -1.000000000000000000, 0.000000000000000000, 0.000000000000000000 ) ) ;
#174 = ORIENTED_EDGE ( 'NONE', *, *, #49, .T. ) ;
#175 = CARTESIAN_POINT ( 'NONE',  ( 16.00000000000000000, 1.959434878635765131E-15, 0.000000000000000000 ) ) ;
#176 = SECURITY_CLASSIFICATION ( '', '', #73 ) ;
#177 = DIRECTION ( 'NONE',  ( 1.000000000000000000, 0.000000000000000000, 0.000000000000000000 ) ) ;
#178 = ADVANCED_FACE ( 'NONE', ( #184 ), #297, .T. ) ;
#179 = DIRECTION ( 'NONE',  ( 0.000000000000000000, 0.000000000000000000, 1.000000000000000000 ) ) ;
#180 = EDGE_LOOP ( 'NONE', ( #209, #298 ) ) ;
#181 = DIRECTION ( 'NONE',  ( 1.000000000000000000, 0.000000000000000000, 0.000000000000000000 ) ) ;
#182 = ORIENTED_EDGE ( 'NONE', *, *, #254, .F. ) ;
#183 = AXIS2_PLACEMENT_3D ( 'NONE', #50, #22, #100 ) ;
#184 = FACE_OUTER_BOUND ( 'NONE', #63, .T. ) ;
#185 = AXIS2_PLACEMENT_3D ( 'NONE', #271, #115, #210 ) ;
#186 = PERSON_AND_ORGANIZATION_ROLE ( 'design_supplier' ) ;
#187 = APPLICATION_CONTEXT ( 'configuration controlled 3d designs of mechanical parts and assemblies' ) ;
#188 = EDGE_CURVE ( 'NONE', #198, #105, #116, .T. ) ;
#189 = AXIS2_PLACEMENT_3D ( 'NONE', #172, #104, #267 ) ;
#190 = CALENDAR_DATE ( 2022, 20, 6 ) ;
#191 = EDGE_LOOP ( 'NONE', ( #52, #288 ) ) ;
#192 = DATE_AND_TIME ( #190, #78 ) ;
#193 = CARTESIAN_POINT ( 'NONE',  ( -16.00000000000000000, 0.000000000000000000, 0.000000000000000000 ) ) ;
#194 = CARTESIAN_POINT ( 'NONE',  ( 0.000000000000000000, 0.000000000000000000, 0.000000000000000000 ) ) ;
#195 = DIRECTION ( 'NONE',  ( 1.000000000000000000, 0.000000000000000000, 0.000000000000000000 ) ) ;
#196 = CIRCLE ( 'NONE', #265, 12.50000000000000000 ) ;
#197 = EDGE_CURVE ( 'NONE', #105, #198, #294, .T. ) ;
#198 = VERTEX_POINT ( 'NONE', #279 ) ;
#199 = CYLINDRICAL_SURFACE ( 'NONE', #138, 16.00000000000000000 ) ;
#200 = CARTESIAN_POINT ( 'NONE',  ( 12.50000000000000000, 1.530808498934191521E-15, 10.20000000000000107 ) ) ;
#201 = ADVANCED_FACE ( 'NONE', ( #89 ), #287, .F. ) ;
#202 = APPROVAL ( #167, 'NEURÈENÝ' ) ;
#203 = LINE ( 'NONE', #292, #79 ) ;
#204 = ORIENTED_EDGE ( 'NONE', *, *, #109, .F. ) ;
#205 = PRODUCT_DEFINITION_FORMATION_WITH_SPECIFIED_SOURCE ( 'LIBOVOLNÝ', '', #67, .NOT_KNOWN. ) ;
#206 = APPLICATION_PROTOCOL_DEFINITION ( 'international standard', 'config_control_design', 1994, #56 ) ;
#207 = EDGE_LOOP ( 'NONE', ( #127, #135 ) ) ;
#208 = DIRECTION ( 'NONE',  ( 1.000000000000000000, 0.000000000000000000, -0.000000000000000000 ) ) ;
#209 = ORIENTED_EDGE ( 'NONE', *, *, #49, .F. ) ;
#210 = DIRECTION ( 'NONE',  ( 1.000000000000000000, 0.000000000000000000, 0.000000000000000000 ) ) ;
#211 = AXIS2_PLACEMENT_3D ( 'NONE', #222, #165, #306 ) ;
#212 = CIRCLE ( 'NONE', #132, 12.50000000000000000 ) ;
#213 = APPROVAL_DATE_TIME ( #192, #202 ) ;
#214 = CIRCLE ( 'NONE', #255, 16.00000000000000000 ) ;
#215 = PERSON_AND_ORGANIZATION ( #261, #70 ) ;
#216 = COORDINATED_UNIVERSAL_TIME_OFFSET ( 1, 0, .AHEAD. ) ;
#217 = MECHANICAL_CONTEXT ( 'NONE', #56, 'mechanical' ) ;
#218 = DIRECTION ( 'NONE',  ( 0.000000000000000000, 0.000000000000000000, 1.000000000000000000 ) ) ;
#219 = APPROVAL ( #282, 'NEURÈENÝ' ) ;
#220 = FACE_OUTER_BOUND ( 'NONE', #191, .T. ) ;
#221 = DIRECTION ( 'NONE',  ( -0.000000000000000000, -0.000000000000000000, -1.000000000000000000 ) ) ;
#222 = CARTESIAN_POINT ( 'NONE',  ( 0.000000000000000000, 0.000000000000000000, 135.0000000000000000 ) ) ;
#223 = AXIS2_PLACEMENT_3D ( 'NONE', #258, #252, #41 ) ;
#224 = PLANE ( 'NONE',  #69 ) ;
#225 = VERTEX_POINT ( 'NONE', #273 ) ;
#226 = PRODUCT_DEFINITION ( 'NEZNÁMÝ', '', #205, #274 ) ;
#227 = DIRECTION ( 'NONE',  ( -0.000000000000000000, -0.000000000000000000, -1.000000000000000000 ) ) ;
#228 = ADVANCED_FACE ( 'NONE', ( #136 ), #108, .T. ) ;
#229 = ORIENTED_EDGE ( 'NONE', *, *, #300, .T. ) ;
#230 =( NAMED_UNIT ( * ) SI_UNIT ( $, .STERADIAN. ) SOLID_ANGLE_UNIT ( ) );
#231 = APPROVAL_PERSON_ORGANIZATION ( #66, #202, #118 ) ;
#232 = VERTEX_POINT ( 'NONE', #200 ) ;
#233 = CARTESIAN_POINT ( 'NONE',  ( -12.50000000000000000, 0.000000000000000000, 10.20000000000000107 ) ) ;
#234 = EDGE_LOOP ( 'NONE', ( #30, #291, #157, #276 ) ) ;
#235 = CARTESIAN_POINT ( 'NONE',  ( 12.70000000000000107, 0.000000000000000000, 10.20000000000000107 ) ) ;
#236 = CC_DESIGN_SECURITY_CLASSIFICATION ( #176, ( #205 ) ) ;
#237 = SHAPE_DEFINITION_REPRESENTATION ( #266, #111 ) ;
#238 = PERSON_AND_ORGANIZATION ( #261, #70 ) ;
#239 = DIRECTION ( 'NONE',  ( 1.000000000000000000, 0.000000000000000000, -0.000000000000000000 ) ) ;
#240 = CIRCLE ( 'NONE', #211, 12.50000000000000000 ) ;
#241 = APPROVAL_ROLE ( '' ) ;
#242 = DIRECTION ( 'NONE',  ( 1.000000000000000000, 0.000000000000000000, 0.000000000000000000 ) ) ;
#243 = CARTESIAN_POINT ( 'NONE',  ( 16.00000000000000000, 1.959434878635765131E-15, 10.00000000000000000 ) ) ;
#244 = LOCAL_TIME ( 11, 19, 1.000000000000000000, #303 ) ;
#245 = CARTESIAN_POINT ( 'NONE',  ( -12.70000000000000107, 1.555301434917138630E-15, 10.20000000000000107 ) ) ;
#246 = DIRECTION ( 'NONE',  ( 1.000000000000000000, 0.000000000000000000, 0.000000000000000000 ) ) ;
#247 = ORIENTED_EDGE ( 'NONE', *, *, #53, .T. ) ;
#248 = APPROVAL_PERSON_ORGANIZATION ( #139, #26, #241 ) ;
#249 = CIRCLE ( 'NONE', #263, 0.2000000000000005107 ) ;
#250 = DIRECTION ( 'NONE',  ( -1.000000000000000000, 0.000000000000000000, 0.000000000000000000 ) ) ;
#251 = ORIENTED_EDGE ( 'NONE', *, *, #197, .F. ) ;
#252 = DIRECTION ( 'NONE',  ( 0.000000000000000000, 0.000000000000000000, 1.000000000000000000 ) ) ;
#253 = EDGE_LOOP ( 'NONE', ( #39, #247, #149, #164 ) ) ;
#254 = EDGE_CURVE ( 'NONE', #155, #225, #214, .T. ) ;
#255 = AXIS2_PLACEMENT_3D ( 'NONE', #84, #154, #181 ) ;
#256 = CARTESIAN_POINT ( 'NONE',  ( 0.000000000000000000, 0.000000000000000000, 10.20000000000000107 ) ) ;
#257 = VERTEX_POINT ( 'NONE', #175 ) ;
#258 = CARTESIAN_POINT ( 'NONE',  ( 0.000000000000000000, 0.000000000000000000, 10.20000000000000107 ) ) ;
#259 = PERSON_AND_ORGANIZATION_ROLE ( 'creator' ) ;
#260 = CARTESIAN_POINT ( 'NONE',  ( 0.000000000000000000, 0.000000000000000000, 10.20000000000000107 ) ) ;
#261 = PERSON ( 'NEURÈENÝ', 'NEURÈENÝ', 'NEURÈENÝ', ('NEURÈENÝ'), ('NEURÈENÝ'), ('NEURÈENÝ') ) ;
#262 = CALENDAR_DATE ( 2022, 20, 6 ) ;
#263 = AXIS2_PLACEMENT_3D ( 'NONE', #235, #133, #131 ) ;
#264 = PLANE ( 'NONE',  #183 ) ;
#265 = AXIS2_PLACEMENT_3D ( 'NONE', #284, #51, #246 ) ;
#266 = PRODUCT_DEFINITION_SHAPE ( 'NONE', 'NONE',  #226 ) ;
#267 = DIRECTION ( 'NONE',  ( -1.000000000000000000, 0.000000000000000000, 0.000000000000000000 ) ) ;
#268 = CC_DESIGN_DATE_AND_TIME_ASSIGNMENT ( #15, #20, ( #176 ) ) ;
#269 = CARTESIAN_POINT ( 'NONE',  ( 0.000000000000000000, 0.000000000000000000, 135.0000000000000000 ) ) ;
#270 = ORIENTED_EDGE ( 'NONE', *, *, #137, .T. ) ;
#271 = CARTESIAN_POINT ( 'NONE',  ( 0.000000000000000000, 0.000000000000000000, 10.00000000000000000 ) ) ;
#272 = VERTEX_POINT ( 'NONE', #277 ) ;
#273 = CARTESIAN_POINT ( 'NONE',  ( 16.00000000000000000, 1.959434878635765131E-15, 10.00000000000000000 ) ) ;
#274 = DESIGN_CONTEXT ( 'detailed design', #187, 'design' ) ;
#275 = DIRECTION ( 'NONE',  ( 1.000000000000000000, 0.000000000000000000, 0.000000000000000000 ) ) ;
#276 = ORIENTED_EDGE ( 'NONE', *, *, #137, .F. ) ;
#277 = CARTESIAN_POINT ( 'NONE',  ( -12.50000000000000000, 0.000000000000000000, 135.0000000000000000 ) ) ;
#278 = ORIENTED_EDGE ( 'NONE', *, *, #36, .T. ) ;
#279 = CARTESIAN_POINT ( 'NONE',  ( 12.70000000000000107, 0.000000000000000000, 10.00000000000000000 ) ) ;
#280 = CC_DESIGN_PERSON_AND_ORGANIZATION_ASSIGNMENT ( #95, #186, ( #205 ) ) ;
#281 = PERSON_AND_ORGANIZATION_ROLE ( 'design_owner' ) ;
#282 = APPROVAL_STATUS ( 'not_yet_approved' ) ;
#283 = FACE_OUTER_BOUND ( 'NONE', #168, .T. ) ;
#284 = CARTESIAN_POINT ( 'NONE',  ( 0.000000000000000000, 0.000000000000000000, 10.20000000000000107 ) ) ;
#285 = FACE_OUTER_BOUND ( 'NONE', #180, .T. ) ;
#286 = CIRCLE ( 'NONE', #21, 16.00000000000000000 ) ;
#287 = TOROIDAL_SURFACE ( 'NONE', #223, 12.70000000000000107, 0.2000000000000000111 ) ;
#288 = ORIENTED_EDGE ( 'NONE', *, *, #19, .T. ) ;
#289 = AXIS2_PLACEMENT_3D ( 'NONE', #91, #86, #60 ) ;
#290 = DIRECTION ( 'NONE',  ( -0.000000000000000000, -0.000000000000000000, -1.000000000000000000 ) ) ;
#291 = ORIENTED_EDGE ( 'NONE', *, *, #93, .T. ) ;
#292 = CARTESIAN_POINT ( 'NONE',  ( -12.50000000000000000, 0.000000000000000000, 135.0000000000000000 ) ) ;
#293 = CARTESIAN_POINT ( 'NONE',  ( 0.000000000000000000, 0.000000000000000000, 135.0000000000000000 ) ) ;
#294 = CIRCLE ( 'NONE', #170, 12.70000000000000107 ) ;
#295 = DIRECTION ( 'NONE',  ( 0.000000000000000000, 0.000000000000000000, 1.000000000000000000 ) ) ;
#296 = ORIENTED_EDGE ( 'NONE', *, *, #19, .F. ) ;
#297 = CYLINDRICAL_SURFACE ( 'NONE', #9, 12.50000000000000000 ) ;
#298 = ORIENTED_EDGE ( 'NONE', *, *, #55, .F. ) ;
#299 = LINE ( 'NONE', #156, #162 ) ;
#300 = EDGE_CURVE ( 'NONE', #232, #112, #301, .T. ) ;
#301 = CIRCLE ( 'NONE', #171, 12.50000000000000000 ) ;
#302 = PERSON_AND_ORGANIZATION ( #261, #70 ) ;
#303 = COORDINATED_UNIVERSAL_TIME_OFFSET ( 1, 0, .AHEAD. ) ;
#304 = CIRCLE ( 'NONE', #166, 16.00000000000000000 ) ;
#305 = DIRECTION ( 'NONE',  ( 1.000000000000000000, 0.000000000000000000, 0.000000000000000000 ) ) ;
#306 = DIRECTION ( 'NONE',  ( 1.000000000000000000, 0.000000000000000000, 0.000000000000000000 ) ) ;
#307 = APPROVAL_ROLE ( '' ) ;
ENDSEC;
END-ISO-10303-21;
