ISO-10303-21;
HEADER;
FILE_DESCRIPTION (( 'STEP AP203' ),
    '1' );
FILE_NAME ('0b14.STEP',
    '2025-03-19T23:02:28',
    ( '' ),
    ( '' ),
    'SwSTEP 2.0',
    'SolidWorks 2019',
    '' );
FILE_SCHEMA (( 'CONFIG_CONTROL_DESIGN' ));
ENDSEC;

DATA;
#1 = LOCAL_TIME ( 0, 2, 28.00000000000000000, #36 ) ;
#2 = ORIENTED_EDGE ( 'NONE', *, *, #93, .T. ) ;
#3 = CC_DESIGN_APPROVAL ( #153, ( #53 ) ) ;
#4 = ADVANCED_FACE ( 'NONE', ( #151 ), #121, .T. ) ;
#5 = DATE_AND_TIME ( #144, #98 ) ;
#6 = DIRECTION ( 'NONE',  ( 0.000000000000000000, 0.000000000000000000, 1.000000000000000000 ) ) ;
#7 = DIRECTION ( 'NONE',  ( 0.000000000000000000, 0.000000000000000000, 1.000000000000000000 ) ) ;
#8 = CARTESIAN_POINT ( 'NONE',  ( -0.5000000000000000000, 0.000000000000000000, 108.0000000000000000 ) ) ;
#9 = FACE_OUTER_BOUND ( 'NONE', #31, .T. ) ;
#10 = SHAPE_DEFINITION_REPRESENTATION ( #33, #37 ) ;
#11 =( GEOMETRIC_REPRESENTATION_CONTEXT ( 3 ) GLOBAL_UNCERTAINTY_ASSIGNED_CONTEXT ( ( #95 ) ) GLOBAL_UNIT_ASSIGNED_CONTEXT ( ( #19, #150, #61 ) ) REPRESENTATION_CONTEXT ( 'NONE', 'WORKASPACE' ) );
#12 = ORIENTED_EDGE ( 'NONE', *, *, #80, .F. ) ;
#13 = PRODUCT ( '0b14', '0b14', '', ( #114 ) ) ;
#14 = LOCAL_TIME ( 0, 2, 28.00000000000000000, #128 ) ;
#15 = ADVANCED_FACE ( 'NONE', ( #64 ), #166, .F. ) ;
#16 = LOCAL_TIME ( 0, 2, 28.00000000000000000, #24 ) ;
#17 = PERSON_AND_ORGANIZATION ( #100, #124 ) ;
#18 = VECTOR ( 'NONE', #50, 1000.000000000000000 ) ;
#19 =( LENGTH_UNIT ( ) NAMED_UNIT ( * ) SI_UNIT ( .MILLI., .METRE. ) );
#20 = APPROVAL_STATUS ( 'not_yet_approved' ) ;
#21 = CC_DESIGN_PERSON_AND_ORGANIZATION_ASSIGNMENT ( #174, #105, ( #46 ) ) ;
#22 = DIRECTION ( 'NONE',  ( -0.000000000000000000, -0.000000000000000000, -1.000000000000000000 ) ) ;
#23 = APPROVAL_DATE_TIME ( #85, #153 ) ;
#24 = COORDINATED_UNIVERSAL_TIME_OFFSET ( 1, 0, .AHEAD. ) ;
#25 = DIRECTION ( 'NONE',  ( 1.000000000000000000, 0.000000000000000000, 0.000000000000000000 ) ) ;
#26 = DATE_AND_TIME ( #159, #14 ) ;
#27 = CARTESIAN_POINT ( 'NONE',  ( 0.000000000000000000, 0.000000000000000000, 108.0000000000000000 ) ) ;
#28 = EDGE_CURVE ( 'NONE', #41, #32, #52, .T. ) ;
#29 = CALENDAR_DATE ( 2025, 20, 3 ) ;
#30 = AXIS2_PLACEMENT_3D ( 'NONE', #147, #34, #133 ) ;
#31 = EDGE_LOOP ( 'NONE', ( #12, #54, #161, #67 ) ) ;
#32 = VERTEX_POINT ( 'NONE', #35 ) ;
#33 = PRODUCT_DEFINITION_SHAPE ( 'NONE', 'NONE',  #53 ) ;
#34 = DIRECTION ( 'NONE',  ( 0.000000000000000000, 0.000000000000000000, 1.000000000000000000 ) ) ;
#35 = CARTESIAN_POINT ( 'NONE',  ( 0.5000000000000000000, 6.123233995736766036E-17, 0.000000000000000000 ) ) ;
#36 = COORDINATED_UNIVERSAL_TIME_OFFSET ( 1, 0, .AHEAD. ) ;
#37 = ADVANCED_BREP_SHAPE_REPRESENTATION ( '0b14', ( #154, #30 ), #11 ) ;
#38 = ORIENTED_EDGE ( 'NONE', *, *, #28, .F. ) ;
#39 = CARTESIAN_POINT ( 'NONE',  ( 0.000000000000000000, 0.000000000000000000, 108.0000000000000000 ) ) ;
#40 = APPLICATION_CONTEXT ( 'configuration controlled 3d designs of mechanical parts and assemblies' ) ;
#41 = VERTEX_POINT ( 'NONE', #86 ) ;
#42 = EDGE_CURVE ( 'NONE', #97, #32, #72, .T. ) ;
#43 = AXIS2_PLACEMENT_3D ( 'NONE', #27, #116, #119 ) ;
#44 = ADVANCED_FACE ( 'NONE', ( #9 ), #104, .T. ) ;
#45 = ORIENTED_EDGE ( 'NONE', *, *, #42, .F. ) ;
#46 = PRODUCT_DEFINITION_FORMATION_WITH_SPECIFIED_SOURCE ( 'LIBOVOLNÝ', '', #13, .NOT_KNOWN. ) ;
#47 = APPROVAL_DATE_TIME ( #141, #115 ) ;
#48 = EDGE_CURVE ( 'NONE', #32, #41, #126, .T. ) ;
#49 = PERSON_AND_ORGANIZATION ( #100, #124 ) ;
#50 = DIRECTION ( 'NONE',  ( -0.000000000000000000, -0.000000000000000000, -1.000000000000000000 ) ) ;
#51 = CARTESIAN_POINT ( 'NONE',  ( 0.000000000000000000, 0.000000000000000000, 0.000000000000000000 ) ) ;
#52 = CIRCLE ( 'NONE', #167, 0.5000000000000000000 ) ;
#53 = PRODUCT_DEFINITION ( 'NEZNÁMÝ', '', #46, #155 ) ;
#54 = ORIENTED_EDGE ( 'NONE', *, *, #42, .T. ) ;
#55 = CIRCLE ( 'NONE', #43, 0.5000000000000000000 ) ;
#56 = VERTEX_POINT ( 'NONE', #8 ) ;
#57 = APPROVAL_PERSON_ORGANIZATION ( #69, #115, #117 ) ;
#58 = CC_DESIGN_PERSON_AND_ORGANIZATION_ASSIGNMENT ( #152, #163, ( #99 ) ) ;
#59 = PERSON_AND_ORGANIZATION_ROLE ( 'design_supplier' ) ;
#60 = DIRECTION ( 'NONE',  ( 1.000000000000000000, 0.000000000000000000, -0.000000000000000000 ) ) ;
#61 =( NAMED_UNIT ( * ) SI_UNIT ( $, .STERADIAN. ) SOLID_ANGLE_UNIT ( ) );
#62 = DIRECTION ( 'NONE',  ( 1.000000000000000000, 0.000000000000000000, 0.000000000000000000 ) ) ;
#63 = DATE_TIME_ROLE ( 'classification_date' ) ;
#64 = FACE_OUTER_BOUND ( 'NONE', #111, .T. ) ;
#65 = APPLICATION_PROTOCOL_DEFINITION ( 'international standard', 'config_control_design', 1994, #71 ) ;
#66 = PRODUCT_RELATED_PRODUCT_CATEGORY ( 'detail', '', ( #13 ) ) ;
#67 = ORIENTED_EDGE ( 'NONE', *, *, #93, .F. ) ;
#68 = VECTOR ( 'NONE', #164, 1000.000000000000000 ) ;
#69 = PERSON_AND_ORGANIZATION ( #100, #124 ) ;
#70 = PLANE ( 'NONE',  #88 ) ;
#71 = APPLICATION_CONTEXT ( 'configuration controlled 3d designs of mechanical parts and assemblies' ) ;
#72 = LINE ( 'NONE', #146, #18 ) ;
#73 = CARTESIAN_POINT ( 'NONE',  ( 0.000000000000000000, 0.000000000000000000, 0.000000000000000000 ) ) ;
#74 = COORDINATED_UNIVERSAL_TIME_OFFSET ( 1, 0, .AHEAD. ) ;
#75 = SECURITY_CLASSIFICATION_LEVEL ( 'unclassified' ) ;
#76 = APPROVAL ( #106, 'NEURÈENÝ' ) ;
#77 = DIRECTION ( 'NONE',  ( 1.000000000000000000, 0.000000000000000000, 0.000000000000000000 ) ) ;
#78 = LOCAL_TIME ( 0, 2, 28.00000000000000000, #172 ) ;
#79 = DIRECTION ( 'NONE',  ( -1.000000000000000000, 0.000000000000000000, 0.000000000000000000 ) ) ;
#80 = EDGE_CURVE ( 'NONE', #97, #56, #55, .T. ) ;
#81 = AXIS2_PLACEMENT_3D ( 'NONE', #175, #132, #79 ) ;
#82 = EDGE_LOOP ( 'NONE', ( #45, #173, #2, #96 ) ) ;
#83 = ORIENTED_EDGE ( 'NONE', *, *, #80, .T. ) ;
#84 = CC_DESIGN_PERSON_AND_ORGANIZATION_ASSIGNMENT ( #131, #102, ( #13 ) ) ;
#85 = DATE_AND_TIME ( #87, #1 ) ;
#86 = CARTESIAN_POINT ( 'NONE',  ( -0.5000000000000000000, 0.000000000000000000, 0.000000000000000000 ) ) ;
#87 = CALENDAR_DATE ( 2025, 20, 3 ) ;
#88 = AXIS2_PLACEMENT_3D ( 'NONE', #125, #6, #60 ) ;
#89 = CARTESIAN_POINT ( 'NONE',  ( 0.000000000000000000, 0.000000000000000000, 0.000000000000000000 ) ) ;
#90 = PERSON_AND_ORGANIZATION ( #100, #124 ) ;
#91 = CARTESIAN_POINT ( 'NONE',  ( 0.000000000000000000, 0.000000000000000000, 10.00000000000000000 ) ) ;
#92 = DIRECTION ( 'NONE',  ( -1.000000000000000000, 0.000000000000000000, 0.000000000000000000 ) ) ;
#93 = EDGE_CURVE ( 'NONE', #56, #41, #101, .T. ) ;
#94 = CLOSED_SHELL ( 'NONE', ( #44, #4, #15, #148 ) ) ;
#95 = UNCERTAINTY_MEASURE_WITH_UNIT (LENGTH_MEASURE( 1.000000000000000082E-05 ), #19, 'distance_accuracy_value', 'NONE');
#96 = ORIENTED_EDGE ( 'NONE', *, *, #28, .T. ) ;
#97 = VERTEX_POINT ( 'NONE', #107 ) ;
#98 = LOCAL_TIME ( 0, 2, 28.00000000000000000, #74 ) ;
#99 = SECURITY_CLASSIFICATION ( '', '', #75 ) ;
#100 = PERSON ( 'NEURÈENÝ', 'NEURÈENÝ', 'NEURÈENÝ', ('NEURÈENÝ'), ('NEURÈENÝ'), ('NEURÈENÝ') ) ;
#101 = LINE ( 'NONE', #137, #68 ) ;
#102 = PERSON_AND_ORGANIZATION_ROLE ( 'design_owner' ) ;
#103 = CALENDAR_DATE ( 2025, 20, 3 ) ;
#104 = CYLINDRICAL_SURFACE ( 'NONE', #162, 0.5000000000000000000 ) ;
#105 = PERSON_AND_ORGANIZATION_ROLE ( 'creator' ) ;
#106 = APPROVAL_STATUS ( 'not_yet_approved' ) ;
#107 = CARTESIAN_POINT ( 'NONE',  ( 0.5000000000000000000, 6.123233995736766036E-17, 108.0000000000000000 ) ) ;
#108 = PERSON_AND_ORGANIZATION ( #100, #124 ) ;
#109 = EDGE_LOOP ( 'NONE', ( #171, #83 ) ) ;
#110 = CC_DESIGN_PERSON_AND_ORGANIZATION_ASSIGNMENT ( #17, #59, ( #46 ) ) ;
#111 = EDGE_LOOP ( 'NONE', ( #38, #149 ) ) ;
#112 = CC_DESIGN_SECURITY_CLASSIFICATION ( #99, ( #46 ) ) ;
#113 = FACE_OUTER_BOUND ( 'NONE', #109, .T. ) ;
#114 = MECHANICAL_CONTEXT ( 'NONE', #40, 'mechanical' ) ;
#115 = APPROVAL ( #20, 'NEURÈENÝ' ) ;
#116 = DIRECTION ( 'NONE',  ( 0.000000000000000000, 0.000000000000000000, 1.000000000000000000 ) ) ;
#117 = APPROVAL_ROLE ( '' ) ;
#118 = DATE_AND_TIME ( #29, #16 ) ;
#119 = DIRECTION ( 'NONE',  ( 1.000000000000000000, 0.000000000000000000, 0.000000000000000000 ) ) ;
#120 = PERSON_AND_ORGANIZATION_ROLE ( 'creator' ) ;
#121 = CYLINDRICAL_SURFACE ( 'NONE', #81, 0.5000000000000000000 ) ;
#122 = AXIS2_PLACEMENT_3D ( 'NONE', #73, #130, #25 ) ;
#123 = APPROVAL_PERSON_ORGANIZATION ( #108, #76, #170 ) ;
#124 = ORGANIZATION ( 'NEURÈENÝ', 'NEURÈENÝ', '' ) ;
#125 = CARTESIAN_POINT ( 'NONE',  ( 0.000000000000000000, 0.000000000000000000, 108.0000000000000000 ) ) ;
#126 = CIRCLE ( 'NONE', #122, 0.5000000000000000000 ) ;
#127 = APPLICATION_PROTOCOL_DEFINITION ( 'international standard', 'config_control_design', 1994, #40 ) ;
#128 = COORDINATED_UNIVERSAL_TIME_OFFSET ( 1, 0, .AHEAD. ) ;
#129 = EDGE_CURVE ( 'NONE', #56, #97, #160, .T. ) ;
#130 = DIRECTION ( 'NONE',  ( 0.000000000000000000, 0.000000000000000000, 1.000000000000000000 ) ) ;
#131 = PERSON_AND_ORGANIZATION ( #100, #124 ) ;
#132 = DIRECTION ( 'NONE',  ( -0.000000000000000000, -0.000000000000000000, -1.000000000000000000 ) ) ;
#133 = DIRECTION ( 'NONE',  ( 1.000000000000000000, 0.000000000000000000, 0.000000000000000000 ) ) ;
#134 = DIRECTION ( 'NONE',  ( 0.000000000000000000, 0.000000000000000000, 1.000000000000000000 ) ) ;
#135 = CC_DESIGN_PERSON_AND_ORGANIZATION_ASSIGNMENT ( #49, #120, ( #53 ) ) ;
#136 = CC_DESIGN_APPROVAL ( #115, ( #46 ) ) ;
#137 = CARTESIAN_POINT ( 'NONE',  ( -0.5000000000000000000, 0.000000000000000000, 10.00000000000000000 ) ) ;
#138 = CC_DESIGN_DATE_AND_TIME_ASSIGNMENT ( #5, #169, ( #53 ) ) ;
#139 = APPROVAL_PERSON_ORGANIZATION ( #90, #153, #165 ) ;
#140 = CC_DESIGN_DATE_AND_TIME_ASSIGNMENT ( #26, #63, ( #99 ) ) ;
#141 = DATE_AND_TIME ( #103, #78 ) ;
#142 = DIRECTION ( 'NONE',  ( 0.000000000000000000, 0.000000000000000000, 1.000000000000000000 ) ) ;
#143 = AXIS2_PLACEMENT_3D ( 'NONE', #39, #142, #77 ) ;
#144 = CALENDAR_DATE ( 2025, 20, 3 ) ;
#145 = APPROVAL_DATE_TIME ( #118, #76 ) ;
#146 = CARTESIAN_POINT ( 'NONE',  ( 0.5000000000000000000, 6.123233995736766036E-17, 10.00000000000000000 ) ) ;
#147 = CARTESIAN_POINT ( 'NONE',  ( 0.000000000000000000, 0.000000000000000000, 0.000000000000000000 ) ) ;
#148 = ADVANCED_FACE ( 'NONE', ( #113 ), #70, .T. ) ;
#149 = ORIENTED_EDGE ( 'NONE', *, *, #48, .F. ) ;
#150 =( NAMED_UNIT ( * ) PLANE_ANGLE_UNIT ( ) SI_UNIT ( $, .RADIAN. ) );
#151 = FACE_OUTER_BOUND ( 'NONE', #82, .T. ) ;
#152 = PERSON_AND_ORGANIZATION ( #100, #124 ) ;
#153 = APPROVAL ( #158, 'NEURÈENÝ' ) ;
#154 = MANIFOLD_SOLID_BREP ( 'Pøidat vysunutím3', #94 ) ;
#155 = DESIGN_CONTEXT ( 'detailed design', #71, 'design' ) ;
#156 = AXIS2_PLACEMENT_3D ( 'NONE', #89, #7, #157 ) ;
#157 = DIRECTION ( 'NONE',  ( 1.000000000000000000, 0.000000000000000000, -0.000000000000000000 ) ) ;
#158 = APPROVAL_STATUS ( 'not_yet_approved' ) ;
#159 = CALENDAR_DATE ( 2025, 20, 3 ) ;
#160 = CIRCLE ( 'NONE', #143, 0.5000000000000000000 ) ;
#161 = ORIENTED_EDGE ( 'NONE', *, *, #48, .T. ) ;
#162 = AXIS2_PLACEMENT_3D ( 'NONE', #91, #22, #92 ) ;
#163 = PERSON_AND_ORGANIZATION_ROLE ( 'classification_officer' ) ;
#164 = DIRECTION ( 'NONE',  ( -0.000000000000000000, -0.000000000000000000, -1.000000000000000000 ) ) ;
#165 = APPROVAL_ROLE ( '' ) ;
#166 = PLANE ( 'NONE',  #156 ) ;
#167 = AXIS2_PLACEMENT_3D ( 'NONE', #51, #134, #62 ) ;
#168 = CC_DESIGN_APPROVAL ( #76, ( #99 ) ) ;
#169 = DATE_TIME_ROLE ( 'creation_date' ) ;
#170 = APPROVAL_ROLE ( '' ) ;
#171 = ORIENTED_EDGE ( 'NONE', *, *, #129, .T. ) ;
#172 = COORDINATED_UNIVERSAL_TIME_OFFSET ( 1, 0, .AHEAD. ) ;
#173 = ORIENTED_EDGE ( 'NONE', *, *, #129, .F. ) ;
#174 = PERSON_AND_ORGANIZATION ( #100, #124 ) ;
#175 = CARTESIAN_POINT ( 'NONE',  ( 0.000000000000000000, 0.000000000000000000, 10.00000000000000000 ) ) ;
ENDSEC;
END-ISO-10303-21;
