ISO-10303-21;
HEADER;
FILE_DESCRIPTION (( 'STEP AP203' ),
    '1' );
FILE_NAME ('a677.STEP',
    '2022-06-20T09:59:31',
    ( '' ),
    ( '' ),
    'SwSTEP 2.0',
    'SolidWorks 2019',
    '' );
FILE_SCHEMA (( 'CONFIG_CONTROL_DESIGN' ));
ENDSEC;

DATA;
#1 = MECHANICAL_CONTEXT ( 'NONE', #271, 'mechanical' ) ;
#2 = DIRECTION ( 'NONE',  ( 0.000000000000000000, 0.000000000000000000, 1.000000000000000000 ) ) ;
#3 = AXIS2_PLACEMENT_3D ( 'NONE', #159, #306, #41 ) ;
#4 = ADVANCED_FACE ( 'NONE', ( #305 ), #86, .T. ) ;
#5 = LOCAL_TIME ( 11, 59, 31.00000000000000000, #239 ) ;
#6 = DATE_TIME_ROLE ( 'creation_date' ) ;
#7 = DIRECTION ( 'NONE',  ( 0.000000000000000000, 0.000000000000000000, 1.000000000000000000 ) ) ;
#8 = CALENDAR_DATE ( 2022, 20, 6 ) ;
#9 = APPROVAL_DATE_TIME ( #74, #304 ) ;
#10 = DATE_AND_TIME ( #192, #26 ) ;
#11 = EDGE_CURVE ( 'NONE', #177, #81, #95, .T. ) ;
#12 = AXIS2_PLACEMENT_3D ( 'NONE', #141, #2, #88 ) ;
#13 = CARTESIAN_POINT ( 'NONE',  ( 5.000000000000000000, 6.123233995736766282E-16, 3.000000000000000000 ) ) ;
#14 = DIRECTION ( 'NONE',  ( 0.000000000000000000, 0.000000000000000000, 1.000000000000000000 ) ) ;
#15 = ORIENTED_EDGE ( 'NONE', *, *, #147, .T. ) ;
#16 = MANIFOLD_SOLID_BREP ( 'Zaoblit1', #194 ) ;
#17 = ORIENTED_EDGE ( 'NONE', *, *, #11, .F. ) ;
#18 = AXIS2_PLACEMENT_3D ( 'NONE', #274, #252, #46 ) ;
#19 = CC_DESIGN_DATE_AND_TIME_ASSIGNMENT ( #287, #193, ( #191 ) ) ;
#20 = DIRECTION ( 'NONE',  ( 1.224646799147353207E-16, 1.000000000000000000, -0.000000000000000000 ) ) ;
#21 = VERTEX_POINT ( 'NONE', #142 ) ;
#22 = CIRCLE ( 'NONE', #136, 0.2000000000000000944 ) ;
#23 = EDGE_LOOP ( 'NONE', ( #270, #114, #63, #223 ) ) ;
#24 = VERTEX_POINT ( 'NONE', #164 ) ;
#25 = CARTESIAN_POINT ( 'NONE',  ( 0.000000000000000000, 0.000000000000000000, 0.000000000000000000 ) ) ;
#26 = LOCAL_TIME ( 11, 59, 31.00000000000000000, #211 ) ;
#27 = DIRECTION ( 'NONE',  ( 1.000000000000000000, 0.000000000000000000, -0.000000000000000000 ) ) ;
#28 = CARTESIAN_POINT ( 'NONE',  ( -2.750000000000000000, 0.000000000000000000, 253.0000000000000000 ) ) ;
#29 = DIRECTION ( 'NONE',  ( -0.000000000000000000, -0.000000000000000000, -1.000000000000000000 ) ) ;
#30 = PERSON_AND_ORGANIZATION ( #286, #295 ) ;
#31 = CIRCLE ( 'NONE', #149, 2.750000000000000000 ) ;
#32 = DIRECTION ( 'NONE',  ( -0.000000000000000000, -0.000000000000000000, -1.000000000000000000 ) ) ;
#33 = DATE_AND_TIME ( #263, #130 ) ;
#34 = DIRECTION ( 'NONE',  ( 0.000000000000000000, 0.000000000000000000, -1.000000000000000000 ) ) ;
#35 = CC_DESIGN_PERSON_AND_ORGANIZATION_ASSIGNMENT ( #243, #195, ( #235 ) ) ;
#36 = APPROVAL_STATUS ( 'not_yet_approved' ) ;
#37 = EDGE_CURVE ( 'NONE', #21, #250, #110, .T. ) ;
#38 = AXIS2_PLACEMENT_3D ( 'NONE', #198, #14, #109 ) ;
#39 = PERSON_AND_ORGANIZATION_ROLE ( 'classification_officer' ) ;
#40 = AXIS2_PLACEMENT_3D ( 'NONE', #25, #258, #27 ) ;
#41 = DIRECTION ( 'NONE',  ( -1.000000000000000000, 0.000000000000000000, 0.000000000000000000 ) ) ;
#42 = ORIENTED_EDGE ( 'NONE', *, *, #212, .F. ) ;
#43 = DIRECTION ( 'NONE',  ( 1.000000000000000000, 0.000000000000000000, 0.000000000000000000 ) ) ;
#44 = CARTESIAN_POINT ( 'NONE',  ( -2.750000000000000000, 0.000000000000000000, 3.200000000000008171 ) ) ;
#45 = FACE_OUTER_BOUND ( 'NONE', #179, .T. ) ;
#46 = DIRECTION ( 'NONE',  ( -1.000000000000000000, 0.000000000000000000, 0.000000000000000000 ) ) ;
#47 = EDGE_CURVE ( 'NONE', #250, #21, #70, .T. ) ;
#48 = LINE ( 'NONE', #28, #51 ) ;
#49 = CARTESIAN_POINT ( 'NONE',  ( 5.000000000000000000, 6.123233995736766282E-16, 0.000000000000000000 ) ) ;
#50 = APPROVAL ( #52, 'NEURÈENÝ' ) ;
#51 = VECTOR ( 'NONE', #209, 1000.000000000000000 ) ;
#52 = APPROVAL_STATUS ( 'not_yet_approved' ) ;
#53 = DIRECTION ( 'NONE',  ( -0.000000000000000000, -0.000000000000000000, -1.000000000000000000 ) ) ;
#54 = SECURITY_CLASSIFICATION_LEVEL ( 'unclassified' ) ;
#55 = PRODUCT_DEFINITION_SHAPE ( 'NONE', 'NONE',  #235 ) ;
#56 = DIRECTION ( 'NONE',  ( 0.000000000000000000, 0.000000000000000000, 1.000000000000000000 ) ) ;
#57 = ORIENTED_EDGE ( 'NONE', *, *, #232, .T. ) ;
#58 = ADVANCED_FACE ( 'NONE', ( #231 ), #167, .F. ) ;
#59 = EDGE_LOOP ( 'NONE', ( #298, #302, #255, #225 ) ) ;
#60 = CARTESIAN_POINT ( 'NONE',  ( 0.000000000000000000, 0.000000000000000000, 253.0000000000000000 ) ) ;
#61 = ORIENTED_EDGE ( 'NONE', *, *, #76, .F. ) ;
#62 = DIRECTION ( 'NONE',  ( 1.000000000000000000, 0.000000000000000000, -0.000000000000000000 ) ) ;
#63 = ORIENTED_EDGE ( 'NONE', *, *, #96, .T. ) ;
#64 = EDGE_CURVE ( 'NONE', #177, #221, #279, .T. ) ;
#65 = CARTESIAN_POINT ( 'NONE',  ( 0.000000000000000000, 0.000000000000000000, 253.0000000000000000 ) ) ;
#66 = ORIENTED_EDGE ( 'NONE', *, *, #117, .F. ) ;
#67 = CIRCLE ( 'NONE', #204, 2.750000000000000000 ) ;
#68 =( LENGTH_UNIT ( ) NAMED_UNIT ( * ) SI_UNIT ( .MILLI., .METRE. ) );
#69 = DIRECTION ( 'NONE',  ( 1.000000000000000000, 0.000000000000000000, 0.000000000000000000 ) ) ;
#70 = CIRCLE ( 'NONE', #105, 2.949999999999999734 ) ;
#71 = DIRECTION ( 'NONE',  ( 1.000000000000000000, 0.000000000000000000, 0.000000000000000000 ) ) ;
#72 = CC_DESIGN_PERSON_AND_ORGANIZATION_ASSIGNMENT ( #188, #77, ( #253 ) ) ;
#73 =( GEOMETRIC_REPRESENTATION_CONTEXT ( 3 ) GLOBAL_UNCERTAINTY_ASSIGNED_CONTEXT ( ( #217 ) ) GLOBAL_UNIT_ASSIGNED_CONTEXT ( ( #68, #233, #183 ) ) REPRESENTATION_CONTEXT ( 'NONE', 'WORKASPACE' ) );
#74 = DATE_AND_TIME ( #291, #103 ) ;
#75 = DIRECTION ( 'NONE',  ( -0.000000000000000000, -0.000000000000000000, -1.000000000000000000 ) ) ;
#76 = EDGE_CURVE ( 'NONE', #85, #269, #82, .T. ) ;
#77 = PERSON_AND_ORGANIZATION_ROLE ( 'creator' ) ;
#78 = CC_DESIGN_PERSON_AND_ORGANIZATION_ASSIGNMENT ( #30, #126, ( #200 ) ) ;
#79 = APPROVAL_PERSON_ORGANIZATION ( #168, #108, #100 ) ;
#80 = AXIS2_PLACEMENT_3D ( 'NONE', #290, #261, #34 ) ;
#81 = VERTEX_POINT ( 'NONE', #49 ) ;
#82 = CIRCLE ( 'NONE', #185, 2.750000000000000000 ) ;
#83 = CC_DESIGN_SECURITY_CLASSIFICATION ( #191, ( #253 ) ) ;
#84 = CARTESIAN_POINT ( 'NONE',  ( -2.949999999999999734, 3.612708057484692097E-16, 3.200000000000008171 ) ) ;
#85 = VERTEX_POINT ( 'NONE', #229 ) ;
#86 = CYLINDRICAL_SURFACE ( 'NONE', #18, 2.750000000000000000 ) ;
#87 = ORIENTED_EDGE ( 'NONE', *, *, #64, .T. ) ;
#88 = DIRECTION ( 'NONE',  ( 1.000000000000000000, 0.000000000000000000, 0.000000000000000000 ) ) ;
#89 = CARTESIAN_POINT ( 'NONE',  ( 0.000000000000000000, 0.000000000000000000, 3.000000000000000000 ) ) ;
#90 = EDGE_CURVE ( 'NONE', #221, #112, #237, .T. ) ;
#91 = ADVANCED_FACE ( 'NONE', ( #207 ), #288, .F. ) ;
#92 = CARTESIAN_POINT ( 'NONE',  ( -5.000000000000000000, 0.000000000000000000, 0.000000000000000000 ) ) ;
#93 = EDGE_LOOP ( 'NONE', ( #17, #300, #132, #162 ) ) ;
#94 = APPLICATION_PROTOCOL_DEFINITION ( 'international standard', 'config_control_design', 1994, #271 ) ;
#95 = LINE ( 'NONE', #186, #203 ) ;
#96 = EDGE_CURVE ( 'NONE', #24, #269, #48, .T. ) ;
#97 = DESIGN_CONTEXT ( 'detailed design', #165, 'design' ) ;
#98 = PERSON_AND_ORGANIZATION ( #286, #295 ) ;
#99 = CARTESIAN_POINT ( 'NONE',  ( 2.750000000000000000, 3.367778697655221012E-16, 253.0000000000000000 ) ) ;
#100 = APPROVAL_ROLE ( '' ) ;
#101 = CARTESIAN_POINT ( 'NONE',  ( 0.000000000000000000, 0.000000000000000000, 3.200000000000008171 ) ) ;
#102 = AXIS2_PLACEMENT_3D ( 'NONE', #137, #153, #62 ) ;
#103 = LOCAL_TIME ( 11, 59, 31.00000000000000000, #119 ) ;
#104 = VECTOR ( 'NONE', #265, 1000.000000000000000 ) ;
#105 = AXIS2_PLACEMENT_3D ( 'NONE', #139, #75, #69 ) ;
#106 = APPROVAL_ROLE ( '' ) ;
#107 = LOCAL_TIME ( 11, 59, 31.00000000000000000, #148 ) ;
#108 = APPROVAL ( #36, 'NEURÈENÝ' ) ;
#109 = DIRECTION ( 'NONE',  ( 1.000000000000000000, 0.000000000000000000, 0.000000000000000000 ) ) ;
#110 = CIRCLE ( 'NONE', #259, 2.949999999999999734 ) ;
#111 = FACE_OUTER_BOUND ( 'NONE', #154, .T. ) ;
#112 = VERTEX_POINT ( 'NONE', #92 ) ;
#113 = DIRECTION ( 'NONE',  ( 0.000000000000000000, 0.000000000000000000, 1.000000000000000000 ) ) ;
#114 = ORIENTED_EDGE ( 'NONE', *, *, #232, .F. ) ;
#115 = CARTESIAN_POINT ( 'NONE',  ( -5.000000000000000000, 0.000000000000000000, 3.000000000000000000 ) ) ;
#116 = DIRECTION ( 'NONE',  ( 1.000000000000000000, 0.000000000000000000, 0.000000000000000000 ) ) ;
#117 = EDGE_CURVE ( 'NONE', #112, #81, #189, .T. ) ;
#118 = CC_DESIGN_APPROVAL ( #50, ( #235 ) ) ;
#119 = COORDINATED_UNIVERSAL_TIME_OFFSET ( 1, 0, .AHEAD. ) ;
#120 = CARTESIAN_POINT ( 'NONE',  ( 2.750000000000000000, 3.367778697655221012E-16, 253.0000000000000000 ) ) ;
#121 = DATE_AND_TIME ( #166, #107 ) ;
#122 = PERSON_AND_ORGANIZATION_ROLE ( 'design_supplier' ) ;
#123 = CARTESIAN_POINT ( 'NONE',  ( 0.000000000000000000, 0.000000000000000000, 0.000000000000000000 ) ) ;
#124 = ADVANCED_FACE ( 'NONE', ( #293 ), #267, .T. ) ;
#125 = AXIS2_PLACEMENT_3D ( 'NONE', #133, #222, #175 ) ;
#126 = PERSON_AND_ORGANIZATION_ROLE ( 'design_owner' ) ;
#127 = CIRCLE ( 'NONE', #297, 2.750000000000000000 ) ;
#128 = COORDINATED_UNIVERSAL_TIME_OFFSET ( 1, 0, .AHEAD. ) ;
#129 = CC_DESIGN_DATE_AND_TIME_ASSIGNMENT ( #10, #6, ( #235 ) ) ;
#130 = LOCAL_TIME ( 11, 59, 31.00000000000000000, #128 ) ;
#131 = AXIS2_PLACEMENT_3D ( 'NONE', #246, #113, #43 ) ;
#132 = ORIENTED_EDGE ( 'NONE', *, *, #90, .T. ) ;
#133 = CARTESIAN_POINT ( 'NONE',  ( 0.000000000000000000, 0.000000000000000000, 3.000000000000000000 ) ) ;
#134 = ORIENTED_EDGE ( 'NONE', *, *, #76, .T. ) ;
#135 = CARTESIAN_POINT ( 'NONE',  ( 0.000000000000000000, 0.000000000000000000, 3.000000000000000000 ) ) ;
#136 = AXIS2_PLACEMENT_3D ( 'NONE', #84, #20, #244 ) ;
#137 = CARTESIAN_POINT ( 'NONE',  ( 0.000000000000000000, 0.000000000000000000, 253.0000000000000000 ) ) ;
#138 = EDGE_LOOP ( 'NONE', ( #57, #174 ) ) ;
#139 = CARTESIAN_POINT ( 'NONE',  ( 0.000000000000000000, 0.000000000000000000, 3.000000000000000000 ) ) ;
#140 = AXIS2_PLACEMENT_3D ( 'NONE', #150, #219, #196 ) ;
#141 = CARTESIAN_POINT ( 'NONE',  ( 0.000000000000000000, 0.000000000000000000, 3.200000000000008171 ) ) ;
#142 = CARTESIAN_POINT ( 'NONE',  ( 2.949999999999999734, 0.000000000000000000, 3.000000000000004441 ) ) ;
#143 = APPROVAL_DATE_TIME ( #121, #50 ) ;
#144 = DIRECTION ( 'NONE',  ( 1.000000000000000000, 0.000000000000000000, 0.000000000000000000 ) ) ;
#145 = APPROVAL_DATE_TIME ( #33, #108 ) ;
#146 = DIRECTION ( 'NONE',  ( 1.000000000000000000, 0.000000000000000000, 0.000000000000000000 ) ) ;
#147 = EDGE_CURVE ( 'NONE', #199, #85, #241, .T. ) ;
#148 = COORDINATED_UNIVERSAL_TIME_OFFSET ( 1, 0, .AHEAD. ) ;
#149 = AXIS2_PLACEMENT_3D ( 'NONE', #60, #56, #251 ) ;
#150 = CARTESIAN_POINT ( 'NONE',  ( 0.000000000000000000, 0.000000000000000000, 3.000000000000000000 ) ) ;
#151 = EDGE_CURVE ( 'NONE', #221, #177, #272, .T. ) ;
#152 = CARTESIAN_POINT ( 'NONE',  ( 0.000000000000000000, 0.000000000000000000, 3.000000000000000000 ) ) ;
#153 = DIRECTION ( 'NONE',  ( 0.000000000000000000, 0.000000000000000000, 1.000000000000000000 ) ) ;
#154 = EDGE_LOOP ( 'NONE', ( #307, #15, #134, #247 ) ) ;
#155 = DIRECTION ( 'NONE',  ( -1.000000000000000000, 0.000000000000000000, 0.000000000000000000 ) ) ;
#156 = ORIENTED_EDGE ( 'NONE', *, *, #212, .T. ) ;
#157 = CYLINDRICAL_SURFACE ( 'NONE', #3, 2.750000000000000000 ) ;
#158 = ORIENTED_EDGE ( 'NONE', *, *, #37, .F. ) ;
#159 = CARTESIAN_POINT ( 'NONE',  ( 0.000000000000000000, 0.000000000000000000, 253.0000000000000000 ) ) ;
#160 = ORIENTED_EDGE ( 'NONE', *, *, #281, .F. ) ;
#161 = APPROVAL_PERSON_ORGANIZATION ( #98, #50, #106 ) ;
#162 = ORIENTED_EDGE ( 'NONE', *, *, #117, .T. ) ;
#163 = CC_DESIGN_PERSON_AND_ORGANIZATION_ASSIGNMENT ( #169, #39, ( #191 ) ) ;
#164 = CARTESIAN_POINT ( 'NONE',  ( -2.750000000000000000, 0.000000000000000000, 253.0000000000000000 ) ) ;
#165 = APPLICATION_CONTEXT ( 'configuration controlled 3d designs of mechanical parts and assemblies' ) ;
#166 = CALENDAR_DATE ( 2022, 20, 6 ) ;
#167 = PLANE ( 'NONE',  #40 ) ;
#168 = PERSON_AND_ORGANIZATION ( #286, #295 ) ;
#169 = PERSON_AND_ORGANIZATION ( #286, #295 ) ;
#170 = DIRECTION ( 'NONE',  ( -1.000000000000000000, 0.000000000000000000, 0.000000000000000000 ) ) ;
#171 = AXIS2_PLACEMENT_3D ( 'NONE', #187, #280, #71 ) ;
#172 = ORIENTED_EDGE ( 'NONE', *, *, #294, .F. ) ;
#173 = PLANE ( 'NONE',  #125 ) ;
#174 = ORIENTED_EDGE ( 'NONE', *, *, #285, .T. ) ;
#175 = DIRECTION ( 'NONE',  ( 1.000000000000000000, 0.000000000000000000, -0.000000000000000000 ) ) ;
#176 = AXIS2_PLACEMENT_3D ( 'NONE', #135, #276, #155 ) ;
#177 = VERTEX_POINT ( 'NONE', #13 ) ;
#178 = PLANE ( 'NONE',  #102 ) ;
#179 = EDGE_LOOP ( 'NONE', ( #202, #205, #158, #42 ) ) ;
#180 = CYLINDRICAL_SURFACE ( 'NONE', #176, 5.000000000000000000 ) ;
#181 = ORIENTED_EDGE ( 'NONE', *, *, #151, .T. ) ;
#182 = EDGE_CURVE ( 'NONE', #269, #85, #127, .T. ) ;
#183 =( NAMED_UNIT ( * ) SI_UNIT ( $, .STERADIAN. ) SOLID_ANGLE_UNIT ( ) );
#184 = DIRECTION ( 'NONE',  ( -0.000000000000000000, -0.000000000000000000, -1.000000000000000000 ) ) ;
#185 = AXIS2_PLACEMENT_3D ( 'NONE', #257, #282, #144 ) ;
#186 = CARTESIAN_POINT ( 'NONE',  ( 5.000000000000000000, 6.123233995736766282E-16, 3.000000000000000000 ) ) ;
#187 = CARTESIAN_POINT ( 'NONE',  ( 0.000000000000000000, 0.000000000000000000, 0.000000000000000000 ) ) ;
#188 = PERSON_AND_ORGANIZATION ( #286, #295 ) ;
#189 = CIRCLE ( 'NONE', #214, 5.000000000000000000 ) ;
#190 = PRODUCT_RELATED_PRODUCT_CATEGORY ( 'detail', '', ( #200 ) ) ;
#191 = SECURITY_CLASSIFICATION ( '', '', #54 ) ;
#192 = CALENDAR_DATE ( 2022, 20, 6 ) ;
#193 = DATE_TIME_ROLE ( 'classification_date' ) ;
#194 = CLOSED_SHELL ( 'NONE', ( #264, #266, #124, #278, #296, #58, #4, #230, #91 ) ) ;
#195 = PERSON_AND_ORGANIZATION_ROLE ( 'creator' ) ;
#196 = DIRECTION ( 'NONE',  ( 1.000000000000000000, 0.000000000000000000, 0.000000000000000000 ) ) ;
#197 = CC_DESIGN_APPROVAL ( #304, ( #253 ) ) ;
#198 = CARTESIAN_POINT ( 'NONE',  ( 0.000000000000000000, 0.000000000000000000, 0.000000000000000000 ) ) ;
#199 = VERTEX_POINT ( 'NONE', #99 ) ;
#200 = PRODUCT ( 'a677', 'a677', '', ( #1 ) ) ;
#201 = DIRECTION ( 'NONE',  ( 1.000000000000000000, 0.000000000000000000, 0.000000000000000000 ) ) ;
#202 = ORIENTED_EDGE ( 'NONE', *, *, #182, .F. ) ;
#203 = VECTOR ( 'NONE', #29, 1000.000000000000000 ) ;
#204 = AXIS2_PLACEMENT_3D ( 'NONE', #65, #224, #201 ) ;
#205 = ORIENTED_EDGE ( 'NONE', *, *, #294, .T. ) ;
#206 = EDGE_LOOP ( 'NONE', ( #172, #61, #156, #277 ) ) ;
#207 = FACE_OUTER_BOUND ( 'NONE', #206, .T. ) ;
#208 = CARTESIAN_POINT ( 'NONE',  ( 0.000000000000000000, 0.000000000000000000, 3.000000000000000000 ) ) ;
#209 = DIRECTION ( 'NONE',  ( -0.000000000000000000, -0.000000000000000000, -1.000000000000000000 ) ) ;
#210 = CC_DESIGN_APPROVAL ( #108, ( #191 ) ) ;
#211 = COORDINATED_UNIVERSAL_TIME_OFFSET ( 1, 0, .AHEAD. ) ;
#212 = EDGE_CURVE ( 'NONE', #85, #21, #262, .T. ) ;
#213 = CARTESIAN_POINT ( 'NONE',  ( -5.000000000000000000, 0.000000000000000000, 3.000000000000000000 ) ) ;
#214 = AXIS2_PLACEMENT_3D ( 'NONE', #123, #292, #146 ) ;
#215 = SHAPE_DEFINITION_REPRESENTATION ( #55, #268 ) ;
#216 = APPROVAL_STATUS ( 'not_yet_approved' ) ;
#217 = UNCERTAINTY_MEASURE_WITH_UNIT (LENGTH_MEASURE( 1.000000000000000082E-05 ), #68, 'distance_accuracy_value', 'NONE');
#218 = PERSON_AND_ORGANIZATION ( #286, #295 ) ;
#219 = DIRECTION ( 'NONE',  ( 0.000000000000000000, 0.000000000000000000, 1.000000000000000000 ) ) ;
#220 = FACE_BOUND ( 'NONE', #283, .T. ) ;
#221 = VERTEX_POINT ( 'NONE', #213 ) ;
#222 = DIRECTION ( 'NONE',  ( 0.000000000000000000, 0.000000000000000000, 1.000000000000000000 ) ) ;
#223 = ORIENTED_EDGE ( 'NONE', *, *, #182, .T. ) ;
#224 = DIRECTION ( 'NONE',  ( 0.000000000000000000, 0.000000000000000000, 1.000000000000000000 ) ) ;
#225 = ORIENTED_EDGE ( 'NONE', *, *, #90, .F. ) ;
#226 = CARTESIAN_POINT ( 'NONE',  ( -2.949999999999999734, 3.612708057484692097E-16, 3.000000000000004441 ) ) ;
#227 = ORIENTED_EDGE ( 'NONE', *, *, #47, .T. ) ;
#228 = AXIS2_PLACEMENT_3D ( 'NONE', #152, #32, #170 ) ;
#229 = CARTESIAN_POINT ( 'NONE',  ( 2.750000000000000000, 3.367778697655221012E-16, 3.200000000000008171 ) ) ;
#230 = ADVANCED_FACE ( 'NONE', ( #248 ), #178, .T. ) ;
#231 = FACE_OUTER_BOUND ( 'NONE', #273, .T. ) ;
#232 = EDGE_CURVE ( 'NONE', #24, #199, #31, .T. ) ;
#233 =( NAMED_UNIT ( * ) PLANE_ANGLE_UNIT ( ) SI_UNIT ( $, .RADIAN. ) );
#234 = EDGE_LOOP ( 'NONE', ( #181, #87 ) ) ;
#235 = PRODUCT_DEFINITION ( 'NEZNÁMÝ', '', #253, #97 ) ;
#236 = APPROVAL_ROLE ( '' ) ;
#237 = LINE ( 'NONE', #115, #245 ) ;
#238 = DIRECTION ( 'NONE',  ( 1.000000000000000000, 0.000000000000000000, 0.000000000000000000 ) ) ;
#239 = COORDINATED_UNIVERSAL_TIME_OFFSET ( 1, 0, .AHEAD. ) ;
#240 = PERSON_AND_ORGANIZATION ( #286, #295 ) ;
#241 = LINE ( 'NONE', #120, #104 ) ;
#242 = CC_DESIGN_PERSON_AND_ORGANIZATION_ASSIGNMENT ( #240, #122, ( #253 ) ) ;
#243 = PERSON_AND_ORGANIZATION ( #286, #295 ) ;
#244 = DIRECTION ( 'NONE',  ( -1.000000000000000000, 1.224646799147353207E-16, 0.000000000000000000 ) ) ;
#245 = VECTOR ( 'NONE', #184, 1000.000000000000000 ) ;
#246 = CARTESIAN_POINT ( 'NONE',  ( 0.000000000000000000, 0.000000000000000000, 3.200000000000008171 ) ) ;
#247 = ORIENTED_EDGE ( 'NONE', *, *, #96, .F. ) ;
#248 = FACE_OUTER_BOUND ( 'NONE', #138, .T. ) ;
#249 = ORIENTED_EDGE ( 'NONE', *, *, #37, .T. ) ;
#250 = VERTEX_POINT ( 'NONE', #226 ) ;
#251 = DIRECTION ( 'NONE',  ( 1.000000000000000000, 0.000000000000000000, 0.000000000000000000 ) ) ;
#252 = DIRECTION ( 'NONE',  ( -0.000000000000000000, -0.000000000000000000, -1.000000000000000000 ) ) ;
#253 = PRODUCT_DEFINITION_FORMATION_WITH_SPECIFIED_SOURCE ( 'LIBOVOLNÝ', '', #200, .NOT_KNOWN. ) ;
#254 = TOROIDAL_SURFACE ( 'NONE', #131, 2.949999999999999734, 0.2000000000000000111 ) ;
#255 = ORIENTED_EDGE ( 'NONE', *, *, #281, .T. ) ;
#256 = APPROVAL_PERSON_ORGANIZATION ( #218, #304, #236 ) ;
#257 = CARTESIAN_POINT ( 'NONE',  ( 0.000000000000000000, 0.000000000000000000, 3.200000000000008171 ) ) ;
#258 = DIRECTION ( 'NONE',  ( 0.000000000000000000, 0.000000000000000000, 1.000000000000000000 ) ) ;
#259 = AXIS2_PLACEMENT_3D ( 'NONE', #89, #53, #284 ) ;
#260 = DIRECTION ( 'NONE',  ( 0.000000000000000000, 0.000000000000000000, 1.000000000000000000 ) ) ;
#261 = DIRECTION ( 'NONE',  ( 0.000000000000000000, -1.000000000000000000, 0.000000000000000000 ) ) ;
#262 = CIRCLE ( 'NONE', #80, 0.2000000000000000944 ) ;
#263 = CALENDAR_DATE ( 2022, 20, 6 ) ;
#264 = ADVANCED_FACE ( 'NONE', ( #45 ), #254, .F. ) ;
#265 = DIRECTION ( 'NONE',  ( -0.000000000000000000, -0.000000000000000000, -1.000000000000000000 ) ) ;
#266 = ADVANCED_FACE ( 'NONE', ( #111 ), #157, .T. ) ;
#267 = CYLINDRICAL_SURFACE ( 'NONE', #228, 5.000000000000000000 ) ;
#268 = ADVANCED_BREP_SHAPE_REPRESENTATION ( 'a677', ( #16, #171 ), #73 ) ;
#269 = VERTEX_POINT ( 'NONE', #44 ) ;
#270 = ORIENTED_EDGE ( 'NONE', *, *, #147, .F. ) ;
#271 = APPLICATION_CONTEXT ( 'configuration controlled 3d designs of mechanical parts and assemblies' ) ;
#272 = CIRCLE ( 'NONE', #140, 5.000000000000000000 ) ;
#273 = EDGE_LOOP ( 'NONE', ( #66, #160 ) ) ;
#274 = CARTESIAN_POINT ( 'NONE',  ( 0.000000000000000000, 0.000000000000000000, 253.0000000000000000 ) ) ;
#275 = AXIS2_PLACEMENT_3D ( 'NONE', #208, #260, #116 ) ;
#276 = DIRECTION ( 'NONE',  ( -0.000000000000000000, -0.000000000000000000, -1.000000000000000000 ) ) ;
#277 = ORIENTED_EDGE ( 'NONE', *, *, #47, .F. ) ;
#278 = ADVANCED_FACE ( 'NONE', ( #301 ), #180, .T. ) ;
#279 = CIRCLE ( 'NONE', #275, 5.000000000000000000 ) ;
#280 = DIRECTION ( 'NONE',  ( 0.000000000000000000, 0.000000000000000000, 1.000000000000000000 ) ) ;
#281 = EDGE_CURVE ( 'NONE', #81, #112, #303, .T. ) ;
#282 = DIRECTION ( 'NONE',  ( 0.000000000000000000, 0.000000000000000000, 1.000000000000000000 ) ) ;
#283 = EDGE_LOOP ( 'NONE', ( #249, #227 ) ) ;
#284 = DIRECTION ( 'NONE',  ( 1.000000000000000000, 0.000000000000000000, 0.000000000000000000 ) ) ;
#285 = EDGE_CURVE ( 'NONE', #199, #24, #67, .T. ) ;
#286 = PERSON ( 'NEURÈENÝ', 'NEURÈENÝ', 'NEURÈENÝ', ('NEURÈENÝ'), ('NEURÈENÝ'), ('NEURÈENÝ') ) ;
#287 = DATE_AND_TIME ( #8, #5 ) ;
#288 = TOROIDAL_SURFACE ( 'NONE', #12, 2.949999999999999734, 0.2000000000000000111 ) ;
#289 = APPLICATION_PROTOCOL_DEFINITION ( 'international standard', 'config_control_design', 1994, #165 ) ;
#290 = CARTESIAN_POINT ( 'NONE',  ( 2.949999999999999734, 0.000000000000000000, 3.200000000000008171 ) ) ;
#291 = CALENDAR_DATE ( 2022, 20, 6 ) ;
#292 = DIRECTION ( 'NONE',  ( 0.000000000000000000, 0.000000000000000000, 1.000000000000000000 ) ) ;
#293 = FACE_OUTER_BOUND ( 'NONE', #59, .T. ) ;
#294 = EDGE_CURVE ( 'NONE', #269, #250, #22, .T. ) ;
#295 = ORGANIZATION ( 'NEURÈENÝ', 'NEURÈENÝ', '' ) ;
#296 = ADVANCED_FACE ( 'NONE', ( #220, #299 ), #173, .T. ) ;
#297 = AXIS2_PLACEMENT_3D ( 'NONE', #101, #7, #238 ) ;
#298 = ORIENTED_EDGE ( 'NONE', *, *, #64, .F. ) ;
#299 = FACE_OUTER_BOUND ( 'NONE', #234, .T. ) ;
#300 = ORIENTED_EDGE ( 'NONE', *, *, #151, .F. ) ;
#301 = FACE_OUTER_BOUND ( 'NONE', #93, .T. ) ;
#302 = ORIENTED_EDGE ( 'NONE', *, *, #11, .T. ) ;
#303 = CIRCLE ( 'NONE', #38, 5.000000000000000000 ) ;
#304 = APPROVAL ( #216, 'NEURÈENÝ' ) ;
#305 = FACE_OUTER_BOUND ( 'NONE', #23, .T. ) ;
#306 = DIRECTION ( 'NONE',  ( -0.000000000000000000, -0.000000000000000000, -1.000000000000000000 ) ) ;
#307 = ORIENTED_EDGE ( 'NONE', *, *, #285, .F. ) ;
ENDSEC;
END-ISO-10303-21;
