ISO-10303-21;
HEADER;
FILE_DESCRIPTION (( 'STEP AP203' ),
    '1' );
FILE_NAME ('74de.STEP',
    '2022-06-20T09:15:54',
    ( '' ),
    ( '' ),
    'SwSTEP 2.0',
    'SolidWorks 2019',
    '' );
FILE_SCHEMA (( 'CONFIG_CONTROL_DESIGN' ));
ENDSEC;

DATA;
#1 = DIRECTION ( 'NONE',  ( -1.000000000000000000, 1.224646799147353947E-16, 0.000000000000000000 ) ) ;
#2 = EDGE_CURVE ( 'NONE', #196, #170, #135, .T. ) ;
#3 = DIRECTION ( 'NONE',  ( 0.000000000000000000, 0.000000000000000000, 1.000000000000000000 ) ) ;
#4 = PERSON_AND_ORGANIZATION ( #138, #48 ) ;
#5 = APPROVAL_STATUS ( 'not_yet_approved' ) ;
#6 = ORIENTED_EDGE ( 'NONE', *, *, #175, .F. ) ;
#7 = CALENDAR_DATE ( 2022, 20, 6 ) ;
#8 = MANIFOLD_SOLID_BREP ( 'Zaoblit1', #287 ) ;
#9 = LOCAL_TIME ( 11, 15, 54.00000000000000000, #77 ) ;
#10 = ORIENTED_EDGE ( 'NONE', *, *, #86, .T. ) ;
#11 = ORIENTED_EDGE ( 'NONE', *, *, #225, .T. ) ;
#12 = CARTESIAN_POINT ( 'NONE',  ( 0.000000000000000000, 0.000000000000000000, 10.00000000000000000 ) ) ;
#13 = ORIENTED_EDGE ( 'NONE', *, *, #65, .T. ) ;
#14 = CARTESIAN_POINT ( 'NONE',  ( 0.000000000000000000, 0.000000000000000000, 640.0000000000000000 ) ) ;
#15 = DIRECTION ( 'NONE',  ( -1.000000000000000000, 0.000000000000000000, 0.000000000000000000 ) ) ;
#16 = LINE ( 'NONE', #110, #130 ) ;
#17 = LINE ( 'NONE', #84, #255 ) ;
#18 = APPLICATION_CONTEXT ( 'configuration controlled 3d designs of mechanical parts and assemblies' ) ;
#19 = DIRECTION ( 'NONE',  ( 1.000000000000000000, 0.000000000000000000, 0.000000000000000000 ) ) ;
#20 = MECHANICAL_CONTEXT ( 'NONE', #18, 'mechanical' ) ;
#21 = PERSON_AND_ORGANIZATION_ROLE ( 'design_owner' ) ;
#22 = FACE_OUTER_BOUND ( 'NONE', #101, .T. ) ;
#23 = DIRECTION ( 'NONE',  ( 1.000000000000000000, 0.000000000000000000, 0.000000000000000000 ) ) ;
#24 = ADVANCED_FACE ( 'NONE', ( #35 ), #221, .F. ) ;
#25 = CIRCLE ( 'NONE', #198, 20.00000000000000000 ) ;
#26 = AXIS2_PLACEMENT_3D ( 'NONE', #94, #188, #67 ) ;
#27 = CIRCLE ( 'NONE', #271, 16.19999999999999929 ) ;
#28 = PLANE ( 'NONE',  #151 ) ;
#29 = DATE_TIME_ROLE ( 'creation_date' ) ;
#30 = ORIENTED_EDGE ( 'NONE', *, *, #235, .F. ) ;
#31 = CC_DESIGN_DATE_AND_TIME_ASSIGNMENT ( #272, #29, ( #218 ) ) ;
#32 = CIRCLE ( 'NONE', #69, 20.00000000000000000 ) ;
#33 = ORIENTED_EDGE ( 'NONE', *, *, #119, .T. ) ;
#34 = ORIENTED_EDGE ( 'NONE', *, *, #2, .T. ) ;
#35 = FACE_OUTER_BOUND ( 'NONE', #50, .T. ) ;
#36 = APPROVAL ( #289, 'NEURÈENÝ' ) ;
#37 = CARTESIAN_POINT ( 'NONE',  ( 0.000000000000000000, 0.000000000000000000, 10.00000000000000000 ) ) ;
#38 = DIRECTION ( 'NONE',  ( 0.000000000000000000, 0.000000000000000000, 1.000000000000000000 ) ) ;
#39 = DIRECTION ( 'NONE',  ( 0.000000000000000000, 0.000000000000000000, 1.000000000000000000 ) ) ;
#40 = CARTESIAN_POINT ( 'NONE',  ( -16.19999999999999929, 1.983927814618711846E-15, 9.999999999999992895 ) ) ;
#41 = LOCAL_TIME ( 11, 15, 54.00000000000000000, #292 ) ;
#42 = DIRECTION ( 'NONE',  ( 1.000000000000000000, 0.000000000000000000, -0.000000000000000000 ) ) ;
#43 = DIRECTION ( 'NONE',  ( 1.000000000000000000, 0.000000000000000000, 0.000000000000000000 ) ) ;
#44 = CARTESIAN_POINT ( 'NONE',  ( 0.000000000000000000, 0.000000000000000000, 0.000000000000000000 ) ) ;
#45 = LOCAL_TIME ( 11, 15, 54.00000000000000000, #171 ) ;
#46 = APPROVAL_DATE_TIME ( #262, #269 ) ;
#47 =( NAMED_UNIT ( * ) PLANE_ANGLE_UNIT ( ) SI_UNIT ( $, .RADIAN. ) );
#48 = ORGANIZATION ( 'NEURÈENÝ', 'NEURÈENÝ', '' ) ;
#49 = APPROVAL_DATE_TIME ( #73, #36 ) ;
#50 = EDGE_LOOP ( 'NONE', ( #242, #76, #144, #293 ) ) ;
#51 = CALENDAR_DATE ( 2022, 20, 6 ) ;
#52 = ADVANCED_FACE ( 'NONE', ( #178 ), #28, .T. ) ;
#53 = VERTEX_POINT ( 'NONE', #129 ) ;
#54 = TOROIDAL_SURFACE ( 'NONE', #97, 16.19999999999999929, 0.2000000000000000111 ) ;
#55 = ORIENTED_EDGE ( 'NONE', *, *, #95, .F. ) ;
#56 = CALENDAR_DATE ( 2022, 20, 6 ) ;
#57 = ADVANCED_FACE ( 'NONE', ( #179 ), #63, .T. ) ;
#58 = FACE_OUTER_BOUND ( 'NONE', #150, .T. ) ;
#59 = DIRECTION ( 'NONE',  ( -1.000000000000000000, 0.000000000000000000, 0.000000000000000000 ) ) ;
#60 = CARTESIAN_POINT ( 'NONE',  ( 0.000000000000000000, 0.000000000000000000, 0.000000000000000000 ) ) ;
#61 = EDGE_CURVE ( 'NONE', #153, #121, #16, .T. ) ;
#62 = CARTESIAN_POINT ( 'NONE',  ( 0.000000000000000000, 0.000000000000000000, 10.00000000000000000 ) ) ;
#63 = CYLINDRICAL_SURFACE ( 'NONE', #265, 20.00000000000000000 ) ;
#64 = LOCAL_TIME ( 11, 15, 54.00000000000000000, #98 ) ;
#65 = EDGE_CURVE ( 'NONE', #118, #79, #87, .T. ) ;
#66 = CARTESIAN_POINT ( 'NONE',  ( 0.000000000000000000, 0.000000000000000000, 0.000000000000000000 ) ) ;
#67 = DIRECTION ( 'NONE',  ( -1.000000000000000000, 0.000000000000000000, 0.000000000000000000 ) ) ;
#68 = DIRECTION ( 'NONE',  ( -0.000000000000000000, -0.000000000000000000, -1.000000000000000000 ) ) ;
#69 = AXIS2_PLACEMENT_3D ( 'NONE', #60, #157, #253 ) ;
#70 = CC_DESIGN_PERSON_AND_ORGANIZATION_ASSIGNMENT ( #102, #216, ( #218 ) ) ;
#71 = APPROVAL_ROLE ( '' ) ;
#72 = VECTOR ( 'NONE', #156, 1000.000000000000000 ) ;
#73 = DATE_AND_TIME ( #7, #45 ) ;
#74 = DIRECTION ( 'NONE',  ( 1.000000000000000000, 0.000000000000000000, 0.000000000000000000 ) ) ;
#75 = PERSON_AND_ORGANIZATION ( #138, #48 ) ;
#76 = ORIENTED_EDGE ( 'NONE', *, *, #279, .T. ) ;
#77 = COORDINATED_UNIVERSAL_TIME_OFFSET ( 1, 0, .AHEAD. ) ;
#78 = ORIENTED_EDGE ( 'NONE', *, *, #243, .F. ) ;
#79 = VERTEX_POINT ( 'NONE', #275 ) ;
#80 = AXIS2_PLACEMENT_3D ( 'NONE', #154, #134, #59 ) ;
#81 = FACE_OUTER_BOUND ( 'NONE', #126, .T. ) ;
#82 = DIRECTION ( 'NONE',  ( 1.000000000000000000, 0.000000000000000000, 0.000000000000000000 ) ) ;
#83 = ADVANCED_BREP_SHAPE_REPRESENTATION ( '74de', ( #8, #199 ), #92 ) ;
#84 = CARTESIAN_POINT ( 'NONE',  ( 20.00000000000000000, 2.449293598294706513E-15, 10.00000000000000000 ) ) ;
#85 = CC_DESIGN_SECURITY_CLASSIFICATION ( #100, ( #187 ) ) ;
#86 = EDGE_CURVE ( 'NONE', #153, #217, #205, .T. ) ;
#87 = CIRCLE ( 'NONE', #303, 16.00000000000000000 ) ;
#88 = DIRECTION ( 'NONE',  ( -0.000000000000000000, -0.000000000000000000, -1.000000000000000000 ) ) ;
#89 = PRODUCT ( '74de', '74de', '', ( #20 ) ) ;
#90 = CARTESIAN_POINT ( 'NONE',  ( 0.000000000000000000, 0.000000000000000000, 640.0000000000000000 ) ) ;
#91 = CC_DESIGN_PERSON_AND_ORGANIZATION_ASSIGNMENT ( #147, #244, ( #187 ) ) ;
#92 =( GEOMETRIC_REPRESENTATION_CONTEXT ( 3 ) GLOBAL_UNCERTAINTY_ASSIGNED_CONTEXT ( ( #248 ) ) GLOBAL_UNIT_ASSIGNED_CONTEXT ( ( #307, #47, #259 ) ) REPRESENTATION_CONTEXT ( 'NONE', 'WORKASPACE' ) );
#93 = DIRECTION ( 'NONE',  ( 1.224646799147353207E-16, 1.000000000000000000, -0.000000000000000000 ) ) ;
#94 = CARTESIAN_POINT ( 'NONE',  ( 0.000000000000000000, 0.000000000000000000, 640.0000000000000000 ) ) ;
#95 = EDGE_CURVE ( 'NONE', #118, #53, #302, .T. ) ;
#96 = APPROVAL_STATUS ( 'not_yet_approved' ) ;
#97 = AXIS2_PLACEMENT_3D ( 'NONE', #288, #137, #260 ) ;
#98 = COORDINATED_UNIVERSAL_TIME_OFFSET ( 1, 0, .AHEAD. ) ;
#99 = ORIENTED_EDGE ( 'NONE', *, *, #2, .F. ) ;
#100 = SECURITY_CLASSIFICATION ( '', '', #219 ) ;
#101 = EDGE_LOOP ( 'NONE', ( #297, #176 ) ) ;
#102 = PERSON_AND_ORGANIZATION ( #138, #48 ) ;
#103 = ORIENTED_EDGE ( 'NONE', *, *, #243, .T. ) ;
#104 = DIRECTION ( 'NONE',  ( -0.000000000000000000, -0.000000000000000000, -1.000000000000000000 ) ) ;
#105 = CIRCLE ( 'NONE', #246, 16.00000000000000000 ) ;
#106 = VERTEX_POINT ( 'NONE', #107 ) ;
#107 = CARTESIAN_POINT ( 'NONE',  ( 20.00000000000000000, 2.449293598294706513E-15, 0.000000000000000000 ) ) ;
#108 = PRODUCT_DEFINITION_SHAPE ( 'NONE', 'NONE',  #218 ) ;
#109 = ADVANCED_FACE ( 'NONE', ( #58 ), #132, .T. ) ;
#110 = CARTESIAN_POINT ( 'NONE',  ( -20.00000000000000000, 0.000000000000000000, 10.00000000000000000 ) ) ;
#111 = DIRECTION ( 'NONE',  ( 1.000000000000000000, 0.000000000000000000, 0.000000000000000000 ) ) ;
#112 = FACE_BOUND ( 'NONE', #250, .T. ) ;
#113 = CARTESIAN_POINT ( 'NONE',  ( 0.000000000000000000, 0.000000000000000000, 10.00000000000000000 ) ) ;
#114 = PERSON_AND_ORGANIZATION ( #138, #48 ) ;
#115 = CARTESIAN_POINT ( 'NONE',  ( 0.000000000000000000, 0.000000000000000000, 10.00000000000000000 ) ) ;
#116 = CARTESIAN_POINT ( 'NONE',  ( 0.000000000000000000, 0.000000000000000000, 0.000000000000000000 ) ) ;
#117 = FACE_OUTER_BOUND ( 'NONE', #125, .T. ) ;
#118 = VERTEX_POINT ( 'NONE', #133 ) ;
#119 = EDGE_CURVE ( 'NONE', #170, #196, #27, .T. ) ;
#120 = PERSON_AND_ORGANIZATION_ROLE ( 'creator' ) ;
#121 = VERTEX_POINT ( 'NONE', #180 ) ;
#122 = APPROVAL_ROLE ( '' ) ;
#123 = ORIENTED_EDGE ( 'NONE', *, *, #200, .F. ) ;
#124 = ADVANCED_FACE ( 'NONE', ( #81 ), #230, .T. ) ;
#125 = EDGE_LOOP ( 'NONE', ( #245, #220, #223, #99 ) ) ;
#126 = EDGE_LOOP ( 'NONE', ( #55, #123, #103, #168 ) ) ;
#127 = CARTESIAN_POINT ( 'NONE',  ( 0.000000000000000000, 0.000000000000000000, 10.19999999999998685 ) ) ;
#128 = CC_DESIGN_APPROVAL ( #36, ( #100 ) ) ;
#129 = CARTESIAN_POINT ( 'NONE',  ( 16.00000000000000000, 1.959434878635765131E-15, 10.19999999999998685 ) ) ;
#130 = VECTOR ( 'NONE', #301, 1000.000000000000000 ) ;
#131 = APPROVAL ( #5, 'NEURÈENÝ' ) ;
#132 = CYLINDRICAL_SURFACE ( 'NONE', #215, 20.00000000000000000 ) ;
#133 = CARTESIAN_POINT ( 'NONE',  ( 16.00000000000000000, 1.959434878635765131E-15, 640.0000000000000000 ) ) ;
#134 = DIRECTION ( 'NONE',  ( -0.000000000000000000, -0.000000000000000000, -1.000000000000000000 ) ) ;
#135 = CIRCLE ( 'NONE', #282, 16.19999999999999929 ) ;
#136 = CARTESIAN_POINT ( 'NONE',  ( 20.00000000000000000, 2.449293598294706513E-15, 10.00000000000000000 ) ) ;
#137 = DIRECTION ( 'NONE',  ( 0.000000000000000000, 0.000000000000000000, 1.000000000000000000 ) ) ;
#138 = PERSON ( 'NEURÈENÝ', 'NEURÈENÝ', 'NEURÈENÝ', ('NEURÈENÝ'), ('NEURÈENÝ'), ('NEURÈENÝ') ) ;
#139 = CC_DESIGN_APPROVAL ( #269, ( #218 ) ) ;
#140 = DIRECTION ( 'NONE',  ( 0.000000000000000000, 0.000000000000000000, 1.000000000000000000 ) ) ;
#141 = CARTESIAN_POINT ( 'NONE',  ( -16.00000000000000000, 0.000000000000000000, 640.0000000000000000 ) ) ;
#142 = CC_DESIGN_PERSON_AND_ORGANIZATION_ASSIGNMENT ( #114, #21, ( #89 ) ) ;
#143 = AXIS2_PLACEMENT_3D ( 'NONE', #116, #3, #208 ) ;
#144 = ORIENTED_EDGE ( 'NONE', *, *, #119, .F. ) ;
#145 = DATE_AND_TIME ( #51, #41 ) ;
#146 = ORIENTED_EDGE ( 'NONE', *, *, #235, .T. ) ;
#147 = PERSON_AND_ORGANIZATION ( #138, #48 ) ;
#148 = AXIS2_PLACEMENT_3D ( 'NONE', #258, #159, #111 ) ;
#149 = PERSON_AND_ORGANIZATION ( #138, #48 ) ;
#150 = EDGE_LOOP ( 'NONE', ( #6, #174, #240, #268 ) ) ;
#151 = AXIS2_PLACEMENT_3D ( 'NONE', #251, #231, #181 ) ;
#152 = CALENDAR_DATE ( 2022, 20, 6 ) ;
#153 = VERTEX_POINT ( 'NONE', #252 ) ;
#154 = CARTESIAN_POINT ( 'NONE',  ( 0.000000000000000000, 0.000000000000000000, 640.0000000000000000 ) ) ;
#155 = CIRCLE ( 'NONE', #186, 20.00000000000000000 ) ;
#156 = DIRECTION ( 'NONE',  ( -0.000000000000000000, -0.000000000000000000, -1.000000000000000000 ) ) ;
#157 = DIRECTION ( 'NONE',  ( 0.000000000000000000, 0.000000000000000000, 1.000000000000000000 ) ) ;
#158 = PRODUCT_RELATED_PRODUCT_CATEGORY ( 'detail', '', ( #89 ) ) ;
#159 = DIRECTION ( 'NONE',  ( 0.000000000000000000, 0.000000000000000000, 1.000000000000000000 ) ) ;
#160 = AXIS2_PLACEMENT_3D ( 'NONE', #162, #232, #19 ) ;
#161 = LOCAL_TIME ( 11, 15, 54.00000000000000000, #237 ) ;
#162 = CARTESIAN_POINT ( 'NONE',  ( 0.000000000000000000, 0.000000000000000000, 10.19999999999998685 ) ) ;
#163 = CC_DESIGN_APPROVAL ( #131, ( #187 ) ) ;
#164 = APPLICATION_PROTOCOL_DEFINITION ( 'international standard', 'config_control_design', 1994, #18 ) ;
#165 = EDGE_CURVE ( 'NONE', #224, #53, #299, .T. ) ;
#166 = CARTESIAN_POINT ( 'NONE',  ( -16.19999999999999929, 1.983927814618711846E-15, 10.19999999999998685 ) ) ;
#167 = CALENDAR_DATE ( 2022, 20, 6 ) ;
#168 = ORIENTED_EDGE ( 'NONE', *, *, #165, .T. ) ;
#169 = ADVANCED_FACE ( 'NONE', ( #112, #229 ), #204, .T. ) ;
#170 = VERTEX_POINT ( 'NONE', #254 ) ;
#171 = COORDINATED_UNIVERSAL_TIME_OFFSET ( 1, 0, .AHEAD. ) ;
#172 = EDGE_LOOP ( 'NONE', ( #30, #291, #249, #270 ) ) ;
#173 = APPROVAL_ROLE ( '' ) ;
#174 = ORIENTED_EDGE ( 'NONE', *, *, #86, .F. ) ;
#175 = EDGE_CURVE ( 'NONE', #217, #106, #17, .T. ) ;
#176 = ORIENTED_EDGE ( 'NONE', *, *, #182, .F. ) ;
#177 = AXIS2_PLACEMENT_3D ( 'NONE', #280, #206, #274 ) ;
#178 = FACE_OUTER_BOUND ( 'NONE', #201, .T. ) ;
#179 = FACE_OUTER_BOUND ( 'NONE', #172, .T. ) ;
#180 = CARTESIAN_POINT ( 'NONE',  ( -20.00000000000000000, 0.000000000000000000, 0.000000000000000000 ) ) ;
#181 = DIRECTION ( 'NONE',  ( 1.000000000000000000, 0.000000000000000000, -0.000000000000000000 ) ) ;
#182 = EDGE_CURVE ( 'NONE', #106, #121, #32, .T. ) ;
#183 = CARTESIAN_POINT ( 'NONE',  ( -16.00000000000000000, 0.000000000000000000, 10.19999999999998685 ) ) ;
#184 = APPLICATION_CONTEXT ( 'configuration controlled 3d designs of mechanical parts and assemblies' ) ;
#185 = DIRECTION ( 'NONE',  ( -0.000000000000000000, -0.000000000000000000, -1.000000000000000000 ) ) ;
#186 = AXIS2_PLACEMENT_3D ( 'NONE', #44, #236, #239 ) ;
#187 = PRODUCT_DEFINITION_FORMATION_WITH_SPECIFIED_SOURCE ( 'LIBOVOLNÝ', '', #89, .NOT_KNOWN. ) ;
#188 = DIRECTION ( 'NONE',  ( -0.000000000000000000, -0.000000000000000000, -1.000000000000000000 ) ) ;
#189 = CC_DESIGN_PERSON_AND_ORGANIZATION_ASSIGNMENT ( #290, #267, ( #100 ) ) ;
#190 = FACE_OUTER_BOUND ( 'NONE', #193, .T. ) ;
#191 = DIRECTION ( 'NONE',  ( 0.000000000000000000, 0.000000000000000000, -1.000000000000000000 ) ) ;
#192 = DATE_TIME_ROLE ( 'classification_date' ) ;
#193 = EDGE_LOOP ( 'NONE', ( #273, #195, #11, #78 ) ) ;
#194 = DATE_AND_TIME ( #56, #64 ) ;
#195 = ORIENTED_EDGE ( 'NONE', *, *, #95, .T. ) ;
#196 = VERTEX_POINT ( 'NONE', #40 ) ;
#197 = DIRECTION ( 'NONE',  ( 1.000000000000000000, 0.000000000000000000, 0.000000000000000000 ) ) ;
#198 = AXIS2_PLACEMENT_3D ( 'NONE', #115, #283, #23 ) ;
#199 = AXIS2_PLACEMENT_3D ( 'NONE', #66, #140, #43 ) ;
#200 = EDGE_CURVE ( 'NONE', #79, #118, #105, .T. ) ;
#201 = EDGE_LOOP ( 'NONE', ( #296, #13 ) ) ;
#202 = DIRECTION ( 'NONE',  ( 0.000000000000000000, 0.000000000000000000, 1.000000000000000000 ) ) ;
#203 = DIRECTION ( 'NONE',  ( 1.000000000000000000, 0.000000000000000000, 0.000000000000000000 ) ) ;
#204 = PLANE ( 'NONE',  #213 ) ;
#205 = CIRCLE ( 'NONE', #177, 20.00000000000000000 ) ;
#206 = DIRECTION ( 'NONE',  ( 0.000000000000000000, 0.000000000000000000, 1.000000000000000000 ) ) ;
#207 = CIRCLE ( 'NONE', #227, 0.2000000000000005107 ) ;
#208 = DIRECTION ( 'NONE',  ( 1.000000000000000000, 0.000000000000000000, -0.000000000000000000 ) ) ;
#209 = PLANE ( 'NONE',  #143 ) ;
#210 = APPLICATION_PROTOCOL_DEFINITION ( 'international standard', 'config_control_design', 1994, #184 ) ;
#211 = CC_DESIGN_DATE_AND_TIME_ASSIGNMENT ( #145, #192, ( #100 ) ) ;
#212 = CYLINDRICAL_SURFACE ( 'NONE', #26, 16.00000000000000000 ) ;
#213 = AXIS2_PLACEMENT_3D ( 'NONE', #278, #38, #42 ) ;
#214 = CIRCLE ( 'NONE', #276, 0.1999999999999987899 ) ;
#215 = AXIS2_PLACEMENT_3D ( 'NONE', #37, #88, #15 ) ;
#216 = PERSON_AND_ORGANIZATION_ROLE ( 'creator' ) ;
#217 = VERTEX_POINT ( 'NONE', #136 ) ;
#218 = PRODUCT_DEFINITION ( 'NEZNÁMÝ', '', #187, #256 ) ;
#219 = SECURITY_CLASSIFICATION_LEVEL ( 'unclassified' ) ;
#220 = ORIENTED_EDGE ( 'NONE', *, *, #225, .F. ) ;
#221 = TOROIDAL_SURFACE ( 'NONE', #234, 16.19999999999999929, 0.2000000000000000111 ) ;
#222 = APPROVAL_DATE_TIME ( #194, #131 ) ;
#223 = ORIENTED_EDGE ( 'NONE', *, *, #305, .T. ) ;
#224 = VERTEX_POINT ( 'NONE', #183 ) ;
#225 = EDGE_CURVE ( 'NONE', #53, #224, #298, .T. ) ;
#226 = DIRECTION ( 'NONE',  ( 0.000000000000000000, 0.000000000000000000, 1.000000000000000000 ) ) ;
#227 = AXIS2_PLACEMENT_3D ( 'NONE', #284, #261, #191 ) ;
#228 = DIRECTION ( 'NONE',  ( -1.000000000000000000, 0.000000000000000000, 0.000000000000000000 ) ) ;
#229 = FACE_OUTER_BOUND ( 'NONE', #266, .T. ) ;
#230 = CYLINDRICAL_SURFACE ( 'NONE', #80, 16.00000000000000000 ) ;
#231 = DIRECTION ( 'NONE',  ( 0.000000000000000000, 0.000000000000000000, 1.000000000000000000 ) ) ;
#232 = DIRECTION ( 'NONE',  ( 0.000000000000000000, 0.000000000000000000, 1.000000000000000000 ) ) ;
#233 = CC_DESIGN_PERSON_AND_ORGANIZATION_ASSIGNMENT ( #149, #120, ( #187 ) ) ;
#234 = AXIS2_PLACEMENT_3D ( 'NONE', #127, #226, #74 ) ;
#235 = EDGE_CURVE ( 'NONE', #217, #153, #25, .T. ) ;
#236 = DIRECTION ( 'NONE',  ( 0.000000000000000000, 0.000000000000000000, 1.000000000000000000 ) ) ;
#237 = COORDINATED_UNIVERSAL_TIME_OFFSET ( 1, 0, .AHEAD. ) ;
#238 = VECTOR ( 'NONE', #68, 1000.000000000000000 ) ;
#239 = DIRECTION ( 'NONE',  ( 1.000000000000000000, 0.000000000000000000, 0.000000000000000000 ) ) ;
#240 = ORIENTED_EDGE ( 'NONE', *, *, #61, .T. ) ;
#241 = SHAPE_DEFINITION_REPRESENTATION ( #108, #83 ) ;
#242 = ORIENTED_EDGE ( 'NONE', *, *, #165, .F. ) ;
#243 = EDGE_CURVE ( 'NONE', #79, #224, #286, .T. ) ;
#244 = PERSON_AND_ORGANIZATION_ROLE ( 'design_supplier' ) ;
#245 = ORIENTED_EDGE ( 'NONE', *, *, #279, .F. ) ;
#246 = AXIS2_PLACEMENT_3D ( 'NONE', #90, #39, #304 ) ;
#247 = APPROVAL_PERSON_ORGANIZATION ( #75, #36, #122 ) ;
#248 = UNCERTAINTY_MEASURE_WITH_UNIT (LENGTH_MEASURE( 1.000000000000000082E-05 ), #307, 'distance_accuracy_value', 'NONE');
#249 = ORIENTED_EDGE ( 'NONE', *, *, #182, .T. ) ;
#250 = EDGE_LOOP ( 'NONE', ( #33, #34 ) ) ;
#251 = CARTESIAN_POINT ( 'NONE',  ( 0.000000000000000000, 0.000000000000000000, 640.0000000000000000 ) ) ;
#252 = CARTESIAN_POINT ( 'NONE',  ( -20.00000000000000000, 0.000000000000000000, 10.00000000000000000 ) ) ;
#253 = DIRECTION ( 'NONE',  ( 1.000000000000000000, 0.000000000000000000, 0.000000000000000000 ) ) ;
#254 = CARTESIAN_POINT ( 'NONE',  ( 16.19999999999999929, 0.000000000000000000, 9.999999999999992895 ) ) ;
#255 = VECTOR ( 'NONE', #277, 1000.000000000000000 ) ;
#256 = DESIGN_CONTEXT ( 'detailed design', #184, 'design' ) ;
#257 = EDGE_CURVE ( 'NONE', #121, #106, #155, .T. ) ;
#258 = CARTESIAN_POINT ( 'NONE',  ( 0.000000000000000000, 0.000000000000000000, 10.19999999999998685 ) ) ;
#259 =( NAMED_UNIT ( * ) SI_UNIT ( $, .STERADIAN. ) SOLID_ANGLE_UNIT ( ) );
#260 = DIRECTION ( 'NONE',  ( 1.000000000000000000, 0.000000000000000000, 0.000000000000000000 ) ) ;
#261 = DIRECTION ( 'NONE',  ( 0.000000000000000000, -1.000000000000000000, 0.000000000000000000 ) ) ;
#262 = DATE_AND_TIME ( #167, #161 ) ;
#263 = APPROVAL_PERSON_ORGANIZATION ( #295, #131, #173 ) ;
#264 = ADVANCED_FACE ( 'NONE', ( #22 ), #209, .F. ) ;
#265 = AXIS2_PLACEMENT_3D ( 'NONE', #113, #185, #228 ) ;
#266 = EDGE_LOOP ( 'NONE', ( #10, #146 ) ) ;
#267 = PERSON_AND_ORGANIZATION_ROLE ( 'classification_officer' ) ;
#268 = ORIENTED_EDGE ( 'NONE', *, *, #257, .T. ) ;
#269 = APPROVAL ( #96, 'NEURÈENÝ' ) ;
#270 = ORIENTED_EDGE ( 'NONE', *, *, #61, .F. ) ;
#271 = AXIS2_PLACEMENT_3D ( 'NONE', #62, #306, #203 ) ;
#272 = DATE_AND_TIME ( #152, #9 ) ;
#273 = ORIENTED_EDGE ( 'NONE', *, *, #65, .F. ) ;
#274 = DIRECTION ( 'NONE',  ( 1.000000000000000000, 0.000000000000000000, 0.000000000000000000 ) ) ;
#275 = CARTESIAN_POINT ( 'NONE',  ( -16.00000000000000000, 0.000000000000000000, 640.0000000000000000 ) ) ;
#276 = AXIS2_PLACEMENT_3D ( 'NONE', #166, #93, #1 ) ;
#277 = DIRECTION ( 'NONE',  ( -0.000000000000000000, -0.000000000000000000, -1.000000000000000000 ) ) ;
#278 = CARTESIAN_POINT ( 'NONE',  ( 0.000000000000000000, 0.000000000000000000, 10.00000000000000000 ) ) ;
#279 = EDGE_CURVE ( 'NONE', #224, #196, #214, .T. ) ;
#280 = CARTESIAN_POINT ( 'NONE',  ( 0.000000000000000000, 0.000000000000000000, 10.00000000000000000 ) ) ;
#281 = APPROVAL_PERSON_ORGANIZATION ( #4, #269, #71 ) ;
#282 = AXIS2_PLACEMENT_3D ( 'NONE', #12, #104, #197 ) ;
#283 = DIRECTION ( 'NONE',  ( 0.000000000000000000, 0.000000000000000000, 1.000000000000000000 ) ) ;
#284 = CARTESIAN_POINT ( 'NONE',  ( 16.19999999999999929, 0.000000000000000000, 10.19999999999998685 ) ) ;
#285 = ADVANCED_FACE ( 'NONE', ( #117 ), #54, .F. ) ;
#286 = LINE ( 'NONE', #141, #238 ) ;
#287 = CLOSED_SHELL ( 'NONE', ( #24, #294, #57, #109, #169, #264, #124, #52, #285 ) ) ;
#288 = CARTESIAN_POINT ( 'NONE',  ( 0.000000000000000000, 0.000000000000000000, 10.19999999999998685 ) ) ;
#289 = APPROVAL_STATUS ( 'not_yet_approved' ) ;
#290 = PERSON_AND_ORGANIZATION ( #138, #48 ) ;
#291 = ORIENTED_EDGE ( 'NONE', *, *, #175, .T. ) ;
#292 = COORDINATED_UNIVERSAL_TIME_OFFSET ( 1, 0, .AHEAD. ) ;
#293 = ORIENTED_EDGE ( 'NONE', *, *, #305, .F. ) ;
#294 = ADVANCED_FACE ( 'NONE', ( #190 ), #212, .T. ) ;
#295 = PERSON_AND_ORGANIZATION ( #138, #48 ) ;
#296 = ORIENTED_EDGE ( 'NONE', *, *, #200, .T. ) ;
#297 = ORIENTED_EDGE ( 'NONE', *, *, #257, .F. ) ;
#298 = CIRCLE ( 'NONE', #160, 16.00000000000000000 ) ;
#299 = CIRCLE ( 'NONE', #148, 16.00000000000000000 ) ;
#300 = CARTESIAN_POINT ( 'NONE',  ( 16.00000000000000000, 1.959434878635765131E-15, 640.0000000000000000 ) ) ;
#301 = DIRECTION ( 'NONE',  ( -0.000000000000000000, -0.000000000000000000, -1.000000000000000000 ) ) ;
#302 = LINE ( 'NONE', #300, #72 ) ;
#303 = AXIS2_PLACEMENT_3D ( 'NONE', #14, #202, #82 ) ;
#304 = DIRECTION ( 'NONE',  ( 1.000000000000000000, 0.000000000000000000, 0.000000000000000000 ) ) ;
#305 = EDGE_CURVE ( 'NONE', #53, #170, #207, .T. ) ;
#306 = DIRECTION ( 'NONE',  ( -0.000000000000000000, -0.000000000000000000, -1.000000000000000000 ) ) ;
#307 =( LENGTH_UNIT ( ) NAMED_UNIT ( * ) SI_UNIT ( .MILLI., .METRE. ) );
ENDSEC;
END-ISO-10303-21;
