ISO-10303-21;
HEADER;
FILE_DESCRIPTION (( 'STEP AP203' ),
    '1' );
FILE_NAME ('5892.STEP',
    '2022-06-20T10:12:35',
    ( '' ),
    ( '' ),
    'SwSTEP 2.0',
    'SolidWorks 2019',
    '' );
FILE_SCHEMA (( 'CONFIG_CONTROL_DESIGN' ));
ENDSEC;

DATA;
#1 = ORIENTED_EDGE ( 'NONE', *, *, #215, .T. ) ;
#2 = COORDINATED_UNIVERSAL_TIME_OFFSET ( 1, 0, .AHEAD. ) ;
#3 = TOROIDAL_SURFACE ( 'NONE', #11, 1.950000000000000178, 0.2000000000000000111 ) ;
#4 = PERSON_AND_ORGANIZATION_ROLE ( 'creator' ) ;
#5 = ORIENTED_EDGE ( 'NONE', *, *, #252, .T. ) ;
#6 = COORDINATED_UNIVERSAL_TIME_OFFSET ( 1, 0, .AHEAD. ) ;
#7 = ORIENTED_EDGE ( 'NONE', *, *, #111, .F. ) ;
#8 = CALENDAR_DATE ( 2022, 20, 6 ) ;
#9 = AXIS2_PLACEMENT_3D ( 'NONE', #188, #71, #165 ) ;
#10 = EDGE_CURVE ( 'NONE', #177, #263, #305, .T. ) ;
#11 = AXIS2_PLACEMENT_3D ( 'NONE', #273, #18, #12 ) ;
#12 = DIRECTION ( 'NONE',  ( 1.000000000000000000, 0.000000000000000000, 0.000000000000000000 ) ) ;
#13 = DIRECTION ( 'NONE',  ( 0.000000000000000000, 0.000000000000000000, 1.000000000000000000 ) ) ;
#14 = AXIS2_PLACEMENT_3D ( 'NONE', #89, #208, #278 ) ;
#15 = CIRCLE ( 'NONE', #181, 1.950000000000000178 ) ;
#16 = DIRECTION ( 'NONE',  ( 0.000000000000000000, -1.000000000000000000, 0.000000000000000000 ) ) ;
#17 = DIRECTION ( 'NONE',  ( 1.000000000000000000, 0.000000000000000000, -0.000000000000000000 ) ) ;
#18 = DIRECTION ( 'NONE',  ( 0.000000000000000000, 0.000000000000000000, 1.000000000000000000 ) ) ;
#19 = AXIS2_PLACEMENT_3D ( 'NONE', #34, #222, #66 ) ;
#20 = APPLICATION_CONTEXT ( 'configuration controlled 3d designs of mechanical parts and assemblies' ) ;
#21 = EDGE_LOOP ( 'NONE', ( #103, #224 ) ) ;
#22 = DIRECTION ( 'NONE',  ( 0.000000000000000000, 0.000000000000000000, 1.000000000000000000 ) ) ;
#23 = APPROVAL_PERSON_ORGANIZATION ( #200, #100, #56 ) ;
#24 = ORIENTED_EDGE ( 'NONE', *, *, #168, .F. ) ;
#25 = APPROVAL_STATUS ( 'not_yet_approved' ) ;
#26 = ORIENTED_EDGE ( 'NONE', *, *, #130, .T. ) ;
#27 = DATE_TIME_ROLE ( 'classification_date' ) ;
#28 = EDGE_CURVE ( 'NONE', #284, #229, #61, .T. ) ;
#29 = AXIS2_PLACEMENT_3D ( 'NONE', #122, #170, #211 ) ;
#30 = CARTESIAN_POINT ( 'NONE',  ( 0.000000000000000000, 0.000000000000000000, 0.000000000000000000 ) ) ;
#31 = AXIS2_PLACEMENT_3D ( 'NONE', #93, #214, #189 ) ;
#32 = CC_DESIGN_PERSON_AND_ORGANIZATION_ASSIGNMENT ( #124, #4, ( #231 ) ) ;
#33 = PERSON ( 'NEURÈENÝ', 'NEURÈENÝ', 'NEURÈENÝ', ('NEURÈENÝ'), ('NEURÈENÝ'), ('NEURÈENÝ') ) ;
#34 = CARTESIAN_POINT ( 'NONE',  ( 0.000000000000000000, 0.000000000000000000, 0.000000000000000000 ) ) ;
#35 = CARTESIAN_POINT ( 'NONE',  ( 0.000000000000000000, 0.000000000000000000, 3.000000000000000000 ) ) ;
#36 = AXIS2_PLACEMENT_3D ( 'NONE', #92, #88, #213 ) ;
#37 = DIRECTION ( 'NONE',  ( -0.000000000000000000, -0.000000000000000000, -1.000000000000000000 ) ) ;
#38 = DIRECTION ( 'NONE',  ( -0.000000000000000000, -0.000000000000000000, -1.000000000000000000 ) ) ;
#39 = PLANE ( 'NONE',  #63 ) ;
#40 = ADVANCED_FACE ( 'NONE', ( #154 ), #3, .F. ) ;
#41 = FACE_BOUND ( 'NONE', #104, .T. ) ;
#42 = PRODUCT_DEFINITION_SHAPE ( 'NONE', 'NONE',  #231 ) ;
#43 = DIRECTION ( 'NONE',  ( 1.000000000000000000, 0.000000000000000000, 0.000000000000000000 ) ) ;
#44 = DIRECTION ( 'NONE',  ( 1.000000000000000000, 0.000000000000000000, 0.000000000000000000 ) ) ;
#45 = AXIS2_PLACEMENT_3D ( 'NONE', #95, #256, #143 ) ;
#46 = CC_DESIGN_PERSON_AND_ORGANIZATION_ASSIGNMENT ( #81, #228, ( #150 ) ) ;
#47 = ORIENTED_EDGE ( 'NONE', *, *, #265, .T. ) ;
#48 = SHAPE_DEFINITION_REPRESENTATION ( #42, #192 ) ;
#49 = VERTEX_POINT ( 'NONE', #248 ) ;
#50 = APPROVAL ( #145, 'NEURÈENÝ' ) ;
#51 = ORIENTED_EDGE ( 'NONE', *, *, #283, .F. ) ;
#52 = APPROVAL_ROLE ( '' ) ;
#53 = ORGANIZATION ( 'NEURÈENÝ', 'NEURÈENÝ', '' ) ;
#54 = ORIENTED_EDGE ( 'NONE', *, *, #153, .T. ) ;
#55 = AXIS2_PLACEMENT_3D ( 'NONE', #119, #38, #116 ) ;
#56 = APPROVAL_ROLE ( '' ) ;
#57 = DIRECTION ( 'NONE',  ( -0.000000000000000000, -0.000000000000000000, -1.000000000000000000 ) ) ;
#58 = DATE_TIME_ROLE ( 'creation_date' ) ;
#59 = VERTEX_POINT ( 'NONE', #139 ) ;
#60 = LOCAL_TIME ( 12, 12, 35.00000000000000000, #6 ) ;
#61 = LINE ( 'NONE', #270, #204 ) ;
#62 = FACE_OUTER_BOUND ( 'NONE', #101, .T. ) ;
#63 = AXIS2_PLACEMENT_3D ( 'NONE', #140, #187, #17 ) ;
#64 = PRODUCT_RELATED_PRODUCT_CATEGORY ( 'detail', '', ( #150 ) ) ;
#65 = FACE_OUTER_BOUND ( 'NONE', #21, .T. ) ;
#66 = DIRECTION ( 'NONE',  ( 1.000000000000000000, 0.000000000000000000, -0.000000000000000000 ) ) ;
#67 = CARTESIAN_POINT ( 'NONE',  ( -3.500000000000000444, 0.000000000000000000, 3.000000000000000000 ) ) ;
#68 = CARTESIAN_POINT ( 'NONE',  ( 0.000000000000000000, 0.000000000000000000, 103.0000000000000142 ) ) ;
#69 = CIRCLE ( 'NONE', #9, 1.750000000000000000 ) ;
#70 = EDGE_CURVE ( 'NONE', #243, #246, #15, .T. ) ;
#71 = DIRECTION ( 'NONE',  ( 0.000000000000000000, 0.000000000000000000, 1.000000000000000000 ) ) ;
#72 = DIRECTION ( 'NONE',  ( 1.000000000000000000, 0.000000000000000000, 0.000000000000000000 ) ) ;
#73 = ORIENTED_EDGE ( 'NONE', *, *, #70, .F. ) ;
#74 = CARTESIAN_POINT ( 'NONE',  ( 0.000000000000000000, 0.000000000000000000, 3.199999999999994404 ) ) ;
#75 = ORIENTED_EDGE ( 'NONE', *, *, #265, .F. ) ;
#76 = TOROIDAL_SURFACE ( 'NONE', #36, 1.950000000000000178, 0.2000000000000000111 ) ;
#77 = ORIENTED_EDGE ( 'NONE', *, *, #70, .T. ) ;
#78 = PERSON_AND_ORGANIZATION_ROLE ( 'design_supplier' ) ;
#79 = CALENDAR_DATE ( 2022, 20, 6 ) ;
#80 = ORIENTED_EDGE ( 'NONE', *, *, #28, .T. ) ;
#81 = PERSON_AND_ORGANIZATION ( #33, #53 ) ;
#82 = AXIS2_PLACEMENT_3D ( 'NONE', #269, #22, #225 ) ;
#83 = DATE_AND_TIME ( #247, #185 ) ;
#84 = ORIENTED_EDGE ( 'NONE', *, *, #206, .T. ) ;
#85 = ADVANCED_FACE ( 'NONE', ( #62 ), #257, .T. ) ;
#86 = CARTESIAN_POINT ( 'NONE',  ( 0.000000000000000000, 0.000000000000000000, 3.000000000000000000 ) ) ;
#87 = CIRCLE ( 'NONE', #45, 3.500000000000000444 ) ;
#88 = DIRECTION ( 'NONE',  ( 0.000000000000000000, 0.000000000000000000, 1.000000000000000000 ) ) ;
#89 = CARTESIAN_POINT ( 'NONE',  ( 0.000000000000000000, 0.000000000000000000, 3.000000000000000000 ) ) ;
#90 = LINE ( 'NONE', #67, #245 ) ;
#91 = ADVANCED_FACE ( 'NONE', ( #296 ), #183, .T. ) ;
#92 = CARTESIAN_POINT ( 'NONE',  ( 0.000000000000000000, 0.000000000000000000, 3.199999999999994404 ) ) ;
#93 = CARTESIAN_POINT ( 'NONE',  ( 0.000000000000000000, 0.000000000000000000, 3.199999999999994404 ) ) ;
#94 = LOCAL_TIME ( 12, 12, 35.00000000000000000, #287 ) ;
#95 = CARTESIAN_POINT ( 'NONE',  ( 0.000000000000000000, 0.000000000000000000, 0.000000000000000000 ) ) ;
#96 = CIRCLE ( 'NONE', #31, 1.750000000000000000 ) ;
#97 = DIRECTION ( 'NONE',  ( 1.224646799147353207E-16, 1.000000000000000000, -0.000000000000000000 ) ) ;
#98 = VERTEX_POINT ( 'NONE', #158 ) ;
#99 = FACE_OUTER_BOUND ( 'NONE', #268, .T. ) ;
#100 = APPROVAL ( #172, 'NEURÈENÝ' ) ;
#101 = EDGE_LOOP ( 'NONE', ( #75, #199, #5, #250 ) ) ;
#102 = PERSON_AND_ORGANIZATION ( #33, #53 ) ;
#103 = ORIENTED_EDGE ( 'NONE', *, *, #123, .T. ) ;
#104 = EDGE_LOOP ( 'NONE', ( #197, #77 ) ) ;
#105 =( NAMED_UNIT ( * ) SI_UNIT ( $, .STERADIAN. ) SOLID_ANGLE_UNIT ( ) );
#106 = EDGE_CURVE ( 'NONE', #246, #243, #190, .T. ) ;
#107 = EDGE_LOOP ( 'NONE', ( #128, #244 ) ) ;
#108 = PERSON_AND_ORGANIZATION ( #33, #53 ) ;
#109 = CC_DESIGN_PERSON_AND_ORGANIZATION_ASSIGNMENT ( #108, #78, ( #290 ) ) ;
#110 = APPROVAL_ROLE ( '' ) ;
#111 = EDGE_CURVE ( 'NONE', #229, #98, #96, .T. ) ;
#112 = CC_DESIGN_DATE_AND_TIME_ASSIGNMENT ( #83, #27, ( #303 ) ) ;
#113 = DIRECTION ( 'NONE',  ( 0.000000000000000000, 0.000000000000000000, 1.000000000000000000 ) ) ;
#114 = CARTESIAN_POINT ( 'NONE',  ( 1.950000000000000178, 0.000000000000000000, 2.999999999999997335 ) ) ;
#115 = CC_DESIGN_APPROVAL ( #100, ( #231 ) ) ;
#116 = DIRECTION ( 'NONE',  ( 1.000000000000000000, 0.000000000000000000, 0.000000000000000000 ) ) ;
#117 = DIRECTION ( 'NONE',  ( 1.000000000000000000, 0.000000000000000000, 0.000000000000000000 ) ) ;
#118 = FACE_OUTER_BOUND ( 'NONE', #261, .T. ) ;
#119 = CARTESIAN_POINT ( 'NONE',  ( 0.000000000000000000, 0.000000000000000000, 3.000000000000000000 ) ) ;
#120 = CARTESIAN_POINT ( 'NONE',  ( -1.950000000000000178, 2.388061258337339136E-16, 2.999999999999997335 ) ) ;
#121 = CYLINDRICAL_SURFACE ( 'NONE', #301, 3.500000000000000444 ) ;
#122 = CARTESIAN_POINT ( 'NONE',  ( 0.000000000000000000, 0.000000000000000000, 103.0000000000000142 ) ) ;
#123 = EDGE_CURVE ( 'NONE', #49, #59, #292, .T. ) ;
#124 = PERSON_AND_ORGANIZATION ( #33, #53 ) ;
#125 = ORIENTED_EDGE ( 'NONE', *, *, #28, .F. ) ;
#126 = ADVANCED_FACE ( 'NONE', ( #41, #65 ), #209, .T. ) ;
#127 = ORIENTED_EDGE ( 'NONE', *, *, #182, .F. ) ;
#128 = ORIENTED_EDGE ( 'NONE', *, *, #10, .F. ) ;
#129 = PERSON_AND_ORGANIZATION ( #33, #53 ) ;
#130 = EDGE_CURVE ( 'NONE', #98, #243, #205, .T. ) ;
#131 = AXIS2_PLACEMENT_3D ( 'NONE', #259, #279, #44 ) ;
#132 = CIRCLE ( 'NONE', #131, 1.750000000000000000 ) ;
#133 = LOCAL_TIME ( 12, 12, 35.00000000000000000, #291 ) ;
#134 = EDGE_LOOP ( 'NONE', ( #196, #80, #288, #24 ) ) ;
#135 = ORIENTED_EDGE ( 'NONE', *, *, #106, .F. ) ;
#136 = DIRECTION ( 'NONE',  ( 0.000000000000000000, 0.000000000000000000, 1.000000000000000000 ) ) ;
#137 = CLOSED_SHELL ( 'NONE', ( #306, #91, #141, #85, #126, #179, #203, #236, #40 ) ) ;
#138 = DIRECTION ( 'NONE',  ( 0.000000000000000000, 0.000000000000000000, 1.000000000000000000 ) ) ;
#139 = CARTESIAN_POINT ( 'NONE',  ( 3.500000000000000444, 4.286263797015737088E-16, 3.000000000000000000 ) ) ;
#140 = CARTESIAN_POINT ( 'NONE',  ( 0.000000000000000000, 0.000000000000000000, 103.0000000000000142 ) ) ;
#141 = ADVANCED_FACE ( 'NONE', ( #282 ), #121, .T. ) ;
#142 = ORIENTED_EDGE ( 'NONE', *, *, #272, .F. ) ;
#143 = DIRECTION ( 'NONE',  ( 1.000000000000000000, 0.000000000000000000, 0.000000000000000000 ) ) ;
#144 = ORIENTED_EDGE ( 'NONE', *, *, #168, .T. ) ;
#145 = APPROVAL_STATUS ( 'not_yet_approved' ) ;
#146 = ORIENTED_EDGE ( 'NONE', *, *, #153, .F. ) ;
#147 = DATE_AND_TIME ( #271, #207 ) ;
#148 = AXIS2_PLACEMENT_3D ( 'NONE', #235, #16, #210 ) ;
#149 = APPROVAL_DATE_TIME ( #174, #241 ) ;
#150 = PRODUCT ( '5892', '5892', '', ( #202 ) ) ;
#151 = AXIS2_PLACEMENT_3D ( 'NONE', #30, #113, #180 ) ;
#152 = PERSON_AND_ORGANIZATION_ROLE ( 'creator' ) ;
#153 = EDGE_CURVE ( 'NONE', #194, #284, #132, .T. ) ;
#154 = FACE_OUTER_BOUND ( 'NONE', #160, .T. ) ;
#155 = APPLICATION_PROTOCOL_DEFINITION ( 'international standard', 'config_control_design', 1994, #223 ) ;
#156 = APPROVAL_PERSON_ORGANIZATION ( #129, #50, #110 ) ;
#157 = CC_DESIGN_SECURITY_CLASSIFICATION ( #303, ( #290 ) ) ;
#158 = CARTESIAN_POINT ( 'NONE',  ( -1.750000000000000000, 0.000000000000000000, 3.199999999999994404 ) ) ;
#159 = AXIS2_PLACEMENT_3D ( 'NONE', #86, #136, #304 ) ;
#160 = EDGE_LOOP ( 'NONE', ( #258, #7, #175, #73 ) ) ;
#161 = FACE_OUTER_BOUND ( 'NONE', #173, .T. ) ;
#162 = CARTESIAN_POINT ( 'NONE',  ( 3.500000000000000444, 4.286263797015737088E-16, 0.000000000000000000 ) ) ;
#163 = CIRCLE ( 'NONE', #148, 0.2000000000000000944 ) ;
#164 = DIRECTION ( 'NONE',  ( -0.000000000000000000, -0.000000000000000000, -1.000000000000000000 ) ) ;
#165 = DIRECTION ( 'NONE',  ( 1.000000000000000000, 0.000000000000000000, 0.000000000000000000 ) ) ;
#166 = CARTESIAN_POINT ( 'NONE',  ( 0.000000000000000000, 0.000000000000000000, 3.000000000000000000 ) ) ;
#167 = CARTESIAN_POINT ( 'NONE',  ( 3.500000000000000444, 4.286263797015737088E-16, 3.000000000000000000 ) ) ;
#168 = EDGE_CURVE ( 'NONE', #194, #98, #234, .T. ) ;
#169 = ORIENTED_EDGE ( 'NONE', *, *, #252, .F. ) ;
#170 = DIRECTION ( 'NONE',  ( -0.000000000000000000, -0.000000000000000000, -1.000000000000000000 ) ) ;
#171 = DATE_AND_TIME ( #79, #60 ) ;
#172 = APPROVAL_STATUS ( 'not_yet_approved' ) ;
#173 = EDGE_LOOP ( 'NONE', ( #125, #146, #144, #226 ) ) ;
#174 = DATE_AND_TIME ( #176, #133 ) ;
#175 = ORIENTED_EDGE ( 'NONE', *, *, #283, .T. ) ;
#176 = CALENDAR_DATE ( 2022, 20, 6 ) ;
#177 = VERTEX_POINT ( 'NONE', #195 ) ;
#178 = PERSON_AND_ORGANIZATION ( #33, #53 ) ;
#179 = ADVANCED_FACE ( 'NONE', ( #216 ), #276, .F. ) ;
#180 = DIRECTION ( 'NONE',  ( 1.000000000000000000, 0.000000000000000000, 0.000000000000000000 ) ) ;
#181 = AXIS2_PLACEMENT_3D ( 'NONE', #35, #238, #275 ) ;
#182 = EDGE_CURVE ( 'NONE', #59, #49, #218, .T. ) ;
#183 = CYLINDRICAL_SURFACE ( 'NONE', #295, 1.750000000000000000 ) ;
#184 = CC_DESIGN_PERSON_AND_ORGANIZATION_ASSIGNMENT ( #286, #152, ( #290 ) ) ;
#185 = LOCAL_TIME ( 12, 12, 35.00000000000000000, #285 ) ;
#186 = CARTESIAN_POINT ( 'NONE',  ( 0.000000000000000000, 0.000000000000000000, 3.000000000000000000 ) ) ;
#187 = DIRECTION ( 'NONE',  ( 0.000000000000000000, 0.000000000000000000, 1.000000000000000000 ) ) ;
#188 = CARTESIAN_POINT ( 'NONE',  ( 0.000000000000000000, 0.000000000000000000, 103.0000000000000142 ) ) ;
#189 = DIRECTION ( 'NONE',  ( 1.000000000000000000, 0.000000000000000000, 0.000000000000000000 ) ) ;
#190 = CIRCLE ( 'NONE', #55, 1.950000000000000178 ) ;
#191 = CYLINDRICAL_SURFACE ( 'NONE', #29, 1.750000000000000000 ) ;
#192 = ADVANCED_BREP_SHAPE_REPRESENTATION ( '5892', ( #217, #82 ), #240 ) ;
#193 = DIRECTION ( 'NONE',  ( -1.000000000000000000, 1.224646799147354686E-16, 0.000000000000000000 ) ) ;
#194 = VERTEX_POINT ( 'NONE', #300 ) ;
#195 = CARTESIAN_POINT ( 'NONE',  ( -3.500000000000000444, 0.000000000000000000, 0.000000000000000000 ) ) ;
#196 = ORIENTED_EDGE ( 'NONE', *, *, #206, .F. ) ;
#197 = ORIENTED_EDGE ( 'NONE', *, *, #106, .T. ) ;
#198 = APPLICATION_PROTOCOL_DEFINITION ( 'international standard', 'config_control_design', 1994, #20 ) ;
#199 = ORIENTED_EDGE ( 'NONE', *, *, #123, .F. ) ;
#200 = PERSON_AND_ORGANIZATION ( #33, #53 ) ;
#201 = VECTOR ( 'NONE', #274, 1000.000000000000000 ) ;
#202 = MECHANICAL_CONTEXT ( 'NONE', #223, 'mechanical' ) ;
#203 = ADVANCED_FACE ( 'NONE', ( #161 ), #191, .T. ) ;
#204 = VECTOR ( 'NONE', #57, 1000.000000000000000 ) ;
#205 = CIRCLE ( 'NONE', #266, 0.1999999999999998723 ) ;
#206 = EDGE_CURVE ( 'NONE', #284, #194, #69, .T. ) ;
#207 = LOCAL_TIME ( 12, 12, 35.00000000000000000, #2 ) ;
#208 = DIRECTION ( 'NONE',  ( -0.000000000000000000, -0.000000000000000000, -1.000000000000000000 ) ) ;
#209 = PLANE ( 'NONE',  #159 ) ;
#210 = DIRECTION ( 'NONE',  ( 0.000000000000000000, 0.000000000000000000, -1.000000000000000000 ) ) ;
#211 = DIRECTION ( 'NONE',  ( -1.000000000000000000, 0.000000000000000000, 0.000000000000000000 ) ) ;
#212 = UNCERTAINTY_MEASURE_WITH_UNIT (LENGTH_MEASURE( 1.000000000000000082E-05 ), #239, 'distance_accuracy_value', 'NONE');
#213 = DIRECTION ( 'NONE',  ( 1.000000000000000000, 0.000000000000000000, 0.000000000000000000 ) ) ;
#214 = DIRECTION ( 'NONE',  ( 0.000000000000000000, 0.000000000000000000, 1.000000000000000000 ) ) ;
#215 = EDGE_CURVE ( 'NONE', #263, #177, #87, .T. ) ;
#216 = FACE_OUTER_BOUND ( 'NONE', #107, .T. ) ;
#217 = MANIFOLD_SOLID_BREP ( 'Zaoblit1', #137 ) ;
#218 = CIRCLE ( 'NONE', #249, 3.500000000000000444 ) ;
#219 = CARTESIAN_POINT ( 'NONE',  ( -1.950000000000000178, 2.388061258337339136E-16, 3.199999999999994404 ) ) ;
#220 = CC_DESIGN_PERSON_AND_ORGANIZATION_ASSIGNMENT ( #102, #264, ( #303 ) ) ;
#221 = AXIS2_PLACEMENT_3D ( 'NONE', #166, #280, #72 ) ;
#222 = DIRECTION ( 'NONE',  ( 0.000000000000000000, 0.000000000000000000, 1.000000000000000000 ) ) ;
#223 = APPLICATION_CONTEXT ( 'configuration controlled 3d designs of mechanical parts and assemblies' ) ;
#224 = ORIENTED_EDGE ( 'NONE', *, *, #182, .T. ) ;
#225 = DIRECTION ( 'NONE',  ( 1.000000000000000000, 0.000000000000000000, 0.000000000000000000 ) ) ;
#226 = ORIENTED_EDGE ( 'NONE', *, *, #272, .T. ) ;
#227 = DATE_AND_TIME ( #8, #94 ) ;
#228 = PERSON_AND_ORGANIZATION_ROLE ( 'design_owner' ) ;
#229 = VERTEX_POINT ( 'NONE', #254 ) ;
#230 = APPROVAL_DATE_TIME ( #227, #100 ) ;
#231 = PRODUCT_DEFINITION ( 'NEZNÁMÝ', '', #290, #277 ) ;
#232 = CIRCLE ( 'NONE', #260, 1.750000000000000000 ) ;
#233 = EDGE_LOOP ( 'NONE', ( #127, #47, #1, #169 ) ) ;
#234 = LINE ( 'NONE', #302, #201 ) ;
#235 = CARTESIAN_POINT ( 'NONE',  ( 1.950000000000000178, 0.000000000000000000, 3.199999999999994404 ) ) ;
#236 = ADVANCED_FACE ( 'NONE', ( #99 ), #39, .T. ) ;
#237 = DIRECTION ( 'NONE',  ( -1.000000000000000000, 0.000000000000000000, 0.000000000000000000 ) ) ;
#238 = DIRECTION ( 'NONE',  ( -0.000000000000000000, -0.000000000000000000, -1.000000000000000000 ) ) ;
#239 =( LENGTH_UNIT ( ) NAMED_UNIT ( * ) SI_UNIT ( .MILLI., .METRE. ) );
#240 =( GEOMETRIC_REPRESENTATION_CONTEXT ( 3 ) GLOBAL_UNCERTAINTY_ASSIGNED_CONTEXT ( ( #212 ) ) GLOBAL_UNIT_ASSIGNED_CONTEXT ( ( #239, #307, #105 ) ) REPRESENTATION_CONTEXT ( 'NONE', 'WORKASPACE' ) );
#241 = APPROVAL ( #25, 'NEURÈENÝ' ) ;
#242 = DIRECTION ( 'NONE',  ( -0.000000000000000000, -0.000000000000000000, -1.000000000000000000 ) ) ;
#243 = VERTEX_POINT ( 'NONE', #120 ) ;
#244 = ORIENTED_EDGE ( 'NONE', *, *, #215, .F. ) ;
#245 = VECTOR ( 'NONE', #242, 1000.000000000000000 ) ;
#246 = VERTEX_POINT ( 'NONE', #114 ) ;
#247 = CALENDAR_DATE ( 2022, 20, 6 ) ;
#248 = CARTESIAN_POINT ( 'NONE',  ( -3.500000000000000444, 0.000000000000000000, 3.000000000000000000 ) ) ;
#249 = AXIS2_PLACEMENT_3D ( 'NONE', #186, #13, #117 ) ;
#250 = ORIENTED_EDGE ( 'NONE', *, *, #10, .T. ) ;
#251 = VECTOR ( 'NONE', #37, 1000.000000000000000 ) ;
#252 = EDGE_CURVE ( 'NONE', #49, #177, #90, .T. ) ;
#253 = CARTESIAN_POINT ( 'NONE',  ( 1.750000000000000000, 2.143131898507868297E-16, 103.0000000000000142 ) ) ;
#254 = CARTESIAN_POINT ( 'NONE',  ( 1.750000000000000000, 2.143131898507868297E-16, 3.199999999999994404 ) ) ;
#255 = DIRECTION ( 'NONE',  ( -1.000000000000000000, 0.000000000000000000, 0.000000000000000000 ) ) ;
#256 = DIRECTION ( 'NONE',  ( 0.000000000000000000, 0.000000000000000000, 1.000000000000000000 ) ) ;
#257 = CYLINDRICAL_SURFACE ( 'NONE', #14, 3.500000000000000444 ) ;
#258 = ORIENTED_EDGE ( 'NONE', *, *, #130, .F. ) ;
#259 = CARTESIAN_POINT ( 'NONE',  ( 0.000000000000000000, 0.000000000000000000, 103.0000000000000142 ) ) ;
#260 = AXIS2_PLACEMENT_3D ( 'NONE', #74, #138, #43 ) ;
#261 = EDGE_LOOP ( 'NONE', ( #142, #26, #135, #51 ) ) ;
#262 = APPROVAL_DATE_TIME ( #147, #50 ) ;
#263 = VERTEX_POINT ( 'NONE', #162 ) ;
#264 = PERSON_AND_ORGANIZATION_ROLE ( 'classification_officer' ) ;
#265 = EDGE_CURVE ( 'NONE', #59, #263, #281, .T. ) ;
#266 = AXIS2_PLACEMENT_3D ( 'NONE', #219, #97, #193 ) ;
#267 = APPROVAL_PERSON_ORGANIZATION ( #178, #241, #52 ) ;
#268 = EDGE_LOOP ( 'NONE', ( #54, #84 ) ) ;
#269 = CARTESIAN_POINT ( 'NONE',  ( 0.000000000000000000, 0.000000000000000000, 0.000000000000000000 ) ) ;
#270 = CARTESIAN_POINT ( 'NONE',  ( 1.750000000000000000, 2.143131898507868297E-16, 103.0000000000000142 ) ) ;
#271 = CALENDAR_DATE ( 2022, 20, 6 ) ;
#272 = EDGE_CURVE ( 'NONE', #98, #229, #232, .T. ) ;
#273 = CARTESIAN_POINT ( 'NONE',  ( 0.000000000000000000, 0.000000000000000000, 3.199999999999994404 ) ) ;
#274 = DIRECTION ( 'NONE',  ( -0.000000000000000000, -0.000000000000000000, -1.000000000000000000 ) ) ;
#275 = DIRECTION ( 'NONE',  ( 1.000000000000000000, 0.000000000000000000, 0.000000000000000000 ) ) ;
#276 = PLANE ( 'NONE',  #19 ) ;
#277 = DESIGN_CONTEXT ( 'detailed design', #20, 'design' ) ;
#278 = DIRECTION ( 'NONE',  ( -1.000000000000000000, 0.000000000000000000, 0.000000000000000000 ) ) ;
#279 = DIRECTION ( 'NONE',  ( 0.000000000000000000, 0.000000000000000000, 1.000000000000000000 ) ) ;
#280 = DIRECTION ( 'NONE',  ( 0.000000000000000000, 0.000000000000000000, 1.000000000000000000 ) ) ;
#281 = LINE ( 'NONE', #167, #251 ) ;
#282 = FACE_OUTER_BOUND ( 'NONE', #233, .T. ) ;
#283 = EDGE_CURVE ( 'NONE', #229, #246, #163, .T. ) ;
#284 = VERTEX_POINT ( 'NONE', #253 ) ;
#285 = COORDINATED_UNIVERSAL_TIME_OFFSET ( 1, 0, .AHEAD. ) ;
#286 = PERSON_AND_ORGANIZATION ( #33, #53 ) ;
#287 = COORDINATED_UNIVERSAL_TIME_OFFSET ( 1, 0, .AHEAD. ) ;
#288 = ORIENTED_EDGE ( 'NONE', *, *, #111, .T. ) ;
#289 = SECURITY_CLASSIFICATION_LEVEL ( 'unclassified' ) ;
#290 = PRODUCT_DEFINITION_FORMATION_WITH_SPECIFIED_SOURCE ( 'LIBOVOLNÝ', '', #150, .NOT_KNOWN. ) ;
#291 = COORDINATED_UNIVERSAL_TIME_OFFSET ( 1, 0, .AHEAD. ) ;
#292 = CIRCLE ( 'NONE', #221, 3.500000000000000444 ) ;
#293 = CC_DESIGN_DATE_AND_TIME_ASSIGNMENT ( #171, #58, ( #231 ) ) ;
#294 = CC_DESIGN_APPROVAL ( #241, ( #290 ) ) ;
#295 = AXIS2_PLACEMENT_3D ( 'NONE', #68, #164, #255 ) ;
#296 = FACE_OUTER_BOUND ( 'NONE', #134, .T. ) ;
#297 = CC_DESIGN_APPROVAL ( #50, ( #303 ) ) ;
#298 = CARTESIAN_POINT ( 'NONE',  ( 0.000000000000000000, 0.000000000000000000, 3.000000000000000000 ) ) ;
#299 = DIRECTION ( 'NONE',  ( -0.000000000000000000, -0.000000000000000000, -1.000000000000000000 ) ) ;
#300 = CARTESIAN_POINT ( 'NONE',  ( -1.750000000000000000, 0.000000000000000000, 103.0000000000000142 ) ) ;
#301 = AXIS2_PLACEMENT_3D ( 'NONE', #298, #299, #237 ) ;
#302 = CARTESIAN_POINT ( 'NONE',  ( -1.750000000000000000, 0.000000000000000000, 103.0000000000000142 ) ) ;
#303 = SECURITY_CLASSIFICATION ( '', '', #289 ) ;
#304 = DIRECTION ( 'NONE',  ( 1.000000000000000000, 0.000000000000000000, -0.000000000000000000 ) ) ;
#305 = CIRCLE ( 'NONE', #151, 3.500000000000000444 ) ;
#306 = ADVANCED_FACE ( 'NONE', ( #118 ), #76, .F. ) ;
#307 =( NAMED_UNIT ( * ) PLANE_ANGLE_UNIT ( ) SI_UNIT ( $, .RADIAN. ) );
ENDSEC;
END-ISO-10303-21;
