ISO-10303-21;
HEADER;
FILE_DESCRIPTION (( 'STEP AP203' ),
    '1' );
FILE_NAME ('5d71.STEP',
    '2022-06-20T09:37:37',
    ( '' ),
    ( '' ),
    'SwSTEP 2.0',
    'SolidWorks 2019',
    '' );
FILE_SCHEMA (( 'CONFIG_CONTROL_DESIGN' ));
ENDSEC;

DATA;
#1 = FACE_OUTER_BOUND ( 'NONE', #149, .T. ) ;
#2 = AXIS2_PLACEMENT_3D ( 'NONE', #40, #137, #231 ) ;
#3 = CARTESIAN_POINT ( 'NONE',  ( 0.000000000000000000, 0.000000000000000000, 5.000000000000000000 ) ) ;
#4 = EDGE_CURVE ( 'NONE', #262, #236, #155, .T. ) ;
#5 = VECTOR ( 'NONE', #78, 1000.000000000000000 ) ;
#6 = DIRECTION ( 'NONE',  ( -0.000000000000000000, -0.000000000000000000, -1.000000000000000000 ) ) ;
#7 = DIRECTION ( 'NONE',  ( 1.000000000000000000, 0.000000000000000000, 0.000000000000000000 ) ) ;
#8 = CARTESIAN_POINT ( 'NONE',  ( 0.000000000000000000, 0.000000000000000000, 165.0000000000000000 ) ) ;
#9 = APPROVAL ( #59, 'NEURÈENÝ' ) ;
#10 = DIRECTION ( 'NONE',  ( 1.000000000000000000, 0.000000000000000000, 0.000000000000000000 ) ) ;
#11 = CARTESIAN_POINT ( 'NONE',  ( 0.000000000000000000, 0.000000000000000000, 5.200000000000009948 ) ) ;
#12 = PERSON_AND_ORGANIZATION ( #147, #204 ) ;
#13 = CALENDAR_DATE ( 2022, 20, 6 ) ;
#14 = AXIS2_PLACEMENT_3D ( 'NONE', #192, #72, #265 ) ;
#15 = CIRCLE ( 'NONE', #100, 5.450000000000001066 ) ;
#16 = PERSON_AND_ORGANIZATION ( #147, #204 ) ;
#17 = DIRECTION ( 'NONE',  ( 0.000000000000000000, 0.000000000000000000, 1.000000000000000000 ) ) ;
#18 = CARTESIAN_POINT ( 'NONE',  ( 0.000000000000000000, 0.000000000000000000, 165.0000000000000000 ) ) ;
#19 = VERTEX_POINT ( 'NONE', #186 ) ;
#20 = APPROVAL_STATUS ( 'not_yet_approved' ) ;
#21 = EDGE_LOOP ( 'NONE', ( #276, #97 ) ) ;
#22 = EDGE_CURVE ( 'NONE', #274, #303, #27, .T. ) ;
#23 = CARTESIAN_POINT ( 'NONE',  ( 0.000000000000000000, 0.000000000000000000, 5.000000000000000000 ) ) ;
#24 = AXIS2_PLACEMENT_3D ( 'NONE', #283, #217, #7 ) ;
#25 = LINE ( 'NONE', #214, #256 ) ;
#26 = FACE_OUTER_BOUND ( 'NONE', #169, .T. ) ;
#27 = CIRCLE ( 'NONE', #93, 8.000000000000000000 ) ;
#28 = ORIENTED_EDGE ( 'NONE', *, *, #251, .F. ) ;
#29 = LINE ( 'NONE', #263, #176 ) ;
#30 = AXIS2_PLACEMENT_3D ( 'NONE', #152, #266, #50 ) ;
#31 = DIRECTION ( 'NONE',  ( -0.000000000000000000, -0.000000000000000000, -1.000000000000000000 ) ) ;
#32 = AXIS2_PLACEMENT_3D ( 'NONE', #286, #99, #241 ) ;
#33 = CARTESIAN_POINT ( 'NONE',  ( 0.000000000000000000, 0.000000000000000000, 5.200000000000009948 ) ) ;
#34 = APPROVAL ( #20, 'NEURÈENÝ' ) ;
#35 = PERSON_AND_ORGANIZATION_ROLE ( 'design_owner' ) ;
#36 = MECHANICAL_CONTEXT ( 'NONE', #133, 'mechanical' ) ;
#37 = MANIFOLD_SOLID_BREP ( 'Zaoblit1', #284 ) ;
#38 = ORIENTED_EDGE ( 'NONE', *, *, #135, .F. ) ;
#39 = ORIENTED_EDGE ( 'NONE', *, *, #118, .T. ) ;
#40 = CARTESIAN_POINT ( 'NONE',  ( 0.000000000000000000, 0.000000000000000000, 165.0000000000000000 ) ) ;
#41 = LOCAL_TIME ( 11, 37, 37.00000000000000000, #198 ) ;
#42 = APPROVAL_PERSON_ORGANIZATION ( #16, #34, #183 ) ;
#43 = CARTESIAN_POINT ( 'NONE',  ( -5.250000000000000888, 0.000000000000000000, 165.0000000000000000 ) ) ;
#44 = CC_DESIGN_PERSON_AND_ORGANIZATION_ASSIGNMENT ( #249, #35, ( #208 ) ) ;
#45 = EDGE_LOOP ( 'NONE', ( #90, #51, #71, #73 ) ) ;
#46 = ORIENTED_EDGE ( 'NONE', *, *, #4, .T. ) ;
#47 = DIRECTION ( 'NONE',  ( -1.000000000000000000, 1.224646799147353454E-16, 0.000000000000000000 ) ) ;
#48 = EDGE_CURVE ( 'NONE', #262, #70, #187, .T. ) ;
#49 = CYLINDRICAL_SURFACE ( 'NONE', #82, 8.000000000000000000 ) ;
#50 = DIRECTION ( 'NONE',  ( 1.000000000000000000, 0.000000000000000000, -0.000000000000000000 ) ) ;
#51 = ORIENTED_EDGE ( 'NONE', *, *, #251, .T. ) ;
#52 = DIRECTION ( 'NONE',  ( -0.000000000000000000, -0.000000000000000000, -1.000000000000000000 ) ) ;
#53 = CIRCLE ( 'NONE', #24, 8.000000000000000000 ) ;
#54 = DIRECTION ( 'NONE',  ( 1.000000000000000000, 0.000000000000000000, -0.000000000000000000 ) ) ;
#55 = PRODUCT_DEFINITION ( 'NEZNÁMÝ', '', #182, #111 ) ;
#56 = DIRECTION ( 'NONE',  ( 0.000000000000000000, 0.000000000000000000, 1.000000000000000000 ) ) ;
#57 = ADVANCED_FACE ( 'NONE', ( #121 ), #302, .F. ) ;
#58 =( NAMED_UNIT ( * ) SI_UNIT ( $, .STERADIAN. ) SOLID_ANGLE_UNIT ( ) );
#59 = APPROVAL_STATUS ( 'not_yet_approved' ) ;
#60 = DIRECTION ( 'NONE',  ( -0.000000000000000000, -0.000000000000000000, -1.000000000000000000 ) ) ;
#61 = AXIS2_PLACEMENT_3D ( 'NONE', #221, #243, #54 ) ;
#62 = EDGE_CURVE ( 'NONE', #191, #167, #15, .T. ) ;
#63 = ORIENTED_EDGE ( 'NONE', *, *, #168, .T. ) ;
#64 = SHAPE_DEFINITION_REPRESENTATION ( #160, #245 ) ;
#65 = DIRECTION ( 'NONE',  ( 0.000000000000000000, 0.000000000000000000, 1.000000000000000000 ) ) ;
#66 = DATE_AND_TIME ( #275, #252 ) ;
#67 = CC_DESIGN_PERSON_AND_ORGANIZATION_ASSIGNMENT ( #69, #278, ( #220 ) ) ;
#68 = EDGE_LOOP ( 'NONE', ( #89, #298 ) ) ;
#69 = PERSON_AND_ORGANIZATION ( #147, #204 ) ;
#70 = VERTEX_POINT ( 'NONE', #161 ) ;
#71 = ORIENTED_EDGE ( 'NONE', *, *, #197, .T. ) ;
#72 = DIRECTION ( 'NONE',  ( 0.000000000000000000, 0.000000000000000000, 1.000000000000000000 ) ) ;
#73 = ORIENTED_EDGE ( 'NONE', *, *, #118, .F. ) ;
#74 = CARTESIAN_POINT ( 'NONE',  ( 5.250000000000000888, 6.429395695523605139E-16, 165.0000000000000000 ) ) ;
#75 = FACE_OUTER_BOUND ( 'NONE', #21, .T. ) ;
#76 = CYLINDRICAL_SURFACE ( 'NONE', #142, 5.250000000000000888 ) ;
#77 = ADVANCED_FACE ( 'NONE', ( #253 ), #258, .T. ) ;
#78 = DIRECTION ( 'NONE',  ( -0.000000000000000000, -0.000000000000000000, -1.000000000000000000 ) ) ;
#79 = LOCAL_TIME ( 11, 37, 37.00000000000000000, #132 ) ;
#80 = PERSON_AND_ORGANIZATION_ROLE ( 'design_supplier' ) ;
#81 = DIRECTION ( 'NONE',  ( 0.000000000000000000, 0.000000000000000000, 1.000000000000000000 ) ) ;
#82 = AXIS2_PLACEMENT_3D ( 'NONE', #101, #31, #307 ) ;
#83 = EDGE_CURVE ( 'NONE', #237, #218, #138, .T. ) ;
#84 = PERSON_AND_ORGANIZATION ( #147, #204 ) ;
#85 = CC_DESIGN_SECURITY_CLASSIFICATION ( #220, ( #182 ) ) ;
#86 = CC_DESIGN_APPROVAL ( #9, ( #55 ) ) ;
#87 = APPROVAL_DATE_TIME ( #226, #248 ) ;
#88 = CC_DESIGN_PERSON_AND_ORGANIZATION_ASSIGNMENT ( #130, #80, ( #182 ) ) ;
#89 = ORIENTED_EDGE ( 'NONE', *, *, #62, .T. ) ;
#90 = ORIENTED_EDGE ( 'NONE', *, *, #22, .F. ) ;
#91 = ORIENTED_EDGE ( 'NONE', *, *, #145, .T. ) ;
#92 = PRODUCT_RELATED_PRODUCT_CATEGORY ( 'detail', '', ( #208 ) ) ;
#93 = AXIS2_PLACEMENT_3D ( 'NONE', #23, #65, #117 ) ;
#94 = FACE_OUTER_BOUND ( 'NONE', #45, .T. ) ;
#95 = ORIENTED_EDGE ( 'NONE', *, *, #150, .T. ) ;
#96 = APPLICATION_CONTEXT ( 'configuration controlled 3d designs of mechanical parts and assemblies' ) ;
#97 = ORIENTED_EDGE ( 'NONE', *, *, #22, .T. ) ;
#98 = AXIS2_PLACEMENT_3D ( 'NONE', #242, #194, #47 ) ;
#99 = DIRECTION ( 'NONE',  ( 0.000000000000000000, 0.000000000000000000, 1.000000000000000000 ) ) ;
#100 = AXIS2_PLACEMENT_3D ( 'NONE', #211, #60, #300 ) ;
#101 = CARTESIAN_POINT ( 'NONE',  ( 0.000000000000000000, 0.000000000000000000, 5.000000000000000000 ) ) ;
#102 = DIRECTION ( 'NONE',  ( 1.000000000000000000, 0.000000000000000000, 0.000000000000000000 ) ) ;
#103 = APPROVAL_PERSON_ORGANIZATION ( #110, #9, #129 ) ;
#104 = CARTESIAN_POINT ( 'NONE',  ( -5.250000000000000888, 0.000000000000000000, 165.0000000000000000 ) ) ;
#105 = CARTESIAN_POINT ( 'NONE',  ( 5.450000000000001066, 0.000000000000000000, 5.200000000000009948 ) ) ;
#106 = AXIS2_PLACEMENT_3D ( 'NONE', #119, #297, #164 ) ;
#107 = APPROVAL_STATUS ( 'not_yet_approved' ) ;
#108 = CIRCLE ( 'NONE', #98, 0.1999999999999996503 ) ;
#109 = CARTESIAN_POINT ( 'NONE',  ( 8.000000000000000000, 9.797174393178825657E-16, 5.000000000000000000 ) ) ;
#110 = PERSON_AND_ORGANIZATION ( #147, #204 ) ;
#111 = DESIGN_CONTEXT ( 'detailed design', #96, 'design' ) ;
#112 = AXIS2_PLACEMENT_3D ( 'NONE', #33, #287, #171 ) ;
#113 = ADVANCED_FACE ( 'NONE', ( #94 ), #49, .T. ) ;
#114 = COORDINATED_UNIVERSAL_TIME_OFFSET ( 1, 0, .AHEAD. ) ;
#115 = ORIENTED_EDGE ( 'NONE', *, *, #150, .F. ) ;
#116 = COORDINATED_UNIVERSAL_TIME_OFFSET ( 1, 0, .AHEAD. ) ;
#117 = DIRECTION ( 'NONE',  ( 1.000000000000000000, 0.000000000000000000, 0.000000000000000000 ) ) ;
#118 = EDGE_CURVE ( 'NONE', #303, #237, #25, .T. ) ;
#119 = CARTESIAN_POINT ( 'NONE',  ( 0.000000000000000000, 0.000000000000000000, 5.200000000000009948 ) ) ;
#120 = ORIENTED_EDGE ( 'NONE', *, *, #292, .F. ) ;
#121 = FACE_OUTER_BOUND ( 'NONE', #233, .T. ) ;
#122 = PLANE ( 'NONE',  #61 ) ;
#123 = CIRCLE ( 'NONE', #163, 5.450000000000001066 ) ;
#124 = FACE_BOUND ( 'NONE', #68, .T. ) ;
#125 = ORIENTED_EDGE ( 'NONE', *, *, #234, .F. ) ;
#126 = FACE_OUTER_BOUND ( 'NONE', #184, .T. ) ;
#127 = CC_DESIGN_PERSON_AND_ORGANIZATION_ASSIGNMENT ( #294, #159, ( #55 ) ) ;
#128 = DIRECTION ( 'NONE',  ( -0.000000000000000000, -0.000000000000000000, -1.000000000000000000 ) ) ;
#129 = APPROVAL_ROLE ( '' ) ;
#130 = PERSON_AND_ORGANIZATION ( #147, #204 ) ;
#131 = CARTESIAN_POINT ( 'NONE',  ( -8.000000000000000000, 0.000000000000000000, 5.000000000000000000 ) ) ;
#132 = COORDINATED_UNIVERSAL_TIME_OFFSET ( 1, 0, .AHEAD. ) ;
#133 = APPLICATION_CONTEXT ( 'configuration controlled 3d designs of mechanical parts and assemblies' ) ;
#134 =( LENGTH_UNIT ( ) NAMED_UNIT ( * ) SI_UNIT ( .MILLI., .METRE. ) );
#135 = EDGE_CURVE ( 'NONE', #167, #191, #123, .T. ) ;
#136 = AXIS2_PLACEMENT_3D ( 'NONE', #8, #179, #250 ) ;
#137 = DIRECTION ( 'NONE',  ( -0.000000000000000000, -0.000000000000000000, -1.000000000000000000 ) ) ;
#138 = CIRCLE ( 'NONE', #178, 8.000000000000000000 ) ;
#139 = EDGE_CURVE ( 'NONE', #236, #262, #290, .T. ) ;
#140 = EDGE_LOOP ( 'NONE', ( #115, #144, #304, #63 ) ) ;
#141 = CARTESIAN_POINT ( 'NONE',  ( 0.000000000000000000, 0.000000000000000000, 0.000000000000000000 ) ) ;
#142 = AXIS2_PLACEMENT_3D ( 'NONE', #267, #52, #196 ) ;
#143 = ORIENTED_EDGE ( 'NONE', *, *, #168, .F. ) ;
#144 = ORIENTED_EDGE ( 'NONE', *, *, #4, .F. ) ;
#145 = EDGE_CURVE ( 'NONE', #70, #167, #108, .T. ) ;
#146 = CYLINDRICAL_SURFACE ( 'NONE', #269, 8.000000000000000000 ) ;
#147 = PERSON ( 'NEURÈENÝ', 'NEURÈENÝ', 'NEURÈENÝ', ('NEURÈENÝ'), ('NEURÈENÝ'), ('NEURÈENÝ') ) ;
#148 = CARTESIAN_POINT ( 'NONE',  ( -5.450000000000001066, 6.674325055353076224E-16, 5.000000000000005329 ) ) ;
#149 = EDGE_LOOP ( 'NONE', ( #281, #120, #232, #38 ) ) ;
#150 = EDGE_CURVE ( 'NONE', #236, #19, #268, .T. ) ;
#151 = DIRECTION ( 'NONE',  ( 0.000000000000000000, 0.000000000000000000, -1.000000000000000000 ) ) ;
#152 = CARTESIAN_POINT ( 'NONE',  ( 0.000000000000000000, 0.000000000000000000, 5.000000000000000000 ) ) ;
#153 = CARTESIAN_POINT ( 'NONE',  ( 8.000000000000000000, 9.797174393178825657E-16, 0.000000000000000000 ) ) ;
#154 = AXIS2_PLACEMENT_3D ( 'NONE', #11, #81, #270 ) ;
#155 = CIRCLE ( 'NONE', #227, 5.250000000000000888 ) ;
#156 = DIRECTION ( 'NONE',  ( 1.000000000000000000, 0.000000000000000000, 0.000000000000000000 ) ) ;
#157 = PLANE ( 'NONE',  #136 ) ;
#158 = DATE_TIME_ROLE ( 'creation_date' ) ;
#159 = PERSON_AND_ORGANIZATION_ROLE ( 'creator' ) ;
#160 = PRODUCT_DEFINITION_SHAPE ( 'NONE', 'NONE',  #55 ) ;
#161 = CARTESIAN_POINT ( 'NONE',  ( -5.250000000000000888, 0.000000000000000000, 5.200000000000009948 ) ) ;
#162 = ORIENTED_EDGE ( 'NONE', *, *, #197, .F. ) ;
#163 = AXIS2_PLACEMENT_3D ( 'NONE', #3, #174, #102 ) ;
#164 = DIRECTION ( 'NONE',  ( 1.000000000000000000, 0.000000000000000000, 0.000000000000000000 ) ) ;
#165 = DIRECTION ( 'NONE',  ( 1.000000000000000000, 0.000000000000000000, 0.000000000000000000 ) ) ;
#166 =( GEOMETRIC_REPRESENTATION_CONTEXT ( 3 ) GLOBAL_UNCERTAINTY_ASSIGNED_CONTEXT ( ( #207 ) ) GLOBAL_UNIT_ASSIGNED_CONTEXT ( ( #134, #224, #58 ) ) REPRESENTATION_CONTEXT ( 'NONE', 'WORKASPACE' ) );
#167 = VERTEX_POINT ( 'NONE', #148 ) ;
#168 = EDGE_CURVE ( 'NONE', #70, #19, #305, .T. ) ;
#169 = EDGE_LOOP ( 'NONE', ( #277, #162 ) ) ;
#170 = CARTESIAN_POINT ( 'NONE',  ( -8.000000000000000000, 0.000000000000000000, 0.000000000000000000 ) ) ;
#171 = DIRECTION ( 'NONE',  ( 1.000000000000000000, 0.000000000000000000, 0.000000000000000000 ) ) ;
#172 = ADVANCED_FACE ( 'NONE', ( #124, #75 ), #173, .T. ) ;
#173 = PLANE ( 'NONE',  #30 ) ;
#174 = DIRECTION ( 'NONE',  ( -0.000000000000000000, -0.000000000000000000, -1.000000000000000000 ) ) ;
#175 = CARTESIAN_POINT ( 'NONE',  ( 5.450000000000001066, 0.000000000000000000, 5.000000000000005329 ) ) ;
#176 = VECTOR ( 'NONE', #216, 1000.000000000000000 ) ;
#177 = DIRECTION ( 'NONE',  ( 0.000000000000000000, 0.000000000000000000, 1.000000000000000000 ) ) ;
#178 = AXIS2_PLACEMENT_3D ( 'NONE', #141, #17, #212 ) ;
#179 = DIRECTION ( 'NONE',  ( 0.000000000000000000, 0.000000000000000000, 1.000000000000000000 ) ) ;
#180 = LOCAL_TIME ( 11, 37, 37.00000000000000000, #201 ) ;
#181 = DATE_AND_TIME ( #296, #41 ) ;
#182 = PRODUCT_DEFINITION_FORMATION_WITH_SPECIFIED_SOURCE ( 'LIBOVOLNÝ', '', #208, .NOT_KNOWN. ) ;
#183 = APPROVAL_ROLE ( '' ) ;
#184 = EDGE_LOOP ( 'NONE', ( #28, #282, #39, #185 ) ) ;
#185 = ORIENTED_EDGE ( 'NONE', *, *, #83, .T. ) ;
#186 = CARTESIAN_POINT ( 'NONE',  ( 5.250000000000000888, 6.429395695523605139E-16, 5.200000000000009948 ) ) ;
#187 = LINE ( 'NONE', #43, #202 ) ;
#188 = DATE_TIME_ROLE ( 'classification_date' ) ;
#189 = ORIENTED_EDGE ( 'NONE', *, *, #48, .F. ) ;
#190 = AXIS2_PLACEMENT_3D ( 'NONE', #225, #56, #10 ) ;
#191 = VERTEX_POINT ( 'NONE', #175 ) ;
#192 = CARTESIAN_POINT ( 'NONE',  ( 0.000000000000000000, 0.000000000000000000, 5.200000000000009948 ) ) ;
#193 = ADVANCED_FACE ( 'NONE', ( #26 ), #122, .F. ) ;
#194 = DIRECTION ( 'NONE',  ( 1.224646799147353207E-16, 1.000000000000000000, -0.000000000000000000 ) ) ;
#195 = CARTESIAN_POINT ( 'NONE',  ( 5.250000000000000888, 6.429395695523605139E-16, 165.0000000000000000 ) ) ;
#196 = DIRECTION ( 'NONE',  ( -1.000000000000000000, 0.000000000000000000, 0.000000000000000000 ) ) ;
#197 = EDGE_CURVE ( 'NONE', #218, #237, #53, .T. ) ;
#198 = COORDINATED_UNIVERSAL_TIME_OFFSET ( 1, 0, .AHEAD. ) ;
#199 = CIRCLE ( 'NONE', #230, 0.1999999999999996503 ) ;
#200 = CALENDAR_DATE ( 2022, 20, 6 ) ;
#201 = COORDINATED_UNIVERSAL_TIME_OFFSET ( 1, 0, .AHEAD. ) ;
#202 = VECTOR ( 'NONE', #260, 1000.000000000000000 ) ;
#203 = CC_DESIGN_PERSON_AND_ORGANIZATION_ASSIGNMENT ( #12, #291, ( #182 ) ) ;
#204 = ORGANIZATION ( 'NEURÈENÝ', 'NEURÈENÝ', '' ) ;
#205 = DATE_AND_TIME ( #200, #180 ) ;
#206 = CC_DESIGN_APPROVAL ( #34, ( #220 ) ) ;
#207 = UNCERTAINTY_MEASURE_WITH_UNIT (LENGTH_MEASURE( 1.000000000000000082E-05 ), #134, 'distance_accuracy_value', 'NONE');
#208 = PRODUCT ( '5d71', '5d71', '', ( #36 ) ) ;
#209 = ORIENTED_EDGE ( 'NONE', *, *, #139, .F. ) ;
#210 = APPROVAL_DATE_TIME ( #280, #34 ) ;
#211 = CARTESIAN_POINT ( 'NONE',  ( 0.000000000000000000, 0.000000000000000000, 5.000000000000000000 ) ) ;
#212 = DIRECTION ( 'NONE',  ( 1.000000000000000000, 0.000000000000000000, 0.000000000000000000 ) ) ;
#213 = ORIENTED_EDGE ( 'NONE', *, *, #139, .T. ) ;
#214 = CARTESIAN_POINT ( 'NONE',  ( -8.000000000000000000, 0.000000000000000000, 5.000000000000000000 ) ) ;
#215 = CIRCLE ( 'NONE', #295, 8.000000000000000000 ) ;
#216 = DIRECTION ( 'NONE',  ( -0.000000000000000000, -0.000000000000000000, -1.000000000000000000 ) ) ;
#217 = DIRECTION ( 'NONE',  ( 0.000000000000000000, 0.000000000000000000, 1.000000000000000000 ) ) ;
#218 = VERTEX_POINT ( 'NONE', #153 ) ;
#219 = CARTESIAN_POINT ( 'NONE',  ( 0.000000000000000000, 0.000000000000000000, 5.000000000000000000 ) ) ;
#220 = SECURITY_CLASSIFICATION ( '', '', #293 ) ;
#221 = CARTESIAN_POINT ( 'NONE',  ( 0.000000000000000000, 0.000000000000000000, 0.000000000000000000 ) ) ;
#222 = ADVANCED_FACE ( 'NONE', ( #1 ), #240, .F. ) ;
#223 = APPROVAL_ROLE ( '' ) ;
#224 =( NAMED_UNIT ( * ) PLANE_ANGLE_UNIT ( ) SI_UNIT ( $, .RADIAN. ) );
#225 = CARTESIAN_POINT ( 'NONE',  ( 0.000000000000000000, 0.000000000000000000, 0.000000000000000000 ) ) ;
#226 = DATE_AND_TIME ( #13, #79 ) ;
#227 = AXIS2_PLACEMENT_3D ( 'NONE', #18, #261, #165 ) ;
#228 = APPROVAL_DATE_TIME ( #205, #9 ) ;
#229 = APPROVAL_PERSON_ORGANIZATION ( #84, #248, #223 ) ;
#230 = AXIS2_PLACEMENT_3D ( 'NONE', #105, #246, #151 ) ;
#231 = DIRECTION ( 'NONE',  ( -1.000000000000000000, 0.000000000000000000, 0.000000000000000000 ) ) ;
#232 = ORIENTED_EDGE ( 'NONE', *, *, #234, .T. ) ;
#233 = EDGE_LOOP ( 'NONE', ( #143, #91, #301, #125 ) ) ;
#234 = EDGE_CURVE ( 'NONE', #19, #191, #199, .T. ) ;
#235 = CIRCLE ( 'NONE', #154, 5.250000000000000888 ) ;
#236 = VERTEX_POINT ( 'NONE', #74 ) ;
#237 = VERTEX_POINT ( 'NONE', #170 ) ;
#238 = CC_DESIGN_DATE_AND_TIME_ASSIGNMENT ( #66, #188, ( #220 ) ) ;
#239 = DIRECTION ( 'NONE',  ( -1.000000000000000000, 0.000000000000000000, 0.000000000000000000 ) ) ;
#240 = TOROIDAL_SURFACE ( 'NONE', #14, 5.450000000000001066, 0.2000000000000000111 ) ;
#241 = DIRECTION ( 'NONE',  ( 1.000000000000000000, 0.000000000000000000, 0.000000000000000000 ) ) ;
#242 = CARTESIAN_POINT ( 'NONE',  ( -5.450000000000001066, 6.674325055353076224E-16, 5.200000000000009948 ) ) ;
#243 = DIRECTION ( 'NONE',  ( 0.000000000000000000, 0.000000000000000000, 1.000000000000000000 ) ) ;
#244 = LOCAL_TIME ( 11, 37, 37.00000000000000000, #114 ) ;
#245 = ADVANCED_BREP_SHAPE_REPRESENTATION ( '5d71', ( #37, #190 ), #166 ) ;
#246 = DIRECTION ( 'NONE',  ( 0.000000000000000000, -1.000000000000000000, 0.000000000000000000 ) ) ;
#247 = APPLICATION_PROTOCOL_DEFINITION ( 'international standard', 'config_control_design', 1994, #133 ) ;
#248 = APPROVAL ( #107, 'NEURÈENÝ' ) ;
#249 = PERSON_AND_ORGANIZATION ( #147, #204 ) ;
#250 = DIRECTION ( 'NONE',  ( 1.000000000000000000, 0.000000000000000000, -0.000000000000000000 ) ) ;
#251 = EDGE_CURVE ( 'NONE', #274, #218, #29, .T. ) ;
#252 = LOCAL_TIME ( 11, 37, 37.00000000000000000, #116 ) ;
#253 = FACE_OUTER_BOUND ( 'NONE', #255, .T. ) ;
#254 = CALENDAR_DATE ( 2022, 20, 6 ) ;
#255 = EDGE_LOOP ( 'NONE', ( #209, #95, #285, #189 ) ) ;
#256 = VECTOR ( 'NONE', #128, 1000.000000000000000 ) ;
#257 = ADVANCED_FACE ( 'NONE', ( #126 ), #146, .T. ) ;
#258 = CYLINDRICAL_SURFACE ( 'NONE', #2, 5.250000000000000888 ) ;
#259 = CC_DESIGN_APPROVAL ( #248, ( #182 ) ) ;
#260 = DIRECTION ( 'NONE',  ( -0.000000000000000000, -0.000000000000000000, -1.000000000000000000 ) ) ;
#261 = DIRECTION ( 'NONE',  ( 0.000000000000000000, 0.000000000000000000, 1.000000000000000000 ) ) ;
#262 = VERTEX_POINT ( 'NONE', #104 ) ;
#263 = CARTESIAN_POINT ( 'NONE',  ( 8.000000000000000000, 9.797174393178825657E-16, 5.000000000000000000 ) ) ;
#264 = ADVANCED_FACE ( 'NONE', ( #288 ), #76, .T. ) ;
#265 = DIRECTION ( 'NONE',  ( 1.000000000000000000, 0.000000000000000000, 0.000000000000000000 ) ) ;
#266 = DIRECTION ( 'NONE',  ( 0.000000000000000000, 0.000000000000000000, 1.000000000000000000 ) ) ;
#267 = CARTESIAN_POINT ( 'NONE',  ( 0.000000000000000000, 0.000000000000000000, 165.0000000000000000 ) ) ;
#268 = LINE ( 'NONE', #195, #5 ) ;
#269 = AXIS2_PLACEMENT_3D ( 'NONE', #219, #6, #239 ) ;
#270 = DIRECTION ( 'NONE',  ( 1.000000000000000000, 0.000000000000000000, 0.000000000000000000 ) ) ;
#271 = FACE_OUTER_BOUND ( 'NONE', #279, .T. ) ;
#272 = APPLICATION_PROTOCOL_DEFINITION ( 'international standard', 'config_control_design', 1994, #96 ) ;
#273 = EDGE_CURVE ( 'NONE', #303, #274, #215, .T. ) ;
#274 = VERTEX_POINT ( 'NONE', #109 ) ;
#275 = CALENDAR_DATE ( 2022, 20, 6 ) ;
#276 = ORIENTED_EDGE ( 'NONE', *, *, #273, .T. ) ;
#277 = ORIENTED_EDGE ( 'NONE', *, *, #83, .F. ) ;
#278 = PERSON_AND_ORGANIZATION_ROLE ( 'classification_officer' ) ;
#279 = EDGE_LOOP ( 'NONE', ( #46, #213 ) ) ;
#280 = DATE_AND_TIME ( #254, #244 ) ;
#281 = ORIENTED_EDGE ( 'NONE', *, *, #145, .F. ) ;
#282 = ORIENTED_EDGE ( 'NONE', *, *, #273, .F. ) ;
#283 = CARTESIAN_POINT ( 'NONE',  ( 0.000000000000000000, 0.000000000000000000, 0.000000000000000000 ) ) ;
#284 = CLOSED_SHELL ( 'NONE', ( #57, #77, #113, #257, #172, #193, #264, #299, #222 ) ) ;
#285 = ORIENTED_EDGE ( 'NONE', *, *, #292, .T. ) ;
#286 = CARTESIAN_POINT ( 'NONE',  ( 0.000000000000000000, 0.000000000000000000, 165.0000000000000000 ) ) ;
#287 = DIRECTION ( 'NONE',  ( 0.000000000000000000, 0.000000000000000000, 1.000000000000000000 ) ) ;
#288 = FACE_OUTER_BOUND ( 'NONE', #140, .T. ) ;
#289 = CARTESIAN_POINT ( 'NONE',  ( 0.000000000000000000, 0.000000000000000000, 5.000000000000000000 ) ) ;
#290 = CIRCLE ( 'NONE', #32, 5.250000000000000888 ) ;
#291 = PERSON_AND_ORGANIZATION_ROLE ( 'creator' ) ;
#292 = EDGE_CURVE ( 'NONE', #19, #70, #235, .T. ) ;
#293 = SECURITY_CLASSIFICATION_LEVEL ( 'unclassified' ) ;
#294 = PERSON_AND_ORGANIZATION ( #147, #204 ) ;
#295 = AXIS2_PLACEMENT_3D ( 'NONE', #289, #177, #156 ) ;
#296 = CALENDAR_DATE ( 2022, 20, 6 ) ;
#297 = DIRECTION ( 'NONE',  ( 0.000000000000000000, 0.000000000000000000, 1.000000000000000000 ) ) ;
#298 = ORIENTED_EDGE ( 'NONE', *, *, #135, .T. ) ;
#299 = ADVANCED_FACE ( 'NONE', ( #271 ), #157, .T. ) ;
#300 = DIRECTION ( 'NONE',  ( 1.000000000000000000, 0.000000000000000000, 0.000000000000000000 ) ) ;
#301 = ORIENTED_EDGE ( 'NONE', *, *, #62, .F. ) ;
#302 = TOROIDAL_SURFACE ( 'NONE', #106, 5.450000000000001066, 0.2000000000000000111 ) ;
#303 = VERTEX_POINT ( 'NONE', #131 ) ;
#304 = ORIENTED_EDGE ( 'NONE', *, *, #48, .T. ) ;
#305 = CIRCLE ( 'NONE', #112, 5.250000000000000888 ) ;
#306 = CC_DESIGN_DATE_AND_TIME_ASSIGNMENT ( #181, #158, ( #55 ) ) ;
#307 = DIRECTION ( 'NONE',  ( -1.000000000000000000, 0.000000000000000000, 0.000000000000000000 ) ) ;
ENDSEC;
END-ISO-10303-21;
