ISO-10303-21;
HEADER;
FILE_DESCRIPTION (( 'STEP AP203' ),
    '1' );
FILE_NAME ('f284.STEP',
    '2022-06-20T09:28:38',
    ( '' ),
    ( '' ),
    'SwSTEP 2.0',
    'SolidWorks 2019',
    '' );
FILE_SCHEMA (( 'CONFIG_CONTROL_DESIGN' ));
ENDSEC;

DATA;
#1 = EDGE_LOOP ( 'NONE', ( #111, #250, #274, #157 ) ) ;
#2 = CARTESIAN_POINT ( 'NONE',  ( 0.000000000000000000, 0.000000000000000000, 0.000000000000000000 ) ) ;
#3 = CARTESIAN_POINT ( 'NONE',  ( 0.000000000000000000, 0.000000000000000000, 7.200000000000011724 ) ) ;
#4 = DIRECTION ( 'NONE',  ( 1.000000000000000000, 0.000000000000000000, -0.000000000000000000 ) ) ;
#5 = DIRECTION ( 'NONE',  ( 1.000000000000000000, 0.000000000000000000, 0.000000000000000000 ) ) ;
#6 = AXIS2_PLACEMENT_3D ( 'NONE', #287, #45, #169 ) ;
#7 = EDGE_CURVE ( 'NONE', #131, #129, #139, .T. ) ;
#8 = LOCAL_TIME ( 11, 28, 38.00000000000000000, #108 ) ;
#9 = FACE_OUTER_BOUND ( 'NONE', #280, .T. ) ;
#10 = DIRECTION ( 'NONE',  ( 0.000000000000000000, 0.000000000000000000, 1.000000000000000000 ) ) ;
#11 =( NAMED_UNIT ( * ) SI_UNIT ( $, .STERADIAN. ) SOLID_ANGLE_UNIT ( ) );
#12 = CC_DESIGN_DATE_AND_TIME_ASSIGNMENT ( #300, #64, ( #134 ) ) ;
#13 = LOCAL_TIME ( 11, 28, 38.00000000000000000, #132 ) ;
#14 = CARTESIAN_POINT ( 'NONE',  ( 6.250000000000000000, 7.654042494670957606E-16, 207.0000000000000284 ) ) ;
#15 = CC_DESIGN_PERSON_AND_ORGANIZATION_ASSIGNMENT ( #21, #230, ( #296 ) ) ;
#16 = CC_DESIGN_APPROVAL ( #239, ( #296 ) ) ;
#17 = DIRECTION ( 'NONE',  ( 1.000000000000000000, 0.000000000000000000, 0.000000000000000000 ) ) ;
#18 = APPROVAL_DATE_TIME ( #159, #239 ) ;
#19 = EDGE_LOOP ( 'NONE', ( #214, #277, #304, #42 ) ) ;
#20 = TOROIDAL_SURFACE ( 'NONE', #198, 6.450000000000000178, 0.2000000000000000111 ) ;
#21 = PERSON_AND_ORGANIZATION ( #281, #58 ) ;
#22 = EDGE_LOOP ( 'NONE', ( #107, #65 ) ) ;
#23 = CC_DESIGN_DATE_AND_TIME_ASSIGNMENT ( #110, #254, ( #149 ) ) ;
#24 = DIRECTION ( 'NONE',  ( 0.000000000000000000, 0.000000000000000000, 1.000000000000000000 ) ) ;
#25 = EDGE_CURVE ( 'NONE', #242, #131, #73, .T. ) ;
#26 = FACE_OUTER_BOUND ( 'NONE', #253, .T. ) ;
#27 = PLANE ( 'NONE',  #259 ) ;
#28 = CARTESIAN_POINT ( 'NONE',  ( 0.000000000000000000, 0.000000000000000000, 7.200000000000011724 ) ) ;
#29 = FACE_OUTER_BOUND ( 'NONE', #231, .T. ) ;
#30 = CIRCLE ( 'NONE', #87, 6.250000000000000000 ) ;
#31 = DIRECTION ( 'NONE',  ( 0.000000000000000000, 0.000000000000000000, 1.000000000000000000 ) ) ;
#32 = EDGE_CURVE ( 'NONE', #187, #109, #154, .T. ) ;
#33 = CLOSED_SHELL ( 'NONE', ( #63, #199, #36, #53, #56, #120, #69, #256, #202 ) ) ;
#34 = DIRECTION ( 'NONE',  ( 1.224646799147353207E-16, 1.000000000000000000, -0.000000000000000000 ) ) ;
#35 = AXIS2_PLACEMENT_3D ( 'NONE', #226, #155, #17 ) ;
#36 = ADVANCED_FACE ( 'NONE', ( #261 ), #191, .T. ) ;
#37 = DATE_AND_TIME ( #208, #8 ) ;
#38 = VERTEX_POINT ( 'NONE', #166 ) ;
#39 = APPROVAL_ROLE ( '' ) ;
#40 = ORIENTED_EDGE ( 'NONE', *, *, #144, .T. ) ;
#41 = APPROVAL_ROLE ( '' ) ;
#42 = ORIENTED_EDGE ( 'NONE', *, *, #275, .F. ) ;
#43 = PERSON_AND_ORGANIZATION ( #281, #58 ) ;
#44 = ORIENTED_EDGE ( 'NONE', *, *, #7, .F. ) ;
#45 = DIRECTION ( 'NONE',  ( -0.000000000000000000, -0.000000000000000000, -1.000000000000000000 ) ) ;
#46 = DIRECTION ( 'NONE',  ( -0.000000000000000000, -0.000000000000000000, -1.000000000000000000 ) ) ;
#47 = FACE_OUTER_BOUND ( 'NONE', #22, .T. ) ;
#48 = DIRECTION ( 'NONE',  ( 1.000000000000000000, 0.000000000000000000, -0.000000000000000000 ) ) ;
#49 = PLANE ( 'NONE',  #90 ) ;
#50 = DIRECTION ( 'NONE',  ( 1.000000000000000000, 0.000000000000000000, 0.000000000000000000 ) ) ;
#51 = AXIS2_PLACEMENT_3D ( 'NONE', #170, #55, #148 ) ;
#52 = DIRECTION ( 'NONE',  ( 0.000000000000000000, 0.000000000000000000, 1.000000000000000000 ) ) ;
#53 = ADVANCED_FACE ( 'NONE', ( #26 ), #218, .T. ) ;
#54 = DIRECTION ( 'NONE',  ( 0.000000000000000000, 0.000000000000000000, 1.000000000000000000 ) ) ;
#55 = DIRECTION ( 'NONE',  ( 0.000000000000000000, 0.000000000000000000, 1.000000000000000000 ) ) ;
#56 = ADVANCED_FACE ( 'NONE', ( #241, #240 ), #49, .T. ) ;
#57 = CARTESIAN_POINT ( 'NONE',  ( 6.450000000000000178, 0.000000000000000000, 7.200000000000011724 ) ) ;
#58 = ORGANIZATION ( 'NEURÈENÝ', 'NEURÈENÝ', '' ) ;
#59 = APPROVAL_STATUS ( 'not_yet_approved' ) ;
#60 = ORIENTED_EDGE ( 'NONE', *, *, #232, .T. ) ;
#61 = VERTEX_POINT ( 'NONE', #286 ) ;
#62 = ORIENTED_EDGE ( 'NONE', *, *, #220, .F. ) ;
#63 = ADVANCED_FACE ( 'NONE', ( #29 ), #20, .F. ) ;
#64 = DATE_TIME_ROLE ( 'creation_date' ) ;
#65 = ORIENTED_EDGE ( 'NONE', *, *, #32, .F. ) ;
#66 = APPROVAL_ROLE ( '' ) ;
#67 = ORIENTED_EDGE ( 'NONE', *, *, #25, .T. ) ;
#68 = VECTOR ( 'NONE', #265, 1000.000000000000000 ) ;
#69 = ADVANCED_FACE ( 'NONE', ( #9 ), #193, .T. ) ;
#70 = CARTESIAN_POINT ( 'NONE',  ( 6.250000000000000000, 7.654042494670957606E-16, 7.200000000000011724 ) ) ;
#71 = LOCAL_TIME ( 11, 28, 38.00000000000000000, #103 ) ;
#72 = DIRECTION ( 'NONE',  ( 0.000000000000000000, 0.000000000000000000, 1.000000000000000000 ) ) ;
#73 = LINE ( 'NONE', #215, #68 ) ;
#74 = APPROVAL_PERSON_ORGANIZATION ( #276, #94, #66 ) ;
#75 = DESIGN_CONTEXT ( 'detailed design', #297, 'design' ) ;
#76 = DIRECTION ( 'NONE',  ( -0.000000000000000000, -0.000000000000000000, -1.000000000000000000 ) ) ;
#77 = FACE_OUTER_BOUND ( 'NONE', #209, .T. ) ;
#78 = CARTESIAN_POINT ( 'NONE',  ( 0.000000000000000000, 0.000000000000000000, 7.200000000000011724 ) ) ;
#79 = CARTESIAN_POINT ( 'NONE',  ( 9.000000000000000000, 1.102182119232617714E-15, 7.000000000000000000 ) ) ;
#80 = CC_DESIGN_PERSON_AND_ORGANIZATION_ASSIGNMENT ( #186, #105, ( #149 ) ) ;
#81 = CARTESIAN_POINT ( 'NONE',  ( -6.250000000000000000, 0.000000000000000000, 207.0000000000000284 ) ) ;
#82 = APPLICATION_PROTOCOL_DEFINITION ( 'international standard', 'config_control_design', 1994, #297 ) ;
#83 = ORIENTED_EDGE ( 'NONE', *, *, #194, .T. ) ;
#84 = EDGE_CURVE ( 'NONE', #228, #242, #263, .T. ) ;
#85 = SECURITY_CLASSIFICATION_LEVEL ( 'unclassified' ) ;
#86 = ORIENTED_EDGE ( 'NONE', *, *, #84, .T. ) ;
#87 = AXIS2_PLACEMENT_3D ( 'NONE', #28, #219, #5 ) ;
#88 = EDGE_CURVE ( 'NONE', #228, #129, #289, .T. ) ;
#89 = VERTEX_POINT ( 'NONE', #140 ) ;
#90 = AXIS2_PLACEMENT_3D ( 'NONE', #119, #138, #48 ) ;
#91 = DIRECTION ( 'NONE',  ( 1.000000000000000000, 0.000000000000000000, 0.000000000000000000 ) ) ;
#92 = DIRECTION ( 'NONE',  ( 1.000000000000000000, 0.000000000000000000, 0.000000000000000000 ) ) ;
#93 = DIRECTION ( 'NONE',  ( 0.000000000000000000, 0.000000000000000000, 1.000000000000000000 ) ) ;
#94 = APPROVAL ( #59, 'NEURÈENÝ' ) ;
#95 = CARTESIAN_POINT ( 'NONE',  ( 0.000000000000000000, 0.000000000000000000, 207.0000000000000284 ) ) ;
#96 = CIRCLE ( 'NONE', #125, 9.000000000000000000 ) ;
#97 = CARTESIAN_POINT ( 'NONE',  ( 0.000000000000000000, 0.000000000000000000, 0.000000000000000000 ) ) ;
#98 = PLANE ( 'NONE',  #51 ) ;
#99 = FACE_OUTER_BOUND ( 'NONE', #19, .T. ) ;
#100 = AXIS2_PLACEMENT_3D ( 'NONE', #268, #54, #201 ) ;
#101 = APPLICATION_PROTOCOL_DEFINITION ( 'international standard', 'config_control_design', 1994, #164 ) ;
#102 = EDGE_CURVE ( 'NONE', #38, #61, #299, .T. ) ;
#103 = COORDINATED_UNIVERSAL_TIME_OFFSET ( 1, 0, .AHEAD. ) ;
#104 = AXIS2_PLACEMENT_3D ( 'NONE', #267, #10, #266 ) ;
#105 = PERSON_AND_ORGANIZATION_ROLE ( 'classification_officer' ) ;
#106 = EDGE_LOOP ( 'NONE', ( #236, #207, #40, #133 ) ) ;
#107 = ORIENTED_EDGE ( 'NONE', *, *, #232, .F. ) ;
#108 = COORDINATED_UNIVERSAL_TIME_OFFSET ( 1, 0, .AHEAD. ) ;
#109 = VERTEX_POINT ( 'NONE', #262 ) ;
#110 = DATE_AND_TIME ( #156, #112 ) ;
#111 = ORIENTED_EDGE ( 'NONE', *, *, #194, .F. ) ;
#112 = LOCAL_TIME ( 11, 28, 38.00000000000000000, #279 ) ;
#113 = MANIFOLD_SOLID_BREP ( 'Zaoblit1', #33 ) ;
#114 = CARTESIAN_POINT ( 'NONE',  ( 6.250000000000000000, 7.654042494670957606E-16, 207.0000000000000284 ) ) ;
#115 = UNCERTAINTY_MEASURE_WITH_UNIT (LENGTH_MEASURE( 1.000000000000000082E-05 ), #126, 'distance_accuracy_value', 'NONE');
#116 = DIRECTION ( 'NONE',  ( -0.000000000000000000, -0.000000000000000000, -1.000000000000000000 ) ) ;
#117 = DIRECTION ( 'NONE',  ( 0.000000000000000000, 0.000000000000000000, 1.000000000000000000 ) ) ;
#118 = DIRECTION ( 'NONE',  ( -1.000000000000000000, 0.000000000000000000, 0.000000000000000000 ) ) ;
#119 = CARTESIAN_POINT ( 'NONE',  ( 0.000000000000000000, 0.000000000000000000, 7.000000000000000000 ) ) ;
#120 = ADVANCED_FACE ( 'NONE', ( #47 ), #27, .F. ) ;
#121 = AXIS2_PLACEMENT_3D ( 'NONE', #197, #245, #50 ) ;
#122 = FACE_OUTER_BOUND ( 'NONE', #106, .T. ) ;
#123 =( NAMED_UNIT ( * ) PLANE_ANGLE_UNIT ( ) SI_UNIT ( $, .RADIAN. ) );
#124 = DIRECTION ( 'NONE',  ( -0.000000000000000000, -0.000000000000000000, -1.000000000000000000 ) ) ;
#125 = AXIS2_PLACEMENT_3D ( 'NONE', #244, #31, #150 ) ;
#126 =( LENGTH_UNIT ( ) NAMED_UNIT ( * ) SI_UNIT ( .MILLI., .METRE. ) );
#127 = APPROVAL ( #128, 'NEURÈENÝ' ) ;
#128 = APPROVAL_STATUS ( 'not_yet_approved' ) ;
#129 = VERTEX_POINT ( 'NONE', #70 ) ;
#130 = VECTOR ( 'NONE', #124, 1000.000000000000000 ) ;
#131 = VERTEX_POINT ( 'NONE', #142 ) ;
#132 = COORDINATED_UNIVERSAL_TIME_OFFSET ( 1, 0, .AHEAD. ) ;
#133 = ORIENTED_EDGE ( 'NONE', *, *, #25, .F. ) ;
#134 = PRODUCT_DEFINITION ( 'NEZNÁMÝ', '', #296, #75 ) ;
#135 = PERSON_AND_ORGANIZATION ( #281, #58 ) ;
#136 = ORIENTED_EDGE ( 'NONE', *, *, #288, .T. ) ;
#137 = CARTESIAN_POINT ( 'NONE',  ( 0.000000000000000000, 0.000000000000000000, 7.000000000000000000 ) ) ;
#138 = DIRECTION ( 'NONE',  ( 0.000000000000000000, 0.000000000000000000, 1.000000000000000000 ) ) ;
#139 = CIRCLE ( 'NONE', #224, 6.250000000000000000 ) ;
#140 = CARTESIAN_POINT ( 'NONE',  ( -9.000000000000000000, 0.000000000000000000, 7.000000000000000000 ) ) ;
#141 = CIRCLE ( 'NONE', #301, 0.1999999999999996503 ) ;
#142 = CARTESIAN_POINT ( 'NONE',  ( -6.250000000000000000, 0.000000000000000000, 7.200000000000011724 ) ) ;
#143 = CARTESIAN_POINT ( 'NONE',  ( 9.000000000000000000, 1.102182119232617714E-15, 0.000000000000000000 ) ) ;
#144 = EDGE_CURVE ( 'NONE', #129, #131, #30, .T. ) ;
#145 = CYLINDRICAL_SURFACE ( 'NONE', #271, 6.250000000000000000 ) ;
#146 = AXIS2_PLACEMENT_3D ( 'NONE', #57, #222, #175 ) ;
#147 = DIRECTION ( 'NONE',  ( 1.000000000000000000, 0.000000000000000000, 0.000000000000000000 ) ) ;
#148 = DIRECTION ( 'NONE',  ( 1.000000000000000000, 0.000000000000000000, -0.000000000000000000 ) ) ;
#149 = SECURITY_CLASSIFICATION ( '', '', #85 ) ;
#150 = DIRECTION ( 'NONE',  ( 1.000000000000000000, 0.000000000000000000, 0.000000000000000000 ) ) ;
#151 = DATE_AND_TIME ( #283, #177 ) ;
#152 = ORIENTED_EDGE ( 'NONE', *, *, #102, .T. ) ;
#153 = ORIENTED_EDGE ( 'NONE', *, *, #275, .T. ) ;
#154 = CIRCLE ( 'NONE', #189, 9.000000000000000000 ) ;
#155 = DIRECTION ( 'NONE',  ( 0.000000000000000000, 0.000000000000000000, 1.000000000000000000 ) ) ;
#156 = CALENDAR_DATE ( 2022, 20, 6 ) ;
#157 = ORIENTED_EDGE ( 'NONE', *, *, #158, .F. ) ;
#158 = EDGE_CURVE ( 'NONE', #89, #109, #195, .T. ) ;
#159 = DATE_AND_TIME ( #272, #13 ) ;
#160 = EDGE_LOOP ( 'NONE', ( #152, #153 ) ) ;
#161 = AXIS2_PLACEMENT_3D ( 'NONE', #192, #217, #264 ) ;
#162 = APPROVAL_PERSON_ORGANIZATION ( #135, #127, #41 ) ;
#163 = DIRECTION ( 'NONE',  ( -0.000000000000000000, -0.000000000000000000, -1.000000000000000000 ) ) ;
#164 = APPLICATION_CONTEXT ( 'configuration controlled 3d designs of mechanical parts and assemblies' ) ;
#165 = DIRECTION ( 'NONE',  ( 0.000000000000000000, 0.000000000000000000, 1.000000000000000000 ) ) ;
#166 = CARTESIAN_POINT ( 'NONE',  ( 6.450000000000000178, 0.000000000000000000, 7.000000000000006217 ) ) ;
#167 = CARTESIAN_POINT ( 'NONE',  ( 0.000000000000000000, 0.000000000000000000, 207.0000000000000284 ) ) ;
#168 = VECTOR ( 'NONE', #76, 1000.000000000000000 ) ;
#169 = DIRECTION ( 'NONE',  ( -1.000000000000000000, 0.000000000000000000, 0.000000000000000000 ) ) ;
#170 = CARTESIAN_POINT ( 'NONE',  ( 0.000000000000000000, 0.000000000000000000, 207.0000000000000284 ) ) ;
#171 = DIRECTION ( 'NONE',  ( -1.000000000000000000, 1.224646799147353454E-16, 0.000000000000000000 ) ) ;
#172 = CIRCLE ( 'NONE', #146, 0.1999999999999996503 ) ;
#173 = CARTESIAN_POINT ( 'NONE',  ( 9.000000000000000000, 1.102182119232617714E-15, 7.000000000000000000 ) ) ;
#174 = CC_DESIGN_PERSON_AND_ORGANIZATION_ASSIGNMENT ( #235, #212, ( #134 ) ) ;
#175 = DIRECTION ( 'NONE',  ( 0.000000000000000000, 0.000000000000000000, -1.000000000000000000 ) ) ;
#176 = VECTOR ( 'NONE', #46, 1000.000000000000000 ) ;
#177 = LOCAL_TIME ( 11, 28, 38.00000000000000000, #306 ) ;
#178 = CC_DESIGN_PERSON_AND_ORGANIZATION_ASSIGNMENT ( #43, #179, ( #296 ) ) ;
#179 = PERSON_AND_ORGANIZATION_ROLE ( 'creator' ) ;
#180 = ORIENTED_EDGE ( 'NONE', *, *, #210, .F. ) ;
#181 = APPROVAL_STATUS ( 'not_yet_approved' ) ;
#182 = ORIENTED_EDGE ( 'NONE', *, *, #251, .F. ) ;
#183 = CC_DESIGN_APPROVAL ( #127, ( #149 ) ) ;
#184 = PERSON_AND_ORGANIZATION ( #281, #58 ) ;
#185 = ORIENTED_EDGE ( 'NONE', *, *, #251, .T. ) ;
#186 = PERSON_AND_ORGANIZATION ( #281, #58 ) ;
#187 = VERTEX_POINT ( 'NONE', #143 ) ;
#188 = ORIENTED_EDGE ( 'NONE', *, *, #270, .T. ) ;
#189 = AXIS2_PLACEMENT_3D ( 'NONE', #2, #72, #91 ) ;
#190 = CIRCLE ( 'NONE', #104, 9.000000000000000000 ) ;
#191 = CYLINDRICAL_SURFACE ( 'NONE', #6, 9.000000000000000000 ) ;
#192 = CARTESIAN_POINT ( 'NONE',  ( 0.000000000000000000, 0.000000000000000000, 7.000000000000000000 ) ) ;
#193 = CYLINDRICAL_SURFACE ( 'NONE', #237, 6.250000000000000000 ) ;
#194 = EDGE_CURVE ( 'NONE', #307, #89, #96, .T. ) ;
#195 = LINE ( 'NONE', #292, #168 ) ;
#196 = CARTESIAN_POINT ( 'NONE',  ( 0.000000000000000000, 0.000000000000000000, 7.000000000000000000 ) ) ;
#197 = CARTESIAN_POINT ( 'NONE',  ( 0.000000000000000000, 0.000000000000000000, 207.0000000000000284 ) ) ;
#198 = AXIS2_PLACEMENT_3D ( 'NONE', #260, #24, #92 ) ;
#199 = ADVANCED_FACE ( 'NONE', ( #122 ), #145, .T. ) ;
#200 = DIRECTION ( 'NONE',  ( -0.000000000000000000, -0.000000000000000000, -1.000000000000000000 ) ) ;
#201 = DIRECTION ( 'NONE',  ( 1.000000000000000000, 0.000000000000000000, 0.000000000000000000 ) ) ;
#202 = ADVANCED_FACE ( 'NONE', ( #99 ), #252, .F. ) ;
#203 = ADVANCED_BREP_SHAPE_REPRESENTATION ( 'f284', ( #113, #35 ), #305 ) ;
#204 = APPROVAL_DATE_TIME ( #151, #127 ) ;
#205 = AXIS2_PLACEMENT_3D ( 'NONE', #196, #294, #225 ) ;
#206 = PRODUCT_DEFINITION_SHAPE ( 'NONE', 'NONE',  #134 ) ;
#207 = ORIENTED_EDGE ( 'NONE', *, *, #88, .T. ) ;
#208 = CALENDAR_DATE ( 2022, 20, 6 ) ;
#209 = EDGE_LOOP ( 'NONE', ( #188, #86 ) ) ;
#210 = EDGE_CURVE ( 'NONE', #307, #187, #223, .T. ) ;
#211 = CC_DESIGN_SECURITY_CLASSIFICATION ( #149, ( #296 ) ) ;
#212 = PERSON_AND_ORGANIZATION_ROLE ( 'creator' ) ;
#213 = ORIENTED_EDGE ( 'NONE', *, *, #158, .T. ) ;
#214 = ORIENTED_EDGE ( 'NONE', *, *, #288, .F. ) ;
#215 = CARTESIAN_POINT ( 'NONE',  ( -6.250000000000000000, 0.000000000000000000, 207.0000000000000284 ) ) ;
#216 = APPROVAL_PERSON_ORGANIZATION ( #303, #239, #39 ) ;
#217 = DIRECTION ( 'NONE',  ( -0.000000000000000000, -0.000000000000000000, -1.000000000000000000 ) ) ;
#218 = CYLINDRICAL_SURFACE ( 'NONE', #290, 9.000000000000000000 ) ;
#219 = DIRECTION ( 'NONE',  ( 0.000000000000000000, 0.000000000000000000, 1.000000000000000000 ) ) ;
#220 = EDGE_CURVE ( 'NONE', #129, #38, #172, .T. ) ;
#221 = DIRECTION ( 'NONE',  ( 1.000000000000000000, 0.000000000000000000, 0.000000000000000000 ) ) ;
#222 = DIRECTION ( 'NONE',  ( 0.000000000000000000, -1.000000000000000000, 0.000000000000000000 ) ) ;
#223 = LINE ( 'NONE', #79, #130 ) ;
#224 = AXIS2_PLACEMENT_3D ( 'NONE', #3, #93, #221 ) ;
#225 = DIRECTION ( 'NONE',  ( 1.000000000000000000, 0.000000000000000000, 0.000000000000000000 ) ) ;
#226 = CARTESIAN_POINT ( 'NONE',  ( 0.000000000000000000, 0.000000000000000000, 0.000000000000000000 ) ) ;
#227 = SHAPE_DEFINITION_REPRESENTATION ( #206, #203 ) ;
#228 = VERTEX_POINT ( 'NONE', #14 ) ;
#229 = CC_DESIGN_APPROVAL ( #94, ( #134 ) ) ;
#230 = PERSON_AND_ORGANIZATION_ROLE ( 'design_supplier' ) ;
#231 = EDGE_LOOP ( 'NONE', ( #44, #136, #257, #62 ) ) ;
#232 = EDGE_CURVE ( 'NONE', #109, #187, #291, .T. ) ;
#233 = APPROVAL_DATE_TIME ( #37, #94 ) ;
#234 = EDGE_LOOP ( 'NONE', ( #185, #83 ) ) ;
#235 = PERSON_AND_ORGANIZATION ( #281, #58 ) ;
#236 = ORIENTED_EDGE ( 'NONE', *, *, #84, .F. ) ;
#237 = AXIS2_PLACEMENT_3D ( 'NONE', #167, #116, #243 ) ;
#238 = ORIENTED_EDGE ( 'NONE', *, *, #88, .F. ) ;
#239 = APPROVAL ( #181, 'NEURÈENÝ' ) ;
#240 = FACE_OUTER_BOUND ( 'NONE', #234, .T. ) ;
#241 = FACE_BOUND ( 'NONE', #160, .T. ) ;
#242 = VERTEX_POINT ( 'NONE', #81 ) ;
#243 = DIRECTION ( 'NONE',  ( -1.000000000000000000, 0.000000000000000000, 0.000000000000000000 ) ) ;
#244 = CARTESIAN_POINT ( 'NONE',  ( 0.000000000000000000, 0.000000000000000000, 7.000000000000000000 ) ) ;
#245 = DIRECTION ( 'NONE',  ( 0.000000000000000000, 0.000000000000000000, 1.000000000000000000 ) ) ;
#246 = AXIS2_PLACEMENT_3D ( 'NONE', #78, #52, #147 ) ;
#247 = CARTESIAN_POINT ( 'NONE',  ( 0.000000000000000000, 0.000000000000000000, 207.0000000000000284 ) ) ;
#248 = PERSON_AND_ORGANIZATION_ROLE ( 'design_owner' ) ;
#249 = ORIENTED_EDGE ( 'NONE', *, *, #7, .T. ) ;
#250 = ORIENTED_EDGE ( 'NONE', *, *, #210, .T. ) ;
#251 = EDGE_CURVE ( 'NONE', #89, #307, #190, .T. ) ;
#252 = TOROIDAL_SURFACE ( 'NONE', #246, 6.450000000000000178, 0.2000000000000000111 ) ;
#253 = EDGE_LOOP ( 'NONE', ( #180, #182, #213, #60 ) ) ;
#254 = DATE_TIME_ROLE ( 'classification_date' ) ;
#255 = MECHANICAL_CONTEXT ( 'NONE', #164, 'mechanical' ) ;
#256 = ADVANCED_FACE ( 'NONE', ( #77 ), #98, .T. ) ;
#257 = ORIENTED_EDGE ( 'NONE', *, *, #102, .F. ) ;
#258 = PRODUCT ( 'f284', 'f284', '', ( #255 ) ) ;
#259 = AXIS2_PLACEMENT_3D ( 'NONE', #97, #117, #4 ) ;
#260 = CARTESIAN_POINT ( 'NONE',  ( 0.000000000000000000, 0.000000000000000000, 7.200000000000011724 ) ) ;
#261 = FACE_OUTER_BOUND ( 'NONE', #1, .T. ) ;
#262 = CARTESIAN_POINT ( 'NONE',  ( -9.000000000000000000, 0.000000000000000000, 0.000000000000000000 ) ) ;
#263 = CIRCLE ( 'NONE', #269, 6.250000000000000000 ) ;
#264 = DIRECTION ( 'NONE',  ( 1.000000000000000000, 0.000000000000000000, 0.000000000000000000 ) ) ;
#265 = DIRECTION ( 'NONE',  ( -0.000000000000000000, -0.000000000000000000, -1.000000000000000000 ) ) ;
#266 = DIRECTION ( 'NONE',  ( 1.000000000000000000, 0.000000000000000000, 0.000000000000000000 ) ) ;
#267 = CARTESIAN_POINT ( 'NONE',  ( 0.000000000000000000, 0.000000000000000000, 7.000000000000000000 ) ) ;
#268 = CARTESIAN_POINT ( 'NONE',  ( 0.000000000000000000, 0.000000000000000000, 0.000000000000000000 ) ) ;
#269 = AXIS2_PLACEMENT_3D ( 'NONE', #95, #165, #284 ) ;
#270 = EDGE_CURVE ( 'NONE', #242, #228, #278, .T. ) ;
#271 = AXIS2_PLACEMENT_3D ( 'NONE', #247, #200, #298 ) ;
#272 = CALENDAR_DATE ( 2022, 20, 6 ) ;
#273 = CALENDAR_DATE ( 2022, 20, 6 ) ;
#274 = ORIENTED_EDGE ( 'NONE', *, *, #32, .T. ) ;
#275 = EDGE_CURVE ( 'NONE', #61, #38, #285, .T. ) ;
#276 = PERSON_AND_ORGANIZATION ( #281, #58 ) ;
#277 = ORIENTED_EDGE ( 'NONE', *, *, #144, .F. ) ;
#278 = CIRCLE ( 'NONE', #121, 6.250000000000000000 ) ;
#279 = COORDINATED_UNIVERSAL_TIME_OFFSET ( 1, 0, .AHEAD. ) ;
#280 = EDGE_LOOP ( 'NONE', ( #238, #302, #67, #249 ) ) ;
#281 = PERSON ( 'NEURÈENÝ', 'NEURÈENÝ', 'NEURÈENÝ', ('NEURÈENÝ'), ('NEURÈENÝ'), ('NEURÈENÝ') ) ;
#282 = PRODUCT_RELATED_PRODUCT_CATEGORY ( 'detail', '', ( #258 ) ) ;
#283 = CALENDAR_DATE ( 2022, 20, 6 ) ;
#284 = DIRECTION ( 'NONE',  ( 1.000000000000000000, 0.000000000000000000, 0.000000000000000000 ) ) ;
#285 = CIRCLE ( 'NONE', #205, 6.450000000000000178 ) ;
#286 = CARTESIAN_POINT ( 'NONE',  ( -6.450000000000000178, 7.898971854500428692E-16, 7.000000000000006217 ) ) ;
#287 = CARTESIAN_POINT ( 'NONE',  ( 0.000000000000000000, 0.000000000000000000, 7.000000000000000000 ) ) ;
#288 = EDGE_CURVE ( 'NONE', #131, #61, #141, .T. ) ;
#289 = LINE ( 'NONE', #114, #176 ) ;
#290 = AXIS2_PLACEMENT_3D ( 'NONE', #137, #163, #118 ) ;
#291 = CIRCLE ( 'NONE', #100, 9.000000000000000000 ) ;
#292 = CARTESIAN_POINT ( 'NONE',  ( -9.000000000000000000, 0.000000000000000000, 7.000000000000000000 ) ) ;
#293 = CC_DESIGN_PERSON_AND_ORGANIZATION_ASSIGNMENT ( #184, #248, ( #258 ) ) ;
#294 = DIRECTION ( 'NONE',  ( -0.000000000000000000, -0.000000000000000000, -1.000000000000000000 ) ) ;
#295 = CARTESIAN_POINT ( 'NONE',  ( -6.450000000000000178, 7.898971854500428692E-16, 7.200000000000011724 ) ) ;
#296 = PRODUCT_DEFINITION_FORMATION_WITH_SPECIFIED_SOURCE ( 'LIBOVOLNÝ', '', #258, .NOT_KNOWN. ) ;
#297 = APPLICATION_CONTEXT ( 'configuration controlled 3d designs of mechanical parts and assemblies' ) ;
#298 = DIRECTION ( 'NONE',  ( -1.000000000000000000, 0.000000000000000000, 0.000000000000000000 ) ) ;
#299 = CIRCLE ( 'NONE', #161, 6.450000000000000178 ) ;
#300 = DATE_AND_TIME ( #273, #71 ) ;
#301 = AXIS2_PLACEMENT_3D ( 'NONE', #295, #34, #171 ) ;
#302 = ORIENTED_EDGE ( 'NONE', *, *, #270, .F. ) ;
#303 = PERSON_AND_ORGANIZATION ( #281, #58 ) ;
#304 = ORIENTED_EDGE ( 'NONE', *, *, #220, .T. ) ;
#305 =( GEOMETRIC_REPRESENTATION_CONTEXT ( 3 ) GLOBAL_UNCERTAINTY_ASSIGNED_CONTEXT ( ( #115 ) ) GLOBAL_UNIT_ASSIGNED_CONTEXT ( ( #126, #123, #11 ) ) REPRESENTATION_CONTEXT ( 'NONE', 'WORKASPACE' ) );
#306 = COORDINATED_UNIVERSAL_TIME_OFFSET ( 1, 0, .AHEAD. ) ;
#307 = VERTEX_POINT ( 'NONE', #173 ) ;
ENDSEC;
END-ISO-10303-21;
