ISO-10303-21;
HEADER;
FILE_DESCRIPTION (( 'STEP AP203' ),
    '1' );
FILE_NAME ('f790.STEP',
    '2022-06-20T09:15:32',
    ( '' ),
    ( '' ),
    'SwSTEP 2.0',
    'SolidWorks 2019',
    '' );
FILE_SCHEMA (( 'CONFIG_CONTROL_DESIGN' ));
ENDSEC;

DATA;
#1 = DIRECTION ( 'NONE',  ( 0.000000000000000000, 0.000000000000000000, -1.000000000000000000 ) ) ;
#2 = PERSON_AND_ORGANIZATION ( #164, #12 ) ;
#3 = PERSON_AND_ORGANIZATION ( #164, #12 ) ;
#4 = EDGE_CURVE ( 'NONE', #116, #253, #275, .T. ) ;
#5 = DIRECTION ( 'NONE',  ( 1.000000000000000000, 0.000000000000000000, 0.000000000000000000 ) ) ;
#6 = CALENDAR_DATE ( 2022, 20, 6 ) ;
#7 = EDGE_CURVE ( 'NONE', #44, #195, #169, .T. ) ;
#8 = CARTESIAN_POINT ( 'NONE',  ( 0.000000000000000000, 0.000000000000000000, 0.000000000000000000 ) ) ;
#9 = ORIENTED_EDGE ( 'NONE', *, *, #118, .F. ) ;
#10 = DIRECTION ( 'NONE',  ( -0.000000000000000000, -0.000000000000000000, -1.000000000000000000 ) ) ;
#11 = EDGE_CURVE ( 'NONE', #198, #62, #259, .T. ) ;
#12 = ORGANIZATION ( 'NEURÈENÝ', 'NEURÈENÝ', '' ) ;
#13 = CARTESIAN_POINT ( 'NONE',  ( 1.250000000000000000, 1.530808498934191571E-16, 0.000000000000000000 ) ) ;
#14 = ORIENTED_EDGE ( 'NONE', *, *, #243, .T. ) ;
#15 = CYLINDRICAL_SURFACE ( 'NONE', #263, 0.5000000000000000000 ) ;
#16 = ORIENTED_EDGE ( 'NONE', *, *, #51, .F. ) ;
#17 = CARTESIAN_POINT ( 'NONE',  ( 0.6999999999999999556, 0.000000000000000000, 1.399999999999998579 ) ) ;
#18 = ORIENTED_EDGE ( 'NONE', *, *, #11, .T. ) ;
#19 = AXIS2_PLACEMENT_3D ( 'NONE', #17, #73, #1 ) ;
#20 = APPROVAL_PERSON_ORGANIZATION ( #2, #149, #124 ) ;
#21 = CARTESIAN_POINT ( 'NONE',  ( 0.000000000000000000, 0.000000000000000000, 101.2000000000000171 ) ) ;
#22 = DIRECTION ( 'NONE',  ( 1.224646799147353207E-16, 1.000000000000000000, -0.000000000000000000 ) ) ;
#23 = FACE_OUTER_BOUND ( 'NONE', #292, .T. ) ;
#24 = EDGE_CURVE ( 'NONE', #62, #198, #236, .T. ) ;
#25 = DIRECTION ( 'NONE',  ( -1.000000000000000000, 1.224646799147352714E-16, 0.000000000000000000 ) ) ;
#26 = DIRECTION ( 'NONE',  ( 0.000000000000000000, 0.000000000000000000, 1.000000000000000000 ) ) ;
#27 = PRODUCT_DEFINITION_SHAPE ( 'NONE', 'NONE',  #146 ) ;
#28 = COORDINATED_UNIVERSAL_TIME_OFFSET ( 1, 0, .AHEAD. ) ;
#29 = PERSON_AND_ORGANIZATION ( #164, #12 ) ;
#30 = COORDINATED_UNIVERSAL_TIME_OFFSET ( 1, 0, .AHEAD. ) ;
#31 = ADVANCED_FACE ( 'NONE', ( #175 ), #15, .T. ) ;
#32 = COORDINATED_UNIVERSAL_TIME_OFFSET ( 1, 0, .AHEAD. ) ;
#33 = DIRECTION ( 'NONE',  ( -0.000000000000000000, -0.000000000000000000, -1.000000000000000000 ) ) ;
#34 = DESIGN_CONTEXT ( 'detailed design', #101, 'design' ) ;
#35 = CYLINDRICAL_SURFACE ( 'NONE', #300, 1.250000000000000000 ) ;
#36 = LINE ( 'NONE', #57, #151 ) ;
#37 = DIRECTION ( 'NONE',  ( 1.000000000000000000, 0.000000000000000000, 0.000000000000000000 ) ) ;
#38 = AXIS2_PLACEMENT_3D ( 'NONE', #291, #33, #61 ) ;
#39 = CARTESIAN_POINT ( 'NONE',  ( -0.6999999999999999556, 8.572527594031473190E-17, 1.199999999999999289 ) ) ;
#40 = PLANE ( 'NONE',  #159 ) ;
#41 = CARTESIAN_POINT ( 'NONE',  ( -0.5000000000000000000, 0.000000000000000000, 1.399999999999998579 ) ) ;
#42 = AXIS2_PLACEMENT_3D ( 'NONE', #230, #235, #110 ) ;
#43 = PLANE ( 'NONE',  #83 ) ;
#44 = VERTEX_POINT ( 'NONE', #39 ) ;
#45 = CARTESIAN_POINT ( 'NONE',  ( -0.6999999999999999556, 8.572527594031471957E-17, 1.399999999999998579 ) ) ;
#46 = EDGE_CURVE ( 'NONE', #253, #116, #266, .T. ) ;
#47 = ORIENTED_EDGE ( 'NONE', *, *, #171, .T. ) ;
#48 = CARTESIAN_POINT ( 'NONE',  ( -1.250000000000000000, 0.000000000000000000, 1.199999999999999956 ) ) ;
#49 = APPROVAL_DATE_TIME ( #125, #149 ) ;
#50 = VECTOR ( 'NONE', #167, 1000.000000000000000 ) ;
#51 = EDGE_CURVE ( 'NONE', #116, #88, #36, .T. ) ;
#52 = PERSON_AND_ORGANIZATION_ROLE ( 'design_owner' ) ;
#53 = DATE_TIME_ROLE ( 'classification_date' ) ;
#54 = AXIS2_PLACEMENT_3D ( 'NONE', #100, #126, #152 ) ;
#55 = APPROVAL ( #239, 'NEURÈENÝ' ) ;
#56 = APPLICATION_CONTEXT ( 'configuration controlled 3d designs of mechanical parts and assemblies' ) ;
#57 = CARTESIAN_POINT ( 'NONE',  ( 1.250000000000000000, 1.530808498934191571E-16, 1.199999999999999956 ) ) ;
#58 = CIRCLE ( 'NONE', #232, 0.1999999999999999833 ) ;
#59 = EDGE_CURVE ( 'NONE', #195, #44, #130, .T. ) ;
#60 = DIRECTION ( 'NONE',  ( -1.000000000000000000, 0.000000000000000000, 0.000000000000000000 ) ) ;
#61 = DIRECTION ( 'NONE',  ( 1.000000000000000000, 0.000000000000000000, 0.000000000000000000 ) ) ;
#62 = VERTEX_POINT ( 'NONE', #85 ) ;
#63 = ADVANCED_FACE ( 'NONE', ( #178 ), #133, .T. ) ;
#64 = ORIENTED_EDGE ( 'NONE', *, *, #7, .F. ) ;
#65 = AXIS2_PLACEMENT_3D ( 'NONE', #21, #134, #165 ) ;
#66 = LOCAL_TIME ( 11, 15, 32.00000000000000000, #32 ) ;
#67 = LINE ( 'NONE', #119, #50 ) ;
#68 = ORIENTED_EDGE ( 'NONE', *, *, #59, .F. ) ;
#69 = CARTESIAN_POINT ( 'NONE',  ( 0.000000000000000000, 0.000000000000000000, 1.199999999999999956 ) ) ;
#70 = PRODUCT ( 'f790', 'f790', '', ( #170 ) ) ;
#71 =( NAMED_UNIT ( * ) SI_UNIT ( $, .STERADIAN. ) SOLID_ANGLE_UNIT ( ) );
#72 = ORIENTED_EDGE ( 'NONE', *, *, #46, .F. ) ;
#73 = DIRECTION ( 'NONE',  ( 0.000000000000000000, -1.000000000000000000, 0.000000000000000000 ) ) ;
#74 = CALENDAR_DATE ( 2022, 20, 6 ) ;
#75 = AXIS2_PLACEMENT_3D ( 'NONE', #155, #297, #179 ) ;
#76 = PERSON_AND_ORGANIZATION_ROLE ( 'creator' ) ;
#77 = PERSON_AND_ORGANIZATION_ROLE ( 'classification_officer' ) ;
#78 = CALENDAR_DATE ( 2022, 20, 6 ) ;
#79 = CIRCLE ( 'NONE', #117, 1.250000000000000000 ) ;
#80 = CC_DESIGN_APPROVAL ( #123, ( #146 ) ) ;
#81 = DIRECTION ( 'NONE',  ( 1.000000000000000000, 0.000000000000000000, 0.000000000000000000 ) ) ;
#82 = ORIENTED_EDGE ( 'NONE', *, *, #118, .T. ) ;
#83 = AXIS2_PLACEMENT_3D ( 'NONE', #69, #166, #190 ) ;
#84 = UNCERTAINTY_MEASURE_WITH_UNIT (LENGTH_MEASURE( 1.000000000000000082E-05 ), #231, 'distance_accuracy_value', 'NONE');
#85 = CARTESIAN_POINT ( 'NONE',  ( -0.5000000000000000000, 0.000000000000000000, 101.2000000000000171 ) ) ;
#86 = ORIENTED_EDGE ( 'NONE', *, *, #7, .T. ) ;
#87 = ADVANCED_FACE ( 'NONE', ( #150 ), #35, .T. ) ;
#88 = VERTEX_POINT ( 'NONE', #13 ) ;
#89 = CARTESIAN_POINT ( 'NONE',  ( 0.5000000000000000000, 6.123233995736766036E-17, 1.399999999999998579 ) ) ;
#90 = AXIS2_PLACEMENT_3D ( 'NONE', #280, #94, #113 ) ;
#91 = FACE_OUTER_BOUND ( 'NONE', #200, .T. ) ;
#92 = AXIS2_PLACEMENT_3D ( 'NONE', #199, #248, #81 ) ;
#93 = FACE_OUTER_BOUND ( 'NONE', #277, .T. ) ;
#94 = DIRECTION ( 'NONE',  ( 0.000000000000000000, 0.000000000000000000, 1.000000000000000000 ) ) ;
#95 = VECTOR ( 'NONE', #141, 1000.000000000000000 ) ;
#96 = COORDINATED_UNIVERSAL_TIME_OFFSET ( 1, 0, .AHEAD. ) ;
#97 = APPROVAL_PERSON_ORGANIZATION ( #145, #123, #240 ) ;
#98 = DATE_TIME_ROLE ( 'creation_date' ) ;
#99 = DIRECTION ( 'NONE',  ( 1.000000000000000000, 0.000000000000000000, 0.000000000000000000 ) ) ;
#100 = CARTESIAN_POINT ( 'NONE',  ( 0.000000000000000000, 0.000000000000000000, 101.2000000000000171 ) ) ;
#101 = APPLICATION_CONTEXT ( 'configuration controlled 3d designs of mechanical parts and assemblies' ) ;
#102 = DIRECTION ( 'NONE',  ( 1.000000000000000000, 0.000000000000000000, 0.000000000000000000 ) ) ;
#103 = CIRCLE ( 'NONE', #136, 0.5000000000000000000 ) ;
#104 = CC_DESIGN_PERSON_AND_ORGANIZATION_ASSIGNMENT ( #29, #76, ( #146 ) ) ;
#105 = VERTEX_POINT ( 'NONE', #89 ) ;
#106 = EDGE_LOOP ( 'NONE', ( #161, #86 ) ) ;
#107 = CARTESIAN_POINT ( 'NONE',  ( 1.250000000000000000, 1.530808498934191571E-16, 1.199999999999999956 ) ) ;
#108 = ORIENTED_EDGE ( 'NONE', *, *, #51, .T. ) ;
#109 = ORIENTED_EDGE ( 'NONE', *, *, #171, .F. ) ;
#110 = DIRECTION ( 'NONE',  ( -1.000000000000000000, 0.000000000000000000, 0.000000000000000000 ) ) ;
#111 = CIRCLE ( 'NONE', #284, 1.250000000000000000 ) ;
#112 = EDGE_LOOP ( 'NONE', ( #187, #18 ) ) ;
#113 = DIRECTION ( 'NONE',  ( 1.000000000000000000, 0.000000000000000000, 0.000000000000000000 ) ) ;
#114 = ADVANCED_FACE ( 'NONE', ( #229 ), #142, .F. ) ;
#115 = DIRECTION ( 'NONE',  ( 0.000000000000000000, 0.000000000000000000, 1.000000000000000000 ) ) ;
#116 = VERTEX_POINT ( 'NONE', #107 ) ;
#117 = AXIS2_PLACEMENT_3D ( 'NONE', #8, #276, #99 ) ;
#118 = EDGE_CURVE ( 'NONE', #298, #88, #79, .T. ) ;
#119 = CARTESIAN_POINT ( 'NONE',  ( -1.250000000000000000, 0.000000000000000000, 1.199999999999999956 ) ) ;
#120 = DATE_AND_TIME ( #78, #289 ) ;
#121 = AXIS2_PLACEMENT_3D ( 'NONE', #278, #184, #233 ) ;
#122 = APPLICATION_PROTOCOL_DEFINITION ( 'international standard', 'config_control_design', 1994, #56 ) ;
#123 = APPROVAL ( #218, 'NEURÈENÝ' ) ;
#124 = APPROVAL_ROLE ( '' ) ;
#125 = DATE_AND_TIME ( #222, #66 ) ;
#126 = DIRECTION ( 'NONE',  ( 0.000000000000000000, 0.000000000000000000, 1.000000000000000000 ) ) ;
#127 = DIRECTION ( 'NONE',  ( -0.000000000000000000, -0.000000000000000000, -1.000000000000000000 ) ) ;
#128 = ORIENTED_EDGE ( 'NONE', *, *, #286, .T. ) ;
#129 = CARTESIAN_POINT ( 'NONE',  ( 0.000000000000000000, 0.000000000000000000, 1.399999999999998579 ) ) ;
#130 = CIRCLE ( 'NONE', #269, 0.6999999999999999556 ) ;
#131 = ORIENTED_EDGE ( 'NONE', *, *, #182, .F. ) ;
#132 = CC_DESIGN_PERSON_AND_ORGANIZATION_ASSIGNMENT ( #143, #52, ( #70 ) ) ;
#133 = CYLINDRICAL_SURFACE ( 'NONE', #75, 1.250000000000000000 ) ;
#134 = DIRECTION ( 'NONE',  ( 0.000000000000000000, 0.000000000000000000, 1.000000000000000000 ) ) ;
#135 = CYLINDRICAL_SURFACE ( 'NONE', #42, 0.5000000000000000000 ) ;
#136 = AXIS2_PLACEMENT_3D ( 'NONE', #234, #301, #304 ) ;
#137 = CARTESIAN_POINT ( 'NONE',  ( 0.5000000000000000000, 6.123233995736766036E-17, 101.2000000000000171 ) ) ;
#138 = CARTESIAN_POINT ( 'NONE',  ( 0.5000000000000000000, 6.123233995736766036E-17, 101.2000000000000171 ) ) ;
#139 = EDGE_CURVE ( 'NONE', #198, #105, #211, .T. ) ;
#140 = ORIENTED_EDGE ( 'NONE', *, *, #258, .T. ) ;
#141 = DIRECTION ( 'NONE',  ( -0.000000000000000000, -0.000000000000000000, -1.000000000000000000 ) ) ;
#142 = TOROIDAL_SURFACE ( 'NONE', #246, 0.6999999999999999556, 0.2000000000000000111 ) ;
#143 = PERSON_AND_ORGANIZATION ( #164, #12 ) ;
#144 = APPROVAL_DATE_TIME ( #193, #123 ) ;
#145 = PERSON_AND_ORGANIZATION ( #164, #12 ) ;
#146 = PRODUCT_DEFINITION ( 'NEZNÁMÝ', '', #285, #34 ) ;
#147 = AXIS2_PLACEMENT_3D ( 'NONE', #158, #270, #154 ) ;
#148 = APPROVAL_STATUS ( 'not_yet_approved' ) ;
#149 = APPROVAL ( #148, 'NEURÈENÝ' ) ;
#150 = FACE_OUTER_BOUND ( 'NONE', #203, .T. ) ;
#151 = VECTOR ( 'NONE', #10, 1000.000000000000000 ) ;
#152 = DIRECTION ( 'NONE',  ( 1.000000000000000000, 0.000000000000000000, 0.000000000000000000 ) ) ;
#153 = LOCAL_TIME ( 11, 15, 32.00000000000000000, #30 ) ;
#154 = DIRECTION ( 'NONE',  ( 1.000000000000000000, 0.000000000000000000, 0.000000000000000000 ) ) ;
#155 = CARTESIAN_POINT ( 'NONE',  ( 0.000000000000000000, 0.000000000000000000, 1.199999999999999956 ) ) ;
#156 = CC_DESIGN_PERSON_AND_ORGANIZATION_ASSIGNMENT ( #174, #288, ( #285 ) ) ;
#157 = EDGE_LOOP ( 'NONE', ( #131, #163, #14, #64 ) ) ;
#158 = CARTESIAN_POINT ( 'NONE',  ( 0.000000000000000000, 0.000000000000000000, 101.2000000000000171 ) ) ;
#159 = AXIS2_PLACEMENT_3D ( 'NONE', #255, #213, #217 ) ;
#160 = ORIENTED_EDGE ( 'NONE', *, *, #261, .T. ) ;
#161 = ORIENTED_EDGE ( 'NONE', *, *, #59, .T. ) ;
#162 = CARTESIAN_POINT ( 'NONE',  ( 0.000000000000000000, 0.000000000000000000, 0.000000000000000000 ) ) ;
#163 = ORIENTED_EDGE ( 'NONE', *, *, #286, .F. ) ;
#164 = PERSON ( 'NEURÈENÝ', 'NEURÈENÝ', 'NEURÈENÝ', ('NEURÈENÝ'), ('NEURÈENÝ'), ('NEURÈENÝ') ) ;
#165 = DIRECTION ( 'NONE',  ( 1.000000000000000000, 0.000000000000000000, -0.000000000000000000 ) ) ;
#166 = DIRECTION ( 'NONE',  ( 0.000000000000000000, 0.000000000000000000, 1.000000000000000000 ) ) ;
#167 = DIRECTION ( 'NONE',  ( -0.000000000000000000, -0.000000000000000000, -1.000000000000000000 ) ) ;
#168 = DATE_AND_TIME ( #6, #294 ) ;
#169 = CIRCLE ( 'NONE', #38, 0.6999999999999999556 ) ;
#170 = MECHANICAL_CONTEXT ( 'NONE', #56, 'mechanical' ) ;
#171 = EDGE_CURVE ( 'NONE', #253, #298, #67, .T. ) ;
#172 = APPLICATION_PROTOCOL_DEFINITION ( 'international standard', 'config_control_design', 1994, #101 ) ;
#173 = PERSON_AND_ORGANIZATION ( #164, #12 ) ;
#174 = PERSON_AND_ORGANIZATION ( #164, #12 ) ;
#175 = FACE_OUTER_BOUND ( 'NONE', #305, .T. ) ;
#176 = DIRECTION ( 'NONE',  ( -0.000000000000000000, -0.000000000000000000, -1.000000000000000000 ) ) ;
#177 = ORIENTED_EDGE ( 'NONE', *, *, #201, .T. ) ;
#178 = FACE_OUTER_BOUND ( 'NONE', #274, .T. ) ;
#179 = DIRECTION ( 'NONE',  ( -1.000000000000000000, 0.000000000000000000, 0.000000000000000000 ) ) ;
#180 = DIRECTION ( 'NONE',  ( -1.000000000000000000, 0.000000000000000000, 0.000000000000000000 ) ) ;
#181 = TOROIDAL_SURFACE ( 'NONE', #90, 0.6999999999999999556, 0.2000000000000000111 ) ;
#182 = EDGE_CURVE ( 'NONE', #206, #44, #58, .T. ) ;
#183 = ORIENTED_EDGE ( 'NONE', *, *, #261, .F. ) ;
#184 = DIRECTION ( 'NONE',  ( 0.000000000000000000, 0.000000000000000000, 1.000000000000000000 ) ) ;
#185 = FACE_OUTER_BOUND ( 'NONE', #157, .T. ) ;
#186 = CIRCLE ( 'NONE', #19, 0.2000000000000000944 ) ;
#187 = ORIENTED_EDGE ( 'NONE', *, *, #24, .T. ) ;
#188 = DIRECTION ( 'NONE',  ( 1.000000000000000000, 0.000000000000000000, 0.000000000000000000 ) ) ;
#189 = ADVANCED_FACE ( 'NONE', ( #91 ), #40, .F. ) ;
#190 = DIRECTION ( 'NONE',  ( 1.000000000000000000, 0.000000000000000000, -0.000000000000000000 ) ) ;
#191 = VECTOR ( 'NONE', #215, 1000.000000000000000 ) ;
#192 = DATE_AND_TIME ( #264, #216 ) ;
#193 = DATE_AND_TIME ( #74, #153 ) ;
#194 = ADVANCED_FACE ( 'NONE', ( #307, #93 ), #43, .T. ) ;
#195 = VERTEX_POINT ( 'NONE', #257 ) ;
#196 = CLOSED_SHELL ( 'NONE', ( #114, #302, #87, #63, #194, #189, #31, #209, #296 ) ) ;
#197 = APPROVAL_PERSON_ORGANIZATION ( #3, #55, #262 ) ;
#198 = VERTEX_POINT ( 'NONE', #137 ) ;
#199 = CARTESIAN_POINT ( 'NONE',  ( 0.000000000000000000, 0.000000000000000000, 1.199999999999999956 ) ) ;
#200 = EDGE_LOOP ( 'NONE', ( #9, #207 ) ) ;
#201 = EDGE_CURVE ( 'NONE', #88, #298, #111, .T. ) ;
#202 =( GEOMETRIC_REPRESENTATION_CONTEXT ( 3 ) GLOBAL_UNCERTAINTY_ASSIGNED_CONTEXT ( ( #84 ) ) GLOBAL_UNIT_ASSIGNED_CONTEXT ( ( #231, #303, #71 ) ) REPRESENTATION_CONTEXT ( 'NONE', 'WORKASPACE' ) );
#203 = EDGE_LOOP ( 'NONE', ( #210, #108, #177, #109 ) ) ;
#204 = AXIS2_PLACEMENT_3D ( 'NONE', #283, #26, #5 ) ;
#205 = ORIENTED_EDGE ( 'NONE', *, *, #243, .F. ) ;
#206 = VERTEX_POINT ( 'NONE', #41 ) ;
#207 = ORIENTED_EDGE ( 'NONE', *, *, #201, .F. ) ;
#208 = ORIENTED_EDGE ( 'NONE', *, *, #182, .T. ) ;
#209 = ADVANCED_FACE ( 'NONE', ( #260 ), #281, .T. ) ;
#210 = ORIENTED_EDGE ( 'NONE', *, *, #4, .F. ) ;
#211 = LINE ( 'NONE', #138, #191 ) ;
#212 = AXIS2_PLACEMENT_3D ( 'NONE', #225, #295, #37 ) ;
#213 = DIRECTION ( 'NONE',  ( 0.000000000000000000, 0.000000000000000000, 1.000000000000000000 ) ) ;
#214 = CARTESIAN_POINT ( 'NONE',  ( -0.5000000000000000000, 0.000000000000000000, 101.2000000000000171 ) ) ;
#215 = DIRECTION ( 'NONE',  ( -0.000000000000000000, -0.000000000000000000, -1.000000000000000000 ) ) ;
#216 = LOCAL_TIME ( 11, 15, 32.00000000000000000, #96 ) ;
#217 = DIRECTION ( 'NONE',  ( 1.000000000000000000, 0.000000000000000000, -0.000000000000000000 ) ) ;
#218 = APPROVAL_STATUS ( 'not_yet_approved' ) ;
#219 = SECURITY_CLASSIFICATION_LEVEL ( 'unclassified' ) ;
#220 = COORDINATED_UNIVERSAL_TIME_OFFSET ( 1, 0, .AHEAD. ) ;
#221 = MANIFOLD_SOLID_BREP ( 'Zaoblit1', #196 ) ;
#222 = CALENDAR_DATE ( 2022, 20, 6 ) ;
#223 = DIRECTION ( 'NONE',  ( -0.000000000000000000, -0.000000000000000000, -1.000000000000000000 ) ) ;
#224 = DIRECTION ( 'NONE',  ( 0.000000000000000000, 0.000000000000000000, 1.000000000000000000 ) ) ;
#225 = CARTESIAN_POINT ( 'NONE',  ( 0.000000000000000000, 0.000000000000000000, 1.199999999999999956 ) ) ;
#226 = DIRECTION ( 'NONE',  ( 1.000000000000000000, 0.000000000000000000, 0.000000000000000000 ) ) ;
#227 = SECURITY_CLASSIFICATION ( '', '', #219 ) ;
#228 = ORIENTED_EDGE ( 'NONE', *, *, #46, .T. ) ;
#229 = FACE_OUTER_BOUND ( 'NONE', #271, .T. ) ;
#230 = CARTESIAN_POINT ( 'NONE',  ( 0.000000000000000000, 0.000000000000000000, 101.2000000000000171 ) ) ;
#231 =( LENGTH_UNIT ( ) NAMED_UNIT ( * ) SI_UNIT ( .MILLI., .METRE. ) );
#232 = AXIS2_PLACEMENT_3D ( 'NONE', #45, #22, #25 ) ;
#233 = DIRECTION ( 'NONE',  ( 1.000000000000000000, 0.000000000000000000, 0.000000000000000000 ) ) ;
#234 = CARTESIAN_POINT ( 'NONE',  ( 0.000000000000000000, 0.000000000000000000, 1.399999999999998579 ) ) ;
#235 = DIRECTION ( 'NONE',  ( -0.000000000000000000, -0.000000000000000000, -1.000000000000000000 ) ) ;
#236 = CIRCLE ( 'NONE', #54, 0.5000000000000000000 ) ;
#237 = CC_DESIGN_APPROVAL ( #55, ( #285 ) ) ;
#238 = CC_DESIGN_DATE_AND_TIME_ASSIGNMENT ( #168, #98, ( #146 ) ) ;
#239 = APPROVAL_STATUS ( 'not_yet_approved' ) ;
#240 = APPROVAL_ROLE ( '' ) ;
#241 = CC_DESIGN_SECURITY_CLASSIFICATION ( #227, ( #285 ) ) ;
#242 = PERSON_AND_ORGANIZATION ( #164, #12 ) ;
#243 = EDGE_CURVE ( 'NONE', #105, #195, #186, .T. ) ;
#244 = PERSON_AND_ORGANIZATION_ROLE ( 'design_supplier' ) ;
#245 = CARTESIAN_POINT ( 'NONE',  ( 0.000000000000000000, 0.000000000000000000, 1.199999999999999956 ) ) ;
#246 = AXIS2_PLACEMENT_3D ( 'NONE', #129, #224, #226 ) ;
#247 = CC_DESIGN_APPROVAL ( #149, ( #227 ) ) ;
#248 = DIRECTION ( 'NONE',  ( 0.000000000000000000, 0.000000000000000000, 1.000000000000000000 ) ) ;
#249 = ORIENTED_EDGE ( 'NONE', *, *, #4, .T. ) ;
#250 = CC_DESIGN_DATE_AND_TIME_ASSIGNMENT ( #192, #53, ( #227 ) ) ;
#251 = ORIENTED_EDGE ( 'NONE', *, *, #258, .F. ) ;
#252 = CARTESIAN_POINT ( 'NONE',  ( 0.000000000000000000, 0.000000000000000000, 1.199999999999999956 ) ) ;
#253 = VERTEX_POINT ( 'NONE', #48 ) ;
#254 = CARTESIAN_POINT ( 'NONE',  ( -1.250000000000000000, 0.000000000000000000, 0.000000000000000000 ) ) ;
#255 = CARTESIAN_POINT ( 'NONE',  ( 0.000000000000000000, 0.000000000000000000, 0.000000000000000000 ) ) ;
#256 = ADVANCED_BREP_SHAPE_REPRESENTATION ( 'f790', ( #221, #204 ), #202 ) ;
#257 = CARTESIAN_POINT ( 'NONE',  ( 0.6999999999999999556, 0.000000000000000000, 1.199999999999999289 ) ) ;
#258 = EDGE_CURVE ( 'NONE', #206, #105, #293, .T. ) ;
#259 = CIRCLE ( 'NONE', #147, 0.5000000000000000000 ) ;
#260 = FACE_OUTER_BOUND ( 'NONE', #112, .T. ) ;
#261 = EDGE_CURVE ( 'NONE', #62, #206, #279, .T. ) ;
#262 = APPROVAL_ROLE ( '' ) ;
#263 = AXIS2_PLACEMENT_3D ( 'NONE', #268, #176, #60 ) ;
#264 = CALENDAR_DATE ( 2022, 20, 6 ) ;
#265 = CC_DESIGN_PERSON_AND_ORGANIZATION_ASSIGNMENT ( #242, #77, ( #227 ) ) ;
#266 = CIRCLE ( 'NONE', #212, 1.250000000000000000 ) ;
#267 = SHAPE_DEFINITION_REPRESENTATION ( #27, #256 ) ;
#268 = CARTESIAN_POINT ( 'NONE',  ( 0.000000000000000000, 0.000000000000000000, 101.2000000000000171 ) ) ;
#269 = AXIS2_PLACEMENT_3D ( 'NONE', #252, #223, #102 ) ;
#270 = DIRECTION ( 'NONE',  ( 0.000000000000000000, 0.000000000000000000, 1.000000000000000000 ) ) ;
#271 = EDGE_LOOP ( 'NONE', ( #251, #208, #68, #205 ) ) ;
#272 = ORIENTED_EDGE ( 'NONE', *, *, #24, .F. ) ;
#273 = ORIENTED_EDGE ( 'NONE', *, *, #139, .F. ) ;
#274 = EDGE_LOOP ( 'NONE', ( #16, #72, #47, #82 ) ) ;
#275 = CIRCLE ( 'NONE', #92, 1.250000000000000000 ) ;
#276 = DIRECTION ( 'NONE',  ( 0.000000000000000000, 0.000000000000000000, 1.000000000000000000 ) ) ;
#277 = EDGE_LOOP ( 'NONE', ( #228, #249 ) ) ;
#278 = CARTESIAN_POINT ( 'NONE',  ( 0.000000000000000000, 0.000000000000000000, 1.399999999999998579 ) ) ;
#279 = LINE ( 'NONE', #214, #95 ) ;
#280 = CARTESIAN_POINT ( 'NONE',  ( 0.000000000000000000, 0.000000000000000000, 1.399999999999998579 ) ) ;
#281 = PLANE ( 'NONE',  #65 ) ;
#282 = PRODUCT_RELATED_PRODUCT_CATEGORY ( 'detail', '', ( #70 ) ) ;
#283 = CARTESIAN_POINT ( 'NONE',  ( 0.000000000000000000, 0.000000000000000000, 0.000000000000000000 ) ) ;
#284 = AXIS2_PLACEMENT_3D ( 'NONE', #162, #115, #188 ) ;
#285 = PRODUCT_DEFINITION_FORMATION_WITH_SPECIFIED_SOURCE ( 'LIBOVOLNÝ', '', #70, .NOT_KNOWN. ) ;
#286 = EDGE_CURVE ( 'NONE', #105, #206, #103, .T. ) ;
#287 = APPROVAL_DATE_TIME ( #120, #55 ) ;
#288 = PERSON_AND_ORGANIZATION_ROLE ( 'creator' ) ;
#289 = LOCAL_TIME ( 11, 15, 32.00000000000000000, #28 ) ;
#290 = ORIENTED_EDGE ( 'NONE', *, *, #11, .F. ) ;
#291 = CARTESIAN_POINT ( 'NONE',  ( 0.000000000000000000, 0.000000000000000000, 1.199999999999999956 ) ) ;
#292 = EDGE_LOOP ( 'NONE', ( #290, #299, #128, #183 ) ) ;
#293 = CIRCLE ( 'NONE', #121, 0.5000000000000000000 ) ;
#294 = LOCAL_TIME ( 11, 15, 32.00000000000000000, #220 ) ;
#295 = DIRECTION ( 'NONE',  ( 0.000000000000000000, 0.000000000000000000, 1.000000000000000000 ) ) ;
#296 = ADVANCED_FACE ( 'NONE', ( #185 ), #181, .F. ) ;
#297 = DIRECTION ( 'NONE',  ( -0.000000000000000000, -0.000000000000000000, -1.000000000000000000 ) ) ;
#298 = VERTEX_POINT ( 'NONE', #254 ) ;
#299 = ORIENTED_EDGE ( 'NONE', *, *, #139, .T. ) ;
#300 = AXIS2_PLACEMENT_3D ( 'NONE', #245, #127, #180 ) ;
#301 = DIRECTION ( 'NONE',  ( 0.000000000000000000, 0.000000000000000000, 1.000000000000000000 ) ) ;
#302 = ADVANCED_FACE ( 'NONE', ( #23 ), #135, .T. ) ;
#303 =( NAMED_UNIT ( * ) PLANE_ANGLE_UNIT ( ) SI_UNIT ( $, .RADIAN. ) );
#304 = DIRECTION ( 'NONE',  ( 1.000000000000000000, 0.000000000000000000, 0.000000000000000000 ) ) ;
#305 = EDGE_LOOP ( 'NONE', ( #273, #272, #160, #140 ) ) ;
#306 = CC_DESIGN_PERSON_AND_ORGANIZATION_ASSIGNMENT ( #173, #244, ( #285 ) ) ;
#307 = FACE_BOUND ( 'NONE', #106, .T. ) ;
ENDSEC;
END-ISO-10303-21;
