ISO-10303-21;
HEADER;
FILE_DESCRIPTION (( 'STEP AP203' ),
    '1' );
FILE_NAME ('4533.STEP',
    '2022-06-20T09:37:54',
    ( '' ),
    ( '' ),
    'SwSTEP 2.0',
    'SolidWorks 2019',
    '' );
FILE_SCHEMA (( 'CONFIG_CONTROL_DESIGN' ));
ENDSEC;

DATA;
#1 = CIRCLE ( 'NONE', #198, 8.000000000000000000 ) ;
#2 = CARTESIAN_POINT ( 'NONE',  ( 0.000000000000000000, 0.000000000000000000, 5.199999999999996625 ) ) ;
#3 = DIRECTION ( 'NONE',  ( 1.000000000000000000, 0.000000000000000000, -0.000000000000000000 ) ) ;
#4 = ADVANCED_FACE ( 'NONE', ( #130 ), #109, .T. ) ;
#5 = AXIS2_PLACEMENT_3D ( 'NONE', #53, #74, #242 ) ;
#6 = CARTESIAN_POINT ( 'NONE',  ( 8.000000000000000000, 9.797174393178825657E-16, 5.000000000000000000 ) ) ;
#7 = EDGE_CURVE ( 'NONE', #62, #295, #259, .T. ) ;
#8 = APPROVAL_ROLE ( '' ) ;
#9 = EDGE_LOOP ( 'NONE', ( #184, #200 ) ) ;
#10 = ORIENTED_EDGE ( 'NONE', *, *, #82, .T. ) ;
#11 = AXIS2_PLACEMENT_3D ( 'NONE', #150, #25, #3 ) ;
#12 = CARTESIAN_POINT ( 'NONE',  ( 0.000000000000000000, 0.000000000000000000, 5.000000000000000000 ) ) ;
#13 = VERTEX_POINT ( 'NONE', #23 ) ;
#14 = EDGE_CURVE ( 'NONE', #295, #137, #56, .T. ) ;
#15 = VERTEX_POINT ( 'NONE', #239 ) ;
#16 = APPROVAL_PERSON_ORGANIZATION ( #169, #105, #283 ) ;
#17 = DIRECTION ( 'NONE',  ( 1.224646799147353207E-16, 1.000000000000000000, -0.000000000000000000 ) ) ;
#18 = CARTESIAN_POINT ( 'NONE',  ( -5.250000000000000888, 0.000000000000000000, 105.0000000000000142 ) ) ;
#19 = DIRECTION ( 'NONE',  ( -0.000000000000000000, -0.000000000000000000, -1.000000000000000000 ) ) ;
#20 = PERSON_AND_ORGANIZATION ( #223, #31 ) ;
#21 = CIRCLE ( 'NONE', #299, 5.450000000000001066 ) ;
#22 = CARTESIAN_POINT ( 'NONE',  ( 0.000000000000000000, 0.000000000000000000, 5.000000000000000000 ) ) ;
#23 = CARTESIAN_POINT ( 'NONE',  ( -8.000000000000000000, 0.000000000000000000, 5.000000000000000000 ) ) ;
#24 = AXIS2_PLACEMENT_3D ( 'NONE', #2, #272, #123 ) ;
#25 = DIRECTION ( 'NONE',  ( 0.000000000000000000, 0.000000000000000000, 1.000000000000000000 ) ) ;
#26 =( NAMED_UNIT ( * ) PLANE_ANGLE_UNIT ( ) SI_UNIT ( $, .RADIAN. ) );
#27 = DIRECTION ( 'NONE',  ( 0.000000000000000000, 0.000000000000000000, 1.000000000000000000 ) ) ;
#28 = DIRECTION ( 'NONE',  ( 0.000000000000000000, 0.000000000000000000, -1.000000000000000000 ) ) ;
#29 = VECTOR ( 'NONE', #117, 1000.000000000000000 ) ;
#30 = PRODUCT_DEFINITION_FORMATION_WITH_SPECIFIED_SOURCE ( 'LIBOVOLNÝ', '', #224, .NOT_KNOWN. ) ;
#31 = ORGANIZATION ( 'NEURÈENÝ', 'NEURÈENÝ', '' ) ;
#32 = CALENDAR_DATE ( 2022, 20, 6 ) ;
#33 = DIRECTION ( 'NONE',  ( -0.000000000000000000, -0.000000000000000000, -1.000000000000000000 ) ) ;
#34 = EDGE_LOOP ( 'NONE', ( #36, #203, #10, #225 ) ) ;
#35 = PERSON_AND_ORGANIZATION ( #223, #31 ) ;
#36 = ORIENTED_EDGE ( 'NONE', *, *, #205, .F. ) ;
#37 = AXIS2_PLACEMENT_3D ( 'NONE', #265, #282, #238 ) ;
#38 = APPROVAL_STATUS ( 'not_yet_approved' ) ;
#39 = ADVANCED_FACE ( 'NONE', ( #98, #215 ), #266, .T. ) ;
#40 = ORIENTED_EDGE ( 'NONE', *, *, #58, .T. ) ;
#41 = EDGE_LOOP ( 'NONE', ( #180, #232, #91, #65 ) ) ;
#42 = ADVANCED_BREP_SHAPE_REPRESENTATION ( '4533', ( #144, #269 ), #44 ) ;
#43 = CIRCLE ( 'NONE', #37, 5.250000000000000888 ) ;
#44 =( GEOMETRIC_REPRESENTATION_CONTEXT ( 3 ) GLOBAL_UNCERTAINTY_ASSIGNED_CONTEXT ( ( #131 ) ) GLOBAL_UNIT_ASSIGNED_CONTEXT ( ( #177, #26, #271 ) ) REPRESENTATION_CONTEXT ( 'NONE', 'WORKASPACE' ) );
#45 = COORDINATED_UNIVERSAL_TIME_OFFSET ( 1, 0, .AHEAD. ) ;
#46 = LINE ( 'NONE', #304, #221 ) ;
#47 = DESIGN_CONTEXT ( 'detailed design', #245, 'design' ) ;
#48 = DIRECTION ( 'NONE',  ( 1.000000000000000000, 0.000000000000000000, 0.000000000000000000 ) ) ;
#49 = APPROVAL_STATUS ( 'not_yet_approved' ) ;
#50 = EDGE_CURVE ( 'NONE', #13, #297, #46, .T. ) ;
#51 = DIRECTION ( 'NONE',  ( 1.000000000000000000, 0.000000000000000000, -0.000000000000000000 ) ) ;
#52 = CIRCLE ( 'NONE', #145, 5.250000000000000888 ) ;
#53 = CARTESIAN_POINT ( 'NONE',  ( 0.000000000000000000, 0.000000000000000000, 105.0000000000000142 ) ) ;
#54 = DIRECTION ( 'NONE',  ( 1.000000000000000000, 0.000000000000000000, 0.000000000000000000 ) ) ;
#55 = CARTESIAN_POINT ( 'NONE',  ( 0.000000000000000000, 0.000000000000000000, 5.199999999999996625 ) ) ;
#56 = CIRCLE ( 'NONE', #268, 0.1999999999999996503 ) ;
#57 = CARTESIAN_POINT ( 'NONE',  ( 0.000000000000000000, 0.000000000000000000, 5.199999999999996625 ) ) ;
#58 = EDGE_CURVE ( 'NONE', #137, #63, #21, .T. ) ;
#59 = DATE_TIME_ROLE ( 'creation_date' ) ;
#60 = SECURITY_CLASSIFICATION ( '', '', #240 ) ;
#61 = PERSON_AND_ORGANIZATION ( #223, #31 ) ;
#62 = VERTEX_POINT ( 'NONE', #261 ) ;
#63 = VERTEX_POINT ( 'NONE', #301 ) ;
#64 = DIRECTION ( 'NONE',  ( 0.000000000000000000, 0.000000000000000000, 1.000000000000000000 ) ) ;
#65 = ORIENTED_EDGE ( 'NONE', *, *, #306, .F. ) ;
#66 = DATE_AND_TIME ( #69, #303 ) ;
#67 = CC_DESIGN_DATE_AND_TIME_ASSIGNMENT ( #142, #97, ( #60 ) ) ;
#68 = ORIENTED_EDGE ( 'NONE', *, *, #7, .T. ) ;
#69 = CALENDAR_DATE ( 2022, 20, 6 ) ;
#70 = CARTESIAN_POINT ( 'NONE',  ( 0.000000000000000000, 0.000000000000000000, 5.000000000000000000 ) ) ;
#71 = CLOSED_SHELL ( 'NONE', ( #244, #194, #294, #4, #39, #289, #233, #241, #278 ) ) ;
#72 = DIRECTION ( 'NONE',  ( -0.000000000000000000, -0.000000000000000000, -1.000000000000000000 ) ) ;
#73 = CARTESIAN_POINT ( 'NONE',  ( 0.000000000000000000, 0.000000000000000000, 5.000000000000000000 ) ) ;
#74 = DIRECTION ( 'NONE',  ( -0.000000000000000000, -0.000000000000000000, -1.000000000000000000 ) ) ;
#75 = AXIS2_PLACEMENT_3D ( 'NONE', #84, #27, #54 ) ;
#76 = APPROVAL_PERSON_ORGANIZATION ( #160, #199, #134 ) ;
#77 = APPLICATION_PROTOCOL_DEFINITION ( 'international standard', 'config_control_design', 1994, #260 ) ;
#78 = CARTESIAN_POINT ( 'NONE',  ( 0.000000000000000000, 0.000000000000000000, 105.0000000000000142 ) ) ;
#79 = EDGE_CURVE ( 'NONE', #297, #210, #1, .T. ) ;
#80 = CARTESIAN_POINT ( 'NONE',  ( -5.250000000000000888, 0.000000000000000000, 5.199999999999996625 ) ) ;
#81 = AXIS2_PLACEMENT_3D ( 'NONE', #305, #171, #102 ) ;
#82 = EDGE_CURVE ( 'NONE', #210, #297, #99, .T. ) ;
#83 = DIRECTION ( 'NONE',  ( 1.000000000000000000, 0.000000000000000000, 0.000000000000000000 ) ) ;
#84 = CARTESIAN_POINT ( 'NONE',  ( 0.000000000000000000, 0.000000000000000000, 5.000000000000000000 ) ) ;
#85 = PRODUCT_DEFINITION_SHAPE ( 'NONE', 'NONE',  #147 ) ;
#86 = AXIS2_PLACEMENT_3D ( 'NONE', #143, #213, #302 ) ;
#87 = VERTEX_POINT ( 'NONE', #96 ) ;
#88 = APPLICATION_PROTOCOL_DEFINITION ( 'international standard', 'config_control_design', 1994, #245 ) ;
#89 = ORIENTED_EDGE ( 'NONE', *, *, #112, .F. ) ;
#90 = COORDINATED_UNIVERSAL_TIME_OFFSET ( 1, 0, .AHEAD. ) ;
#91 = ORIENTED_EDGE ( 'NONE', *, *, #211, .F. ) ;
#92 = ORIENTED_EDGE ( 'NONE', *, *, #292, .T. ) ;
#93 = CIRCLE ( 'NONE', #214, 8.000000000000000000 ) ;
#94 = LOCAL_TIME ( 11, 37, 54.00000000000000000, #45 ) ;
#95 = ORIENTED_EDGE ( 'NONE', *, *, #50, .T. ) ;
#96 = CARTESIAN_POINT ( 'NONE',  ( 5.250000000000000888, 6.429395695523605139E-16, 105.0000000000000142 ) ) ;
#97 = DATE_TIME_ROLE ( 'classification_date' ) ;
#98 = FACE_BOUND ( 'NONE', #276, .T. ) ;
#99 = CIRCLE ( 'NONE', #291, 8.000000000000000000 ) ;
#100 = DIRECTION ( 'NONE',  ( 1.000000000000000000, 0.000000000000000000, 0.000000000000000000 ) ) ;
#101 = EDGE_CURVE ( 'NONE', #87, #62, #43, .T. ) ;
#102 = DIRECTION ( 'NONE',  ( -1.000000000000000000, 0.000000000000000000, 0.000000000000000000 ) ) ;
#103 = DIRECTION ( 'NONE',  ( 1.000000000000000000, 0.000000000000000000, -0.000000000000000000 ) ) ;
#104 = DIRECTION ( 'NONE',  ( 1.000000000000000000, 0.000000000000000000, 0.000000000000000000 ) ) ;
#105 = APPROVAL ( #49, 'NEURÈENÝ' ) ;
#106 = ORIENTED_EDGE ( 'NONE', *, *, #82, .F. ) ;
#107 = VECTOR ( 'NONE', #125, 1000.000000000000000 ) ;
#108 = CC_DESIGN_SECURITY_CLASSIFICATION ( #60, ( #30 ) ) ;
#109 = CYLINDRICAL_SURFACE ( 'NONE', #277, 8.000000000000000000 ) ;
#110 = EDGE_LOOP ( 'NONE', ( #161, #249 ) ) ;
#111 = ORIENTED_EDGE ( 'NONE', *, *, #101, .F. ) ;
#112 = EDGE_CURVE ( 'NONE', #62, #87, #178, .T. ) ;
#113 = APPROVAL_DATE_TIME ( #66, #105 ) ;
#114 = ORIENTED_EDGE ( 'NONE', *, *, #14, .F. ) ;
#115 = LOCAL_TIME ( 11, 37, 54.00000000000000000, #154 ) ;
#116 = DIRECTION ( 'NONE',  ( -0.000000000000000000, -0.000000000000000000, -1.000000000000000000 ) ) ;
#117 = DIRECTION ( 'NONE',  ( -0.000000000000000000, -0.000000000000000000, -1.000000000000000000 ) ) ;
#118 = DIRECTION ( 'NONE',  ( 0.000000000000000000, 0.000000000000000000, 1.000000000000000000 ) ) ;
#119 = TOROIDAL_SURFACE ( 'NONE', #24, 5.450000000000001066, 0.2000000000000000111 ) ;
#120 = DIRECTION ( 'NONE',  ( 0.000000000000000000, 0.000000000000000000, 1.000000000000000000 ) ) ;
#121 = CARTESIAN_POINT ( 'NONE',  ( -5.450000000000001066, 6.674325055353076224E-16, 4.999999999999998224 ) ) ;
#122 = CC_DESIGN_PERSON_AND_ORGANIZATION_ASSIGNMENT ( #35, #228, ( #224 ) ) ;
#123 = DIRECTION ( 'NONE',  ( 1.000000000000000000, 0.000000000000000000, 0.000000000000000000 ) ) ;
#124 = AXIS2_PLACEMENT_3D ( 'NONE', #164, #72, #166 ) ;
#125 = DIRECTION ( 'NONE',  ( -0.000000000000000000, -0.000000000000000000, -1.000000000000000000 ) ) ;
#126 = CARTESIAN_POINT ( 'NONE',  ( -8.000000000000000000, 0.000000000000000000, 0.000000000000000000 ) ) ;
#127 = DIRECTION ( 'NONE',  ( 0.000000000000000000, 0.000000000000000000, 1.000000000000000000 ) ) ;
#128 = FACE_OUTER_BOUND ( 'NONE', #257, .T. ) ;
#129 = CC_DESIGN_PERSON_AND_ORGANIZATION_ASSIGNMENT ( #274, #204, ( #147 ) ) ;
#130 = FACE_OUTER_BOUND ( 'NONE', #188, .T. ) ;
#131 = UNCERTAINTY_MEASURE_WITH_UNIT (LENGTH_MEASURE( 1.000000000000000082E-05 ), #177, 'distance_accuracy_value', 'NONE');
#132 = CARTESIAN_POINT ( 'NONE',  ( 0.000000000000000000, 0.000000000000000000, 0.000000000000000000 ) ) ;
#133 = CC_DESIGN_APPROVAL ( #220, ( #147 ) ) ;
#134 = APPROVAL_ROLE ( '' ) ;
#135 = CC_DESIGN_PERSON_AND_ORGANIZATION_ASSIGNMENT ( #163, #234, ( #30 ) ) ;
#136 = ORIENTED_EDGE ( 'NONE', *, *, #7, .F. ) ;
#137 = VERTEX_POINT ( 'NONE', #121 ) ;
#138 = PERSON_AND_ORGANIZATION_ROLE ( 'design_supplier' ) ;
#139 = CARTESIAN_POINT ( 'NONE',  ( 0.000000000000000000, 0.000000000000000000, 0.000000000000000000 ) ) ;
#140 = CARTESIAN_POINT ( 'NONE',  ( 0.000000000000000000, 0.000000000000000000, 0.000000000000000000 ) ) ;
#141 = FACE_OUTER_BOUND ( 'NONE', #296, .T. ) ;
#142 = DATE_AND_TIME ( #237, #94 ) ;
#143 = CARTESIAN_POINT ( 'NONE',  ( 0.000000000000000000, 0.000000000000000000, 105.0000000000000142 ) ) ;
#144 = MANIFOLD_SOLID_BREP ( 'Zaoblit1', #71 ) ;
#145 = AXIS2_PLACEMENT_3D ( 'NONE', #218, #168, #48 ) ;
#146 = DIRECTION ( 'NONE',  ( -1.000000000000000000, 1.224646799147353454E-16, 0.000000000000000000 ) ) ;
#147 = PRODUCT_DEFINITION ( 'NEZNÁMÝ', '', #30, #47 ) ;
#148 = DIRECTION ( 'NONE',  ( -1.000000000000000000, 0.000000000000000000, 0.000000000000000000 ) ) ;
#149 = PLANE ( 'NONE',  #11 ) ;
#150 = CARTESIAN_POINT ( 'NONE',  ( 0.000000000000000000, 0.000000000000000000, 0.000000000000000000 ) ) ;
#151 = CC_DESIGN_PERSON_AND_ORGANIZATION_ASSIGNMENT ( #264, #208, ( #60 ) ) ;
#152 = DIRECTION ( 'NONE',  ( 1.000000000000000000, 0.000000000000000000, 0.000000000000000000 ) ) ;
#153 = CARTESIAN_POINT ( 'NONE',  ( 5.250000000000000888, 6.429395695523605139E-16, 5.199999999999996625 ) ) ;
#154 = COORDINATED_UNIVERSAL_TIME_OFFSET ( 1, 0, .AHEAD. ) ;
#155 = PRODUCT_RELATED_PRODUCT_CATEGORY ( 'detail', '', ( #224 ) ) ;
#156 = APPROVAL_STATUS ( 'not_yet_approved' ) ;
#157 = EDGE_LOOP ( 'NONE', ( #111, #92, #226, #136 ) ) ;
#158 = CYLINDRICAL_SURFACE ( 'NONE', #173, 8.000000000000000000 ) ;
#159 = ORIENTED_EDGE ( 'NONE', *, *, #285, .F. ) ;
#160 = PERSON_AND_ORGANIZATION ( #223, #31 ) ;
#161 = ORIENTED_EDGE ( 'NONE', *, *, #285, .T. ) ;
#162 = EDGE_LOOP ( 'NONE', ( #207, #106 ) ) ;
#163 = PERSON_AND_ORGANIZATION ( #223, #31 ) ;
#164 = CARTESIAN_POINT ( 'NONE',  ( 0.000000000000000000, 0.000000000000000000, 5.000000000000000000 ) ) ;
#165 = COORDINATED_UNIVERSAL_TIME_OFFSET ( 1, 0, .AHEAD. ) ;
#166 = DIRECTION ( 'NONE',  ( 1.000000000000000000, 0.000000000000000000, 0.000000000000000000 ) ) ;
#167 = SHAPE_DEFINITION_REPRESENTATION ( #85, #42 ) ;
#168 = DIRECTION ( 'NONE',  ( 0.000000000000000000, 0.000000000000000000, 1.000000000000000000 ) ) ;
#169 = PERSON_AND_ORGANIZATION ( #223, #31 ) ;
#170 = CC_DESIGN_PERSON_AND_ORGANIZATION_ASSIGNMENT ( #20, #138, ( #30 ) ) ;
#171 = DIRECTION ( 'NONE',  ( -0.000000000000000000, -0.000000000000000000, -1.000000000000000000 ) ) ;
#172 = CIRCLE ( 'NONE', #75, 8.000000000000000000 ) ;
#173 = AXIS2_PLACEMENT_3D ( 'NONE', #12, #235, #148 ) ;
#174 = FACE_OUTER_BOUND ( 'NONE', #157, .T. ) ;
#175 = CARTESIAN_POINT ( 'NONE',  ( 5.450000000000001066, 0.000000000000000000, 5.199999999999996625 ) ) ;
#176 = CC_DESIGN_APPROVAL ( #105, ( #60 ) ) ;
#177 =( LENGTH_UNIT ( ) NAMED_UNIT ( * ) SI_UNIT ( .MILLI., .METRE. ) );
#178 = CIRCLE ( 'NONE', #86, 5.250000000000000888 ) ;
#179 = CIRCLE ( 'NONE', #248, 0.1999999999999996503 ) ;
#180 = ORIENTED_EDGE ( 'NONE', *, *, #189, .F. ) ;
#181 = APPROVAL_DATE_TIME ( #185, #220 ) ;
#182 = CARTESIAN_POINT ( 'NONE',  ( 0.000000000000000000, 0.000000000000000000, 5.000000000000000000 ) ) ;
#183 = DATE_AND_TIME ( #273, #229 ) ;
#184 = ORIENTED_EDGE ( 'NONE', *, *, #112, .T. ) ;
#185 = DATE_AND_TIME ( #252, #290 ) ;
#186 = AXIS2_PLACEMENT_3D ( 'NONE', #78, #243, #103 ) ;
#187 = ORIENTED_EDGE ( 'NONE', *, *, #189, .T. ) ;
#188 = EDGE_LOOP ( 'NONE', ( #231, #159, #95, #281 ) ) ;
#189 = EDGE_CURVE ( 'NONE', #295, #254, #52, .T. ) ;
#190 = DIRECTION ( 'NONE',  ( 1.000000000000000000, 0.000000000000000000, 0.000000000000000000 ) ) ;
#191 = TOROIDAL_SURFACE ( 'NONE', #300, 5.450000000000001066, 0.2000000000000000111 ) ;
#192 = CYLINDRICAL_SURFACE ( 'NONE', #5, 5.250000000000000888 ) ;
#193 = DIRECTION ( 'NONE',  ( 1.000000000000000000, 0.000000000000000000, 0.000000000000000000 ) ) ;
#194 = ADVANCED_FACE ( 'NONE', ( #174 ), #192, .T. ) ;
#195 = FACE_OUTER_BOUND ( 'NONE', #9, .T. ) ;
#196 = FACE_OUTER_BOUND ( 'NONE', #41, .T. ) ;
#197 = LINE ( 'NONE', #270, #253 ) ;
#198 = AXIS2_PLACEMENT_3D ( 'NONE', #140, #236, #212 ) ;
#199 = APPROVAL ( #38, 'NEURÈENÝ' ) ;
#200 = ORIENTED_EDGE ( 'NONE', *, *, #101, .T. ) ;
#201 = CIRCLE ( 'NONE', #251, 5.250000000000000888 ) ;
#202 = FACE_OUTER_BOUND ( 'NONE', #34, .T. ) ;
#203 = ORIENTED_EDGE ( 'NONE', *, *, #267, .T. ) ;
#204 = PERSON_AND_ORGANIZATION_ROLE ( 'creator' ) ;
#205 = EDGE_CURVE ( 'NONE', #15, #13, #93, .T. ) ;
#206 = ORIENTED_EDGE ( 'NONE', *, *, #58, .F. ) ;
#207 = ORIENTED_EDGE ( 'NONE', *, *, #79, .F. ) ;
#208 = PERSON_AND_ORGANIZATION_ROLE ( 'classification_officer' ) ;
#209 = CIRCLE ( 'NONE', #124, 5.450000000000001066 ) ;
#210 = VERTEX_POINT ( 'NONE', #263 ) ;
#211 = EDGE_CURVE ( 'NONE', #63, #137, #209, .T. ) ;
#212 = DIRECTION ( 'NONE',  ( 1.000000000000000000, 0.000000000000000000, 0.000000000000000000 ) ) ;
#213 = DIRECTION ( 'NONE',  ( 0.000000000000000000, 0.000000000000000000, 1.000000000000000000 ) ) ;
#214 = AXIS2_PLACEMENT_3D ( 'NONE', #70, #307, #193 ) ;
#215 = FACE_OUTER_BOUND ( 'NONE', #110, .T. ) ;
#216 = APPROVAL_PERSON_ORGANIZATION ( #61, #220, #8 ) ;
#217 = CYLINDRICAL_SURFACE ( 'NONE', #81, 5.250000000000000888 ) ;
#218 = CARTESIAN_POINT ( 'NONE',  ( 0.000000000000000000, 0.000000000000000000, 5.199999999999996625 ) ) ;
#219 = FACE_OUTER_BOUND ( 'NONE', #162, .T. ) ;
#220 = APPROVAL ( #156, 'NEURÈENÝ' ) ;
#221 = VECTOR ( 'NONE', #116, 1000.000000000000000 ) ;
#222 = DIRECTION ( 'NONE',  ( 0.000000000000000000, 0.000000000000000000, 1.000000000000000000 ) ) ;
#223 = PERSON ( 'NEURÈENÝ', 'NEURÈENÝ', 'NEURÈENÝ', ('NEURÈENÝ'), ('NEURÈENÝ'), ('NEURÈENÝ') ) ;
#224 = PRODUCT ( '4533', '4533', '', ( #230 ) ) ;
#225 = ORIENTED_EDGE ( 'NONE', *, *, #50, .F. ) ;
#226 = ORIENTED_EDGE ( 'NONE', *, *, #262, .T. ) ;
#227 = AXIS2_PLACEMENT_3D ( 'NONE', #22, #118, #51 ) ;
#228 = PERSON_AND_ORGANIZATION_ROLE ( 'design_owner' ) ;
#229 = LOCAL_TIME ( 11, 37, 54.00000000000000000, #293 ) ;
#230 = MECHANICAL_CONTEXT ( 'NONE', #260, 'mechanical' ) ;
#231 = ORIENTED_EDGE ( 'NONE', *, *, #267, .F. ) ;
#232 = ORIENTED_EDGE ( 'NONE', *, *, #14, .T. ) ;
#233 = ADVANCED_FACE ( 'NONE', ( #141 ), #217, .T. ) ;
#234 = PERSON_AND_ORGANIZATION_ROLE ( 'creator' ) ;
#235 = DIRECTION ( 'NONE',  ( -0.000000000000000000, -0.000000000000000000, -1.000000000000000000 ) ) ;
#236 = DIRECTION ( 'NONE',  ( 0.000000000000000000, 0.000000000000000000, 1.000000000000000000 ) ) ;
#237 = CALENDAR_DATE ( 2022, 20, 6 ) ;
#238 = DIRECTION ( 'NONE',  ( 1.000000000000000000, 0.000000000000000000, 0.000000000000000000 ) ) ;
#239 = CARTESIAN_POINT ( 'NONE',  ( 8.000000000000000000, 9.797174393178825657E-16, 5.000000000000000000 ) ) ;
#240 = SECURITY_CLASSIFICATION_LEVEL ( 'unclassified' ) ;
#241 = ADVANCED_FACE ( 'NONE', ( #195 ), #288, .T. ) ;
#242 = DIRECTION ( 'NONE',  ( -1.000000000000000000, 0.000000000000000000, 0.000000000000000000 ) ) ;
#243 = DIRECTION ( 'NONE',  ( 0.000000000000000000, 0.000000000000000000, 1.000000000000000000 ) ) ;
#244 = ADVANCED_FACE ( 'NONE', ( #196 ), #119, .F. ) ;
#245 = APPLICATION_CONTEXT ( 'configuration controlled 3d designs of mechanical parts and assemblies' ) ;
#246 = DIRECTION ( 'NONE',  ( 0.000000000000000000, -1.000000000000000000, 0.000000000000000000 ) ) ;
#247 = LINE ( 'NONE', #6, #107 ) ;
#248 = AXIS2_PLACEMENT_3D ( 'NONE', #175, #246, #28 ) ;
#249 = ORIENTED_EDGE ( 'NONE', *, *, #205, .T. ) ;
#250 = ORIENTED_EDGE ( 'NONE', *, *, #262, .F. ) ;
#251 = AXIS2_PLACEMENT_3D ( 'NONE', #55, #127, #104 ) ;
#252 = CALENDAR_DATE ( 2022, 20, 6 ) ;
#253 = VECTOR ( 'NONE', #33, 1000.000000000000000 ) ;
#254 = VERTEX_POINT ( 'NONE', #153 ) ;
#255 = CC_DESIGN_DATE_AND_TIME_ASSIGNMENT ( #183, #59, ( #147 ) ) ;
#256 = ORIENTED_EDGE ( 'NONE', *, *, #306, .T. ) ;
#257 = EDGE_LOOP ( 'NONE', ( #114, #250, #256, #206 ) ) ;
#258 = CC_DESIGN_APPROVAL ( #199, ( #30 ) ) ;
#259 = LINE ( 'NONE', #18, #29 ) ;
#260 = APPLICATION_CONTEXT ( 'configuration controlled 3d designs of mechanical parts and assemblies' ) ;
#261 = CARTESIAN_POINT ( 'NONE',  ( -5.250000000000000888, 0.000000000000000000, 105.0000000000000142 ) ) ;
#262 = EDGE_CURVE ( 'NONE', #254, #295, #201, .T. ) ;
#263 = CARTESIAN_POINT ( 'NONE',  ( 8.000000000000000000, 9.797174393178825657E-16, 0.000000000000000000 ) ) ;
#264 = PERSON_AND_ORGANIZATION ( #223, #31 ) ;
#265 = CARTESIAN_POINT ( 'NONE',  ( 0.000000000000000000, 0.000000000000000000, 105.0000000000000142 ) ) ;
#266 = PLANE ( 'NONE',  #227 ) ;
#267 = EDGE_CURVE ( 'NONE', #15, #210, #247, .T. ) ;
#268 = AXIS2_PLACEMENT_3D ( 'NONE', #284, #17, #146 ) ;
#269 = AXIS2_PLACEMENT_3D ( 'NONE', #132, #64, #83 ) ;
#270 = CARTESIAN_POINT ( 'NONE',  ( 5.250000000000000888, 6.429395695523605139E-16, 105.0000000000000142 ) ) ;
#271 =( NAMED_UNIT ( * ) SI_UNIT ( $, .STERADIAN. ) SOLID_ANGLE_UNIT ( ) );
#272 = DIRECTION ( 'NONE',  ( 0.000000000000000000, 0.000000000000000000, 1.000000000000000000 ) ) ;
#273 = CALENDAR_DATE ( 2022, 20, 6 ) ;
#274 = PERSON_AND_ORGANIZATION ( #223, #31 ) ;
#275 = DIRECTION ( 'NONE',  ( -0.000000000000000000, -0.000000000000000000, -1.000000000000000000 ) ) ;
#276 = EDGE_LOOP ( 'NONE', ( #279, #40 ) ) ;
#277 = AXIS2_PLACEMENT_3D ( 'NONE', #182, #275, #286 ) ;
#278 = ADVANCED_FACE ( 'NONE', ( #128 ), #191, .F. ) ;
#279 = ORIENTED_EDGE ( 'NONE', *, *, #211, .T. ) ;
#280 = DATE_AND_TIME ( #32, #115 ) ;
#281 = ORIENTED_EDGE ( 'NONE', *, *, #79, .T. ) ;
#282 = DIRECTION ( 'NONE',  ( 0.000000000000000000, 0.000000000000000000, 1.000000000000000000 ) ) ;
#283 = APPROVAL_ROLE ( '' ) ;
#284 = CARTESIAN_POINT ( 'NONE',  ( -5.450000000000001066, 6.674325055353076224E-16, 5.199999999999996625 ) ) ;
#285 = EDGE_CURVE ( 'NONE', #13, #15, #172, .T. ) ;
#286 = DIRECTION ( 'NONE',  ( -1.000000000000000000, 0.000000000000000000, 0.000000000000000000 ) ) ;
#287 = APPROVAL_DATE_TIME ( #280, #199 ) ;
#288 = PLANE ( 'NONE',  #186 ) ;
#289 = ADVANCED_FACE ( 'NONE', ( #219 ), #149, .F. ) ;
#290 = LOCAL_TIME ( 11, 37, 54.00000000000000000, #90 ) ;
#291 = AXIS2_PLACEMENT_3D ( 'NONE', #139, #120, #100 ) ;
#292 = EDGE_CURVE ( 'NONE', #87, #254, #197, .T. ) ;
#293 = COORDINATED_UNIVERSAL_TIME_OFFSET ( 1, 0, .AHEAD. ) ;
#294 = ADVANCED_FACE ( 'NONE', ( #202 ), #158, .T. ) ;
#295 = VERTEX_POINT ( 'NONE', #80 ) ;
#296 = EDGE_LOOP ( 'NONE', ( #298, #89, #68, #187 ) ) ;
#297 = VERTEX_POINT ( 'NONE', #126 ) ;
#298 = ORIENTED_EDGE ( 'NONE', *, *, #292, .F. ) ;
#299 = AXIS2_PLACEMENT_3D ( 'NONE', #73, #19, #190 ) ;
#300 = AXIS2_PLACEMENT_3D ( 'NONE', #57, #222, #152 ) ;
#301 = CARTESIAN_POINT ( 'NONE',  ( 5.450000000000001066, 0.000000000000000000, 4.999999999999998224 ) ) ;
#302 = DIRECTION ( 'NONE',  ( 1.000000000000000000, 0.000000000000000000, 0.000000000000000000 ) ) ;
#303 = LOCAL_TIME ( 11, 37, 54.00000000000000000, #165 ) ;
#304 = CARTESIAN_POINT ( 'NONE',  ( -8.000000000000000000, 0.000000000000000000, 5.000000000000000000 ) ) ;
#305 = CARTESIAN_POINT ( 'NONE',  ( 0.000000000000000000, 0.000000000000000000, 105.0000000000000142 ) ) ;
#306 = EDGE_CURVE ( 'NONE', #254, #63, #179, .T. ) ;
#307 = DIRECTION ( 'NONE',  ( 0.000000000000000000, 0.000000000000000000, 1.000000000000000000 ) ) ;
ENDSEC;
END-ISO-10303-21;
