ISO-10303-21;
HEADER;
FILE_DESCRIPTION (( 'STEP AP203' ),
    '1' );
FILE_NAME ('2daa.STEP',
    '2022-06-20T09:30:41',
    ( '' ),
    ( '' ),
    'SwSTEP 2.0',
    'SolidWorks 2019',
    '' );
FILE_SCHEMA (( 'CONFIG_CONTROL_DESIGN' ));
ENDSEC;

DATA;
#1 = APPROVAL_ROLE ( '' ) ;
#2 = VERTEX_POINT ( 'NONE', #173 ) ;
#3 = EDGE_CURVE ( 'NONE', #2, #290, #170, .T. ) ;
#4 = EDGE_CURVE ( 'NONE', #2, #5, #113, .T. ) ;
#5 = VERTEX_POINT ( 'NONE', #40 ) ;
#6 = AXIS2_PLACEMENT_3D ( 'NONE', #217, #135, #198 ) ;
#7 = COORDINATED_UNIVERSAL_TIME_OFFSET ( 1, 0, .AHEAD. ) ;
#8 = ORIENTED_EDGE ( 'NONE', *, *, #20, .T. ) ;
#9 = LOCAL_TIME ( 11, 30, 41.00000000000000000, #235 ) ;
#10 = ORIENTED_EDGE ( 'NONE', *, *, #51, .T. ) ;
#11 = ORIENTED_EDGE ( 'NONE', *, *, #182, .T. ) ;
#12 = FACE_OUTER_BOUND ( 'NONE', #211, .T. ) ;
#13 = DIRECTION ( 'NONE',  ( -0.000000000000000000, -0.000000000000000000, -1.000000000000000000 ) ) ;
#14 = LOCAL_TIME ( 11, 30, 41.00000000000000000, #30 ) ;
#15 = CARTESIAN_POINT ( 'NONE',  ( 0.000000000000000000, 0.000000000000000000, 407.0000000000000000 ) ) ;
#16 = DIRECTION ( 'NONE',  ( -1.000000000000000000, 0.000000000000000000, 0.000000000000000000 ) ) ;
#17 = PLANE ( 'NONE',  #253 ) ;
#18 = CARTESIAN_POINT ( 'NONE',  ( 0.000000000000000000, 0.000000000000000000, 407.0000000000000000 ) ) ;
#19 = CC_DESIGN_PERSON_AND_ORGANIZATION_ASSIGNMENT ( #164, #252, ( #42 ) ) ;
#20 = EDGE_CURVE ( 'NONE', #241, #5, #232, .T. ) ;
#21 = DIRECTION ( 'NONE',  ( 1.000000000000000000, 0.000000000000000000, 0.000000000000000000 ) ) ;
#22 = FACE_OUTER_BOUND ( 'NONE', #194, .T. ) ;
#23 = LOCAL_TIME ( 11, 30, 41.00000000000000000, #46 ) ;
#24 = VERTEX_POINT ( 'NONE', #41 ) ;
#25 = SHAPE_DEFINITION_REPRESENTATION ( #184, #86 ) ;
#26 = EDGE_CURVE ( 'NONE', #189, #261, #142, .T. ) ;
#27 = CIRCLE ( 'NONE', #64, 6.099999999999999645 ) ;
#28 = AXIS2_PLACEMENT_3D ( 'NONE', #248, #177, #115 ) ;
#29 = CC_DESIGN_SECURITY_CLASSIFICATION ( #255, ( #279 ) ) ;
#30 = COORDINATED_UNIVERSAL_TIME_OFFSET ( 1, 0, .AHEAD. ) ;
#31 = ORIENTED_EDGE ( 'NONE', *, *, #137, .T. ) ;
#32 = ORIENTED_EDGE ( 'NONE', *, *, #231, .T. ) ;
#33 = EDGE_LOOP ( 'NONE', ( #127, #171, #120, #77 ) ) ;
#34 = DIRECTION ( 'NONE',  ( 0.000000000000000000, 0.000000000000000000, 1.000000000000000000 ) ) ;
#35 = LINE ( 'NONE', #131, #246 ) ;
#36 = DIRECTION ( 'NONE',  ( -1.000000000000000000, 1.224646799147353454E-16, 0.000000000000000000 ) ) ;
#37 = ADVANCED_FACE ( 'NONE', ( #114 ), #62, .F. ) ;
#38 = AXIS2_PLACEMENT_3D ( 'NONE', #140, #275, #162 ) ;
#39 = DIRECTION ( 'NONE',  ( 1.000000000000000000, 0.000000000000000000, 0.000000000000000000 ) ) ;
#40 = CARTESIAN_POINT ( 'NONE',  ( 6.099999999999999645, 7.470345474798854293E-16, 7.199999999999984190 ) ) ;
#41 = CARTESIAN_POINT ( 'NONE',  ( 6.299999999999998934, 0.000000000000000000, 6.999999999999992006 ) ) ;
#42 = PRODUCT_DEFINITION ( 'NEZNÁMÝ', '', #279, #92 ) ;
#43 = CLOSED_SHELL ( 'NONE', ( #265, #97, #227, #259, #60, #37, #302, #94, #74 ) ) ;
#44 = CARTESIAN_POINT ( 'NONE',  ( 0.000000000000000000, 0.000000000000000000, 407.0000000000000000 ) ) ;
#45 = FACE_OUTER_BOUND ( 'NONE', #285, .T. ) ;
#46 = COORDINATED_UNIVERSAL_TIME_OFFSET ( 1, 0, .AHEAD. ) ;
#47 = DIRECTION ( 'NONE',  ( 0.000000000000000000, 0.000000000000000000, 1.000000000000000000 ) ) ;
#48 = DIRECTION ( 'NONE',  ( -0.000000000000000000, -0.000000000000000000, -1.000000000000000000 ) ) ;
#49 = PERSON_AND_ORGANIZATION ( #73, #229 ) ;
#50 = APPROVAL_STATUS ( 'not_yet_approved' ) ;
#51 = EDGE_CURVE ( 'NONE', #24, #152, #85, .T. ) ;
#52 = EDGE_LOOP ( 'NONE', ( #10, #76 ) ) ;
#53 = CALENDAR_DATE ( 2022, 20, 6 ) ;
#54 = AXIS2_PLACEMENT_3D ( 'NONE', #269, #111, #242 ) ;
#55 = ORIENTED_EDGE ( 'NONE', *, *, #83, .F. ) ;
#56 = CIRCLE ( 'NONE', #166, 0.1999999999999996503 ) ;
#57 = ORIENTED_EDGE ( 'NONE', *, *, #3, .F. ) ;
#58 = DIRECTION ( 'NONE',  ( 1.224646799147353207E-16, 1.000000000000000000, -0.000000000000000000 ) ) ;
#59 = LINE ( 'NONE', #156, #291 ) ;
#60 = ADVANCED_FACE ( 'NONE', ( #294, #12 ), #17, .T. ) ;
#61 = DIRECTION ( 'NONE',  ( -0.000000000000000000, -0.000000000000000000, -1.000000000000000000 ) ) ;
#62 = PLANE ( 'NONE',  #213 ) ;
#63 = AXIS2_PLACEMENT_3D ( 'NONE', #18, #159, #221 ) ;
#64 = AXIS2_PLACEMENT_3D ( 'NONE', #230, #95, #21 ) ;
#65 = DIRECTION ( 'NONE',  ( 0.000000000000000000, 0.000000000000000000, 1.000000000000000000 ) ) ;
#66 = DIRECTION ( 'NONE',  ( 1.000000000000000000, 0.000000000000000000, -0.000000000000000000 ) ) ;
#67 = CARTESIAN_POINT ( 'NONE',  ( -6.099999999999999645, 0.000000000000000000, 407.0000000000000000 ) ) ;
#68 =( NAMED_UNIT ( * ) PLANE_ANGLE_UNIT ( ) SI_UNIT ( $, .RADIAN. ) );
#69 = DIRECTION ( 'NONE',  ( -0.000000000000000000, -0.000000000000000000, -1.000000000000000000 ) ) ;
#70 = APPROVAL ( #50, 'NEURÈENÝ' ) ;
#71 = DIRECTION ( 'NONE',  ( 0.000000000000000000, 0.000000000000000000, 1.000000000000000000 ) ) ;
#72 = CIRCLE ( 'NONE', #28, 0.1999999999999996503 ) ;
#73 = PERSON ( 'NEURÈENÝ', 'NEURÈENÝ', 'NEURÈENÝ', ('NEURÈENÝ'), ('NEURÈENÝ'), ('NEURÈENÝ') ) ;
#74 = ADVANCED_FACE ( 'NONE', ( #109 ), #108, .F. ) ;
#75 = APPROVAL_ROLE ( '' ) ;
#76 = ORIENTED_EDGE ( 'NONE', *, *, #187, .T. ) ;
#77 = ORIENTED_EDGE ( 'NONE', *, *, #187, .F. ) ;
#78 = PERSON_AND_ORGANIZATION ( #73, #229 ) ;
#79 = ORIENTED_EDGE ( 'NONE', *, *, #149, .F. ) ;
#80 = ORIENTED_EDGE ( 'NONE', *, *, #26, .F. ) ;
#81 = AXIS2_PLACEMENT_3D ( 'NONE', #84, #65, #39 ) ;
#82 = EDGE_LOOP ( 'NONE', ( #150, #239, #11, #101 ) ) ;
#83 = EDGE_CURVE ( 'NONE', #215, #147, #249, .T. ) ;
#84 = CARTESIAN_POINT ( 'NONE',  ( 0.000000000000000000, 0.000000000000000000, 7.199999999999984190 ) ) ;
#85 = CIRCLE ( 'NONE', #207, 6.299999999999998934 ) ;
#86 = ADVANCED_BREP_SHAPE_REPRESENTATION ( '2daa', ( #240, #133 ), #93 ) ;
#87 = CARTESIAN_POINT ( 'NONE',  ( 0.000000000000000000, 0.000000000000000000, 7.000000000000000000 ) ) ;
#88 = CARTESIAN_POINT ( 'NONE',  ( -6.299999999999998934, 7.715274834628324392E-16, 7.199999999999984190 ) ) ;
#89 = DIRECTION ( 'NONE',  ( 1.000000000000000000, 0.000000000000000000, 0.000000000000000000 ) ) ;
#90 = DIRECTION ( 'NONE',  ( 1.000000000000000000, 0.000000000000000000, 0.000000000000000000 ) ) ;
#91 = MECHANICAL_CONTEXT ( 'NONE', #197, 'mechanical' ) ;
#92 = DESIGN_CONTEXT ( 'detailed design', #157, 'design' ) ;
#93 =( GEOMETRIC_REPRESENTATION_CONTEXT ( 3 ) GLOBAL_UNCERTAINTY_ASSIGNED_CONTEXT ( ( #139 ) ) GLOBAL_UNIT_ASSIGNED_CONTEXT ( ( #143, #68, #119 ) ) REPRESENTATION_CONTEXT ( 'NONE', 'WORKASPACE' ) );
#94 = ADVANCED_FACE ( 'NONE', ( #271 ), #223, .T. ) ;
#95 = DIRECTION ( 'NONE',  ( 0.000000000000000000, 0.000000000000000000, 1.000000000000000000 ) ) ;
#96 = DIRECTION ( 'NONE',  ( 1.000000000000000000, 0.000000000000000000, 0.000000000000000000 ) ) ;
#97 = ADVANCED_FACE ( 'NONE', ( #300 ), #160, .T. ) ;
#98 = CC_DESIGN_APPROVAL ( #158, ( #42 ) ) ;
#99 = ORIENTED_EDGE ( 'NONE', *, *, #107, .T. ) ;
#100 = APPROVAL_ROLE ( '' ) ;
#101 = ORIENTED_EDGE ( 'NONE', *, *, #107, .F. ) ;
#102 = VECTOR ( 'NONE', #247, 1000.000000000000000 ) ;
#103 = CALENDAR_DATE ( 2022, 20, 6 ) ;
#104 = ORIENTED_EDGE ( 'NONE', *, *, #231, .F. ) ;
#105 = CIRCLE ( 'NONE', #282, 9.000000000000000000 ) ;
#106 = APPROVAL_PERSON_ORGANIZATION ( #307, #158, #1 ) ;
#107 = EDGE_CURVE ( 'NONE', #189, #215, #59, .T. ) ;
#108 = TOROIDAL_SURFACE ( 'NONE', #81, 6.299999999999998934, 0.2000000000000000111 ) ;
#109 = FACE_OUTER_BOUND ( 'NONE', #33, .T. ) ;
#110 = AXIS2_PLACEMENT_3D ( 'NONE', #274, #34, #270 ) ;
#111 = DIRECTION ( 'NONE',  ( 0.000000000000000000, 0.000000000000000000, 1.000000000000000000 ) ) ;
#112 = LINE ( 'NONE', #295, #204 ) ;
#113 = LINE ( 'NONE', #293, #102 ) ;
#114 = FACE_OUTER_BOUND ( 'NONE', #169, .T. ) ;
#115 = DIRECTION ( 'NONE',  ( 0.000000000000000000, 0.000000000000000000, -1.000000000000000000 ) ) ;
#116 = DIRECTION ( 'NONE',  ( -0.000000000000000000, -0.000000000000000000, -1.000000000000000000 ) ) ;
#117 = EDGE_CURVE ( 'NONE', #261, #147, #35, .T. ) ;
#118 = CALENDAR_DATE ( 2022, 20, 6 ) ;
#119 =( NAMED_UNIT ( * ) SI_UNIT ( $, .STERADIAN. ) SOLID_ANGLE_UNIT ( ) );
#120 = ORIENTED_EDGE ( 'NONE', *, *, #149, .T. ) ;
#121 = PRODUCT ( '2daa', '2daa', '', ( #91 ) ) ;
#122 = PERSON_AND_ORGANIZATION_ROLE ( 'design_owner' ) ;
#123 = AXIS2_PLACEMENT_3D ( 'NONE', #134, #296, #178 ) ;
#124 = CIRCLE ( 'NONE', #292, 6.099999999999999645 ) ;
#125 = EDGE_LOOP ( 'NONE', ( #57, #266, #258, #104 ) ) ;
#126 = CC_DESIGN_DATE_AND_TIME_ASSIGNMENT ( #306, #287, ( #42 ) ) ;
#127 = ORIENTED_EDGE ( 'NONE', *, *, #208, .F. ) ;
#128 = CIRCLE ( 'NONE', #110, 9.000000000000000000 ) ;
#129 = ORIENTED_EDGE ( 'NONE', *, *, #3, .T. ) ;
#130 = DIRECTION ( 'NONE',  ( -0.000000000000000000, -0.000000000000000000, -1.000000000000000000 ) ) ;
#131 = CARTESIAN_POINT ( 'NONE',  ( 9.000000000000000000, 1.102182119232617714E-15, 7.000000000000000000 ) ) ;
#132 = DIRECTION ( 'NONE',  ( 1.000000000000000000, 0.000000000000000000, 0.000000000000000000 ) ) ;
#133 = AXIS2_PLACEMENT_3D ( 'NONE', #226, #205, #96 ) ;
#134 = CARTESIAN_POINT ( 'NONE',  ( 0.000000000000000000, 0.000000000000000000, 0.000000000000000000 ) ) ;
#135 = DIRECTION ( 'NONE',  ( 0.000000000000000000, 0.000000000000000000, 1.000000000000000000 ) ) ;
#136 = AXIS2_PLACEMENT_3D ( 'NONE', #44, #48, #163 ) ;
#137 = EDGE_CURVE ( 'NONE', #290, #2, #124, .T. ) ;
#138 = PRODUCT_RELATED_PRODUCT_CATEGORY ( 'detail', '', ( #121 ) ) ;
#139 = UNCERTAINTY_MEASURE_WITH_UNIT (LENGTH_MEASURE( 1.000000000000000082E-05 ), #143, 'distance_accuracy_value', 'NONE');
#140 = CARTESIAN_POINT ( 'NONE',  ( 0.000000000000000000, 0.000000000000000000, 7.000000000000000000 ) ) ;
#141 = CALENDAR_DATE ( 2022, 20, 6 ) ;
#142 = CIRCLE ( 'NONE', #6, 9.000000000000000000 ) ;
#143 =( LENGTH_UNIT ( ) NAMED_UNIT ( * ) SI_UNIT ( .MILLI., .METRE. ) );
#144 = DATE_AND_TIME ( #53, #9 ) ;
#145 = AXIS2_PLACEMENT_3D ( 'NONE', #180, #175, #66 ) ;
#146 = APPROVAL_STATUS ( 'not_yet_approved' ) ;
#147 = VERTEX_POINT ( 'NONE', #304 ) ;
#148 = APPROVAL_PERSON_ORGANIZATION ( #186, #264, #100 ) ;
#149 = EDGE_CURVE ( 'NONE', #5, #24, #72, .T. ) ;
#150 = ORIENTED_EDGE ( 'NONE', *, *, #218, .F. ) ;
#151 = CC_DESIGN_PERSON_AND_ORGANIZATION_ASSIGNMENT ( #191, #238, ( #255 ) ) ;
#152 = VERTEX_POINT ( 'NONE', #224 ) ;
#153 = LOCAL_TIME ( 11, 30, 41.00000000000000000, #251 ) ;
#154 = ORIENTED_EDGE ( 'NONE', *, *, #51, .F. ) ;
#155 = CARTESIAN_POINT ( 'NONE',  ( -9.000000000000000000, 0.000000000000000000, 0.000000000000000000 ) ) ;
#156 = CARTESIAN_POINT ( 'NONE',  ( -9.000000000000000000, 0.000000000000000000, 7.000000000000000000 ) ) ;
#157 = APPLICATION_CONTEXT ( 'configuration controlled 3d designs of mechanical parts and assemblies' ) ;
#158 = APPROVAL ( #277, 'NEURÈENÝ' ) ;
#159 = DIRECTION ( 'NONE',  ( 0.000000000000000000, 0.000000000000000000, 1.000000000000000000 ) ) ;
#160 = CYLINDRICAL_SURFACE ( 'NONE', #297, 6.099999999999999645 ) ;
#161 = CC_DESIGN_PERSON_AND_ORGANIZATION_ASSIGNMENT ( #283, #284, ( #279 ) ) ;
#162 = DIRECTION ( 'NONE',  ( -1.000000000000000000, 0.000000000000000000, 0.000000000000000000 ) ) ;
#163 = DIRECTION ( 'NONE',  ( -1.000000000000000000, 0.000000000000000000, 0.000000000000000000 ) ) ;
#164 = PERSON_AND_ORGANIZATION ( #73, #229 ) ;
#165 = FACE_OUTER_BOUND ( 'NONE', #174, .T. ) ;
#166 = AXIS2_PLACEMENT_3D ( 'NONE', #88, #58, #36 ) ;
#167 = CC_DESIGN_PERSON_AND_ORGANIZATION_ASSIGNMENT ( #78, #233, ( #279 ) ) ;
#168 = APPROVAL_DATE_TIME ( #289, #70 ) ;
#169 = EDGE_LOOP ( 'NONE', ( #55, #237 ) ) ;
#170 = CIRCLE ( 'NONE', #63, 6.099999999999999645 ) ;
#171 = ORIENTED_EDGE ( 'NONE', *, *, #276, .F. ) ;
#172 = CALENDAR_DATE ( 2022, 20, 6 ) ;
#173 = CARTESIAN_POINT ( 'NONE',  ( 6.099999999999999645, 7.470345474798854293E-16, 407.0000000000000000 ) ) ;
#174 = EDGE_LOOP ( 'NONE', ( #216, #236, #32, #8 ) ) ;
#175 = DIRECTION ( 'NONE',  ( 0.000000000000000000, 0.000000000000000000, 1.000000000000000000 ) ) ;
#176 = FACE_OUTER_BOUND ( 'NONE', #82, .T. ) ;
#177 = DIRECTION ( 'NONE',  ( 0.000000000000000000, -1.000000000000000000, 0.000000000000000000 ) ) ;
#178 = DIRECTION ( 'NONE',  ( 1.000000000000000000, 0.000000000000000000, 0.000000000000000000 ) ) ;
#179 = LOCAL_TIME ( 11, 30, 41.00000000000000000, #7 ) ;
#180 = CARTESIAN_POINT ( 'NONE',  ( 0.000000000000000000, 0.000000000000000000, 407.0000000000000000 ) ) ;
#181 = CC_DESIGN_PERSON_AND_ORGANIZATION_ASSIGNMENT ( #49, #122, ( #121 ) ) ;
#182 = EDGE_CURVE ( 'NONE', #147, #215, #105, .T. ) ;
#183 = DIRECTION ( 'NONE',  ( 0.000000000000000000, 0.000000000000000000, 1.000000000000000000 ) ) ;
#184 = PRODUCT_DEFINITION_SHAPE ( 'NONE', 'NONE',  #42 ) ;
#185 = DATE_AND_TIME ( #118, #153 ) ;
#186 = PERSON_AND_ORGANIZATION ( #73, #229 ) ;
#187 = EDGE_CURVE ( 'NONE', #152, #24, #286, .T. ) ;
#188 = EDGE_LOOP ( 'NONE', ( #31, #129 ) ) ;
#189 = VERTEX_POINT ( 'NONE', #196 ) ;
#190 = TOROIDAL_SURFACE ( 'NONE', #225, 6.299999999999998934, 0.2000000000000000111 ) ;
#191 = PERSON_AND_ORGANIZATION ( #73, #229 ) ;
#192 = ORIENTED_EDGE ( 'NONE', *, *, #26, .T. ) ;
#193 = CC_DESIGN_APPROVAL ( #264, ( #279 ) ) ;
#194 = EDGE_LOOP ( 'NONE', ( #212, #80, #99, #257 ) ) ;
#195 = DIRECTION ( 'NONE',  ( -1.000000000000000000, 0.000000000000000000, 0.000000000000000000 ) ) ;
#196 = CARTESIAN_POINT ( 'NONE',  ( -9.000000000000000000, 0.000000000000000000, 7.000000000000000000 ) ) ;
#197 = APPLICATION_CONTEXT ( 'configuration controlled 3d designs of mechanical parts and assemblies' ) ;
#198 = DIRECTION ( 'NONE',  ( 1.000000000000000000, 0.000000000000000000, 0.000000000000000000 ) ) ;
#199 = CARTESIAN_POINT ( 'NONE',  ( 0.000000000000000000, 0.000000000000000000, 0.000000000000000000 ) ) ;
#200 = DIRECTION ( 'NONE',  ( 0.000000000000000000, 0.000000000000000000, 1.000000000000000000 ) ) ;
#201 = CC_DESIGN_APPROVAL ( #70, ( #255 ) ) ;
#202 = CARTESIAN_POINT ( 'NONE',  ( 0.000000000000000000, 0.000000000000000000, 407.0000000000000000 ) ) ;
#203 = CARTESIAN_POINT ( 'NONE',  ( -6.099999999999999645, 0.000000000000000000, 7.199999999999984190 ) ) ;
#204 = VECTOR ( 'NONE', #69, 1000.000000000000000 ) ;
#205 = DIRECTION ( 'NONE',  ( 0.000000000000000000, 0.000000000000000000, 1.000000000000000000 ) ) ;
#206 = APPLICATION_PROTOCOL_DEFINITION ( 'international standard', 'config_control_design', 1994, #157 ) ;
#207 = AXIS2_PLACEMENT_3D ( 'NONE', #267, #116, #222 ) ;
#208 = EDGE_CURVE ( 'NONE', #241, #152, #56, .T. ) ;
#209 = APPROVAL_DATE_TIME ( #214, #264 ) ;
#210 = ORIENTED_EDGE ( 'NONE', *, *, #218, .T. ) ;
#211 = EDGE_LOOP ( 'NONE', ( #192, #210 ) ) ;
#212 = ORIENTED_EDGE ( 'NONE', *, *, #117, .F. ) ;
#213 = AXIS2_PLACEMENT_3D ( 'NONE', #199, #183, #298 ) ;
#214 = DATE_AND_TIME ( #172, #14 ) ;
#215 = VERTEX_POINT ( 'NONE', #155 ) ;
#216 = ORIENTED_EDGE ( 'NONE', *, *, #4, .F. ) ;
#217 = CARTESIAN_POINT ( 'NONE',  ( 0.000000000000000000, 0.000000000000000000, 7.000000000000000000 ) ) ;
#218 = EDGE_CURVE ( 'NONE', #261, #189, #128, .T. ) ;
#219 = DIRECTION ( 'NONE',  ( -0.000000000000000000, -0.000000000000000000, -1.000000000000000000 ) ) ;
#220 = CARTESIAN_POINT ( 'NONE',  ( 0.000000000000000000, 0.000000000000000000, 7.000000000000000000 ) ) ;
#221 = DIRECTION ( 'NONE',  ( 1.000000000000000000, 0.000000000000000000, 0.000000000000000000 ) ) ;
#222 = DIRECTION ( 'NONE',  ( 1.000000000000000000, 0.000000000000000000, 0.000000000000000000 ) ) ;
#223 = PLANE ( 'NONE',  #145 ) ;
#224 = CARTESIAN_POINT ( 'NONE',  ( -6.299999999999998934, 7.715274834628324392E-16, 6.999999999999992006 ) ) ;
#225 = AXIS2_PLACEMENT_3D ( 'NONE', #250, #71, #228 ) ;
#226 = CARTESIAN_POINT ( 'NONE',  ( 0.000000000000000000, 0.000000000000000000, 0.000000000000000000 ) ) ;
#227 = ADVANCED_FACE ( 'NONE', ( #176 ), #268, .T. ) ;
#228 = DIRECTION ( 'NONE',  ( 1.000000000000000000, 0.000000000000000000, 0.000000000000000000 ) ) ;
#229 = ORGANIZATION ( 'NEURÈENÝ', 'NEURÈENÝ', '' ) ;
#230 = CARTESIAN_POINT ( 'NONE',  ( 0.000000000000000000, 0.000000000000000000, 7.199999999999984190 ) ) ;
#231 = EDGE_CURVE ( 'NONE', #290, #241, #112, .T. ) ;
#232 = CIRCLE ( 'NONE', #54, 6.099999999999999645 ) ;
#233 = PERSON_AND_ORGANIZATION_ROLE ( 'creator' ) ;
#234 = APPROVAL_PERSON_ORGANIZATION ( #262, #70, #75 ) ;
#235 = COORDINATED_UNIVERSAL_TIME_OFFSET ( 1, 0, .AHEAD. ) ;
#236 = ORIENTED_EDGE ( 'NONE', *, *, #137, .F. ) ;
#237 = ORIENTED_EDGE ( 'NONE', *, *, #182, .F. ) ;
#238 = PERSON_AND_ORGANIZATION_ROLE ( 'classification_officer' ) ;
#239 = ORIENTED_EDGE ( 'NONE', *, *, #117, .T. ) ;
#240 = MANIFOLD_SOLID_BREP ( 'Zaoblit1', #43 ) ;
#241 = VERTEX_POINT ( 'NONE', #203 ) ;
#242 = DIRECTION ( 'NONE',  ( 1.000000000000000000, 0.000000000000000000, 0.000000000000000000 ) ) ;
#243 = CC_DESIGN_DATE_AND_TIME_ASSIGNMENT ( #144, #256, ( #255 ) ) ;
#244 = DIRECTION ( 'NONE',  ( -0.000000000000000000, -0.000000000000000000, -1.000000000000000000 ) ) ;
#245 = DIRECTION ( 'NONE',  ( 0.000000000000000000, 0.000000000000000000, 1.000000000000000000 ) ) ;
#246 = VECTOR ( 'NONE', #219, 1000.000000000000000 ) ;
#247 = DIRECTION ( 'NONE',  ( -0.000000000000000000, -0.000000000000000000, -1.000000000000000000 ) ) ;
#248 = CARTESIAN_POINT ( 'NONE',  ( 6.299999999999998934, 0.000000000000000000, 7.199999999999984190 ) ) ;
#249 = CIRCLE ( 'NONE', #123, 9.000000000000000000 ) ;
#250 = CARTESIAN_POINT ( 'NONE',  ( 0.000000000000000000, 0.000000000000000000, 7.199999999999984190 ) ) ;
#251 = COORDINATED_UNIVERSAL_TIME_OFFSET ( 1, 0, .AHEAD. ) ;
#252 = PERSON_AND_ORGANIZATION_ROLE ( 'creator' ) ;
#253 = AXIS2_PLACEMENT_3D ( 'NONE', #87, #245, #273 ) ;
#254 = CYLINDRICAL_SURFACE ( 'NONE', #136, 6.099999999999999645 ) ;
#255 = SECURITY_CLASSIFICATION ( '', '', #260 ) ;
#256 = DATE_TIME_ROLE ( 'classification_date' ) ;
#257 = ORIENTED_EDGE ( 'NONE', *, *, #83, .T. ) ;
#258 = ORIENTED_EDGE ( 'NONE', *, *, #276, .T. ) ;
#259 = ADVANCED_FACE ( 'NONE', ( #22 ), #305, .T. ) ;
#260 = SECURITY_CLASSIFICATION_LEVEL ( 'unclassified' ) ;
#261 = VERTEX_POINT ( 'NONE', #281 ) ;
#262 = PERSON_AND_ORGANIZATION ( #73, #229 ) ;
#263 = ORIENTED_EDGE ( 'NONE', *, *, #208, .T. ) ;
#264 = APPROVAL ( #146, 'NEURÈENÝ' ) ;
#265 = ADVANCED_FACE ( 'NONE', ( #45 ), #190, .F. ) ;
#266 = ORIENTED_EDGE ( 'NONE', *, *, #4, .T. ) ;
#267 = CARTESIAN_POINT ( 'NONE',  ( 0.000000000000000000, 0.000000000000000000, 7.000000000000000000 ) ) ;
#268 = CYLINDRICAL_SURFACE ( 'NONE', #278, 9.000000000000000000 ) ;
#269 = CARTESIAN_POINT ( 'NONE',  ( 0.000000000000000000, 0.000000000000000000, 7.199999999999984190 ) ) ;
#270 = DIRECTION ( 'NONE',  ( 1.000000000000000000, 0.000000000000000000, 0.000000000000000000 ) ) ;
#271 = FACE_OUTER_BOUND ( 'NONE', #188, .T. ) ;
#272 = AXIS2_PLACEMENT_3D ( 'NONE', #299, #13, #89 ) ;
#273 = DIRECTION ( 'NONE',  ( 1.000000000000000000, 0.000000000000000000, -0.000000000000000000 ) ) ;
#274 = CARTESIAN_POINT ( 'NONE',  ( 0.000000000000000000, 0.000000000000000000, 7.000000000000000000 ) ) ;
#275 = DIRECTION ( 'NONE',  ( -0.000000000000000000, -0.000000000000000000, -1.000000000000000000 ) ) ;
#276 = EDGE_CURVE ( 'NONE', #5, #241, #27, .T. ) ;
#277 = APPROVAL_STATUS ( 'not_yet_approved' ) ;
#278 = AXIS2_PLACEMENT_3D ( 'NONE', #220, #61, #16 ) ;
#279 = PRODUCT_DEFINITION_FORMATION_WITH_SPECIFIED_SOURCE ( 'LIBOVOLNÝ', '', #121, .NOT_KNOWN. ) ;
#280 = APPROVAL_DATE_TIME ( #185, #158 ) ;
#281 = CARTESIAN_POINT ( 'NONE',  ( 9.000000000000000000, 1.102182119232617714E-15, 7.000000000000000000 ) ) ;
#282 = AXIS2_PLACEMENT_3D ( 'NONE', #301, #200, #132 ) ;
#283 = PERSON_AND_ORGANIZATION ( #73, #229 ) ;
#284 = PERSON_AND_ORGANIZATION_ROLE ( 'design_supplier' ) ;
#285 = EDGE_LOOP ( 'NONE', ( #288, #263, #154, #79 ) ) ;
#286 = CIRCLE ( 'NONE', #272, 6.299999999999998934 ) ;
#287 = DATE_TIME_ROLE ( 'creation_date' ) ;
#288 = ORIENTED_EDGE ( 'NONE', *, *, #20, .F. ) ;
#289 = DATE_AND_TIME ( #103, #179 ) ;
#290 = VERTEX_POINT ( 'NONE', #67 ) ;
#291 = VECTOR ( 'NONE', #244, 1000.000000000000000 ) ;
#292 = AXIS2_PLACEMENT_3D ( 'NONE', #15, #47, #90 ) ;
#293 = CARTESIAN_POINT ( 'NONE',  ( 6.099999999999999645, 7.470345474798854293E-16, 407.0000000000000000 ) ) ;
#294 = FACE_BOUND ( 'NONE', #52, .T. ) ;
#295 = CARTESIAN_POINT ( 'NONE',  ( -6.099999999999999645, 0.000000000000000000, 407.0000000000000000 ) ) ;
#296 = DIRECTION ( 'NONE',  ( 0.000000000000000000, 0.000000000000000000, 1.000000000000000000 ) ) ;
#297 = AXIS2_PLACEMENT_3D ( 'NONE', #202, #130, #195 ) ;
#298 = DIRECTION ( 'NONE',  ( 1.000000000000000000, 0.000000000000000000, -0.000000000000000000 ) ) ;
#299 = CARTESIAN_POINT ( 'NONE',  ( 0.000000000000000000, 0.000000000000000000, 7.000000000000000000 ) ) ;
#300 = FACE_OUTER_BOUND ( 'NONE', #125, .T. ) ;
#301 = CARTESIAN_POINT ( 'NONE',  ( 0.000000000000000000, 0.000000000000000000, 0.000000000000000000 ) ) ;
#302 = ADVANCED_FACE ( 'NONE', ( #165 ), #254, .T. ) ;
#303 = APPLICATION_PROTOCOL_DEFINITION ( 'international standard', 'config_control_design', 1994, #197 ) ;
#304 = CARTESIAN_POINT ( 'NONE',  ( 9.000000000000000000, 1.102182119232617714E-15, 0.000000000000000000 ) ) ;
#305 = CYLINDRICAL_SURFACE ( 'NONE', #38, 9.000000000000000000 ) ;
#306 = DATE_AND_TIME ( #141, #23 ) ;
#307 = PERSON_AND_ORGANIZATION ( #73, #229 ) ;
ENDSEC;
END-ISO-10303-21;
