ISO-10303-21;
HEADER;
FILE_DESCRIPTION (( 'STEP AP203' ),
    '1' );
FILE_NAME ('fc1c.STEP',
    '2022-06-20T10:04:49',
    ( '' ),
    ( '' ),
    'SwSTEP 2.0',
    'SolidWorks 2019',
    '' );
FILE_SCHEMA (( 'CONFIG_CONTROL_DESIGN' ));
ENDSEC;

DATA;
#1 = ORIENTED_EDGE ( 'NONE', *, *, #57, .F. ) ;
#2 = EDGE_CURVE ( 'NONE', #90, #125, #227, .T. ) ;
#3 = MANIFOLD_SOLID_BREP ( 'Zaoblit1', #194 ) ;
#4 = APPROVAL_STATUS ( 'not_yet_approved' ) ;
#5 = ORIENTED_EDGE ( 'NONE', *, *, #17, .F. ) ;
#6 = DIRECTION ( 'NONE',  ( 1.000000000000000000, 0.000000000000000000, 0.000000000000000000 ) ) ;
#7 = DIRECTION ( 'NONE',  ( 0.000000000000000000, 0.000000000000000000, 1.000000000000000000 ) ) ;
#8 = COORDINATED_UNIVERSAL_TIME_OFFSET ( 1, 0, .AHEAD. ) ;
#9 = EDGE_LOOP ( 'NONE', ( #68, #32 ) ) ;
#10 = CC_DESIGN_PERSON_AND_ORGANIZATION_ASSIGNMENT ( #72, #128, ( #84 ) ) ;
#11 = PERSON_AND_ORGANIZATION ( #163, #37 ) ;
#12 = CARTESIAN_POINT ( 'NONE',  ( 0.000000000000000000, 0.000000000000000000, 633.0000000000000000 ) ) ;
#13 = APPLICATION_CONTEXT ( 'configuration controlled 3d designs of mechanical parts and assemblies' ) ;
#14 = FACE_OUTER_BOUND ( 'NONE', #43, .T. ) ;
#15 = AXIS2_PLACEMENT_3D ( 'NONE', #275, #64, #175 ) ;
#16 = DIRECTION ( 'NONE',  ( 0.000000000000000000, 0.000000000000000000, 1.000000000000000000 ) ) ;
#17 = EDGE_CURVE ( 'NONE', #129, #90, #259, .T. ) ;
#18 = CARTESIAN_POINT ( 'NONE',  ( -2.449999999999999734, 3.000384657911015370E-16, 2.999999999999990674 ) ) ;
#19 = LINE ( 'NONE', #100, #271 ) ;
#20 = DIRECTION ( 'NONE',  ( -1.000000000000000000, 0.000000000000000000, 0.000000000000000000 ) ) ;
#21 = ADVANCED_FACE ( 'NONE', ( #88 ), #177, .T. ) ;
#22 = CARTESIAN_POINT ( 'NONE',  ( -2.449999999999999734, 3.000384657911015370E-16, 3.199999999999980638 ) ) ;
#23 = ORIENTED_EDGE ( 'NONE', *, *, #46, .F. ) ;
#24 = DATE_AND_TIME ( #42, #307 ) ;
#25 = ADVANCED_BREP_SHAPE_REPRESENTATION ( 'fc1c', ( #3, #240 ), #76 ) ;
#26 = ORIENTED_EDGE ( 'NONE', *, *, #264, .T. ) ;
#27 = APPLICATION_PROTOCOL_DEFINITION ( 'international standard', 'config_control_design', 1994, #302 ) ;
#28 = TOROIDAL_SURFACE ( 'NONE', #198, 2.449999999999999734, 0.2000000000000000111 ) ;
#29 = FACE_OUTER_BOUND ( 'NONE', #93, .T. ) ;
#30 = ORIENTED_EDGE ( 'NONE', *, *, #192, .F. ) ;
#31 = DATE_AND_TIME ( #233, #44 ) ;
#32 = ORIENTED_EDGE ( 'NONE', *, *, #103, .F. ) ;
#33 = CARTESIAN_POINT ( 'NONE',  ( 0.000000000000000000, 0.000000000000000000, 0.000000000000000000 ) ) ;
#34 = VECTOR ( 'NONE', #86, 1000.000000000000000 ) ;
#35 = DIRECTION ( 'NONE',  ( 1.000000000000000000, 0.000000000000000000, 0.000000000000000000 ) ) ;
#36 = CARTESIAN_POINT ( 'NONE',  ( 0.000000000000000000, 0.000000000000000000, 3.000000000000000000 ) ) ;
#37 = ORGANIZATION ( 'NEURÈENÝ', 'NEURÈENÝ', '' ) ;
#38 = CARTESIAN_POINT ( 'NONE',  ( 0.000000000000000000, 0.000000000000000000, 3.199999999999980638 ) ) ;
#39 = AXIS2_PLACEMENT_3D ( 'NONE', #38, #122, #268 ) ;
#40 = DIRECTION ( 'NONE',  ( -0.000000000000000000, -0.000000000000000000, -1.000000000000000000 ) ) ;
#41 = ADVANCED_FACE ( 'NONE', ( #29 ), #250, .F. ) ;
#42 = CALENDAR_DATE ( 2022, 20, 6 ) ;
#43 = EDGE_LOOP ( 'NONE', ( #1, #114, #289, #252 ) ) ;
#44 = LOCAL_TIME ( 12, 4, 49.00000000000000000, #285 ) ;
#45 = CIRCLE ( 'NONE', #247, 2.449999999999999734 ) ;
#46 = EDGE_CURVE ( 'NONE', #115, #203, #45, .T. ) ;
#47 = ORIENTED_EDGE ( 'NONE', *, *, #197, .T. ) ;
#48 = VERTEX_POINT ( 'NONE', #232 ) ;
#49 = CC_DESIGN_APPROVAL ( #290, ( #215 ) ) ;
#50 = PERSON_AND_ORGANIZATION ( #163, #37 ) ;
#51 = ORIENTED_EDGE ( 'NONE', *, *, #2, .F. ) ;
#52 = PERSON_AND_ORGANIZATION ( #163, #37 ) ;
#53 = FACE_OUTER_BOUND ( 'NONE', #85, .T. ) ;
#54 = APPROVAL_DATE_TIME ( #87, #220 ) ;
#55 = ORIENTED_EDGE ( 'NONE', *, *, #103, .T. ) ;
#56 = CARTESIAN_POINT ( 'NONE',  ( 4.000000000000000000, 4.898587196589412829E-16, 0.000000000000000000 ) ) ;
#57 = EDGE_CURVE ( 'NONE', #277, #236, #66, .T. ) ;
#58 = DIRECTION ( 'NONE',  ( 0.000000000000000000, 0.000000000000000000, 1.000000000000000000 ) ) ;
#59 = DIRECTION ( 'NONE',  ( 1.000000000000000000, 0.000000000000000000, 0.000000000000000000 ) ) ;
#60 = PLANE ( 'NONE',  #224 ) ;
#61 = ADVANCED_FACE ( 'NONE', ( #53 ), #134, .T. ) ;
#62 = CYLINDRICAL_SURFACE ( 'NONE', #81, 4.000000000000000000 ) ;
#63 = DIRECTION ( 'NONE',  ( -0.000000000000000000, -0.000000000000000000, -1.000000000000000000 ) ) ;
#64 = DIRECTION ( 'NONE',  ( 0.000000000000000000, -1.000000000000000000, 0.000000000000000000 ) ) ;
#65 = CC_DESIGN_PERSON_AND_ORGANIZATION_ASSIGNMENT ( #50, #231, ( #174 ) ) ;
#66 = CIRCLE ( 'NONE', #230, 2.250000000000000000 ) ;
#67 = ORIENTED_EDGE ( 'NONE', *, *, #46, .T. ) ;
#68 = ORIENTED_EDGE ( 'NONE', *, *, #144, .F. ) ;
#69 = APPROVAL_PERSON_ORGANIZATION ( #11, #220, #70 ) ;
#70 = APPROVAL_ROLE ( '' ) ;
#71 = DIRECTION ( 'NONE',  ( 0.000000000000000000, 0.000000000000000000, 1.000000000000000000 ) ) ;
#72 = PERSON_AND_ORGANIZATION ( #163, #37 ) ;
#73 = ORIENTED_EDGE ( 'NONE', *, *, #140, .T. ) ;
#74 = ORIENTED_EDGE ( 'NONE', *, *, #213, .T. ) ;
#75 = CARTESIAN_POINT ( 'NONE',  ( 2.449999999999999734, 0.000000000000000000, 2.999999999999990674 ) ) ;
#76 =( GEOMETRIC_REPRESENTATION_CONTEXT ( 3 ) GLOBAL_UNCERTAINTY_ASSIGNED_CONTEXT ( ( #101 ) ) GLOBAL_UNIT_ASSIGNED_CONTEXT ( ( #199, #222, #82 ) ) REPRESENTATION_CONTEXT ( 'NONE', 'WORKASPACE' ) );
#77 = DIRECTION ( 'NONE',  ( 1.000000000000000000, 0.000000000000000000, -0.000000000000000000 ) ) ;
#78 = DIRECTION ( 'NONE',  ( 1.000000000000000000, 0.000000000000000000, 0.000000000000000000 ) ) ;
#79 = DIRECTION ( 'NONE',  ( -0.000000000000000000, -0.000000000000000000, -1.000000000000000000 ) ) ;
#80 = DIRECTION ( 'NONE',  ( -0.000000000000000000, -0.000000000000000000, -1.000000000000000000 ) ) ;
#81 = AXIS2_PLACEMENT_3D ( 'NONE', #212, #295, #238 ) ;
#82 =( NAMED_UNIT ( * ) SI_UNIT ( $, .STERADIAN. ) SOLID_ANGLE_UNIT ( ) );
#83 = ORIENTED_EDGE ( 'NONE', *, *, #296, .F. ) ;
#84 = PRODUCT_DEFINITION ( 'NEZNÁMÝ', '', #215, #299 ) ;
#85 = EDGE_LOOP ( 'NONE', ( #146, #30, #234, #104 ) ) ;
#86 = DIRECTION ( 'NONE',  ( -0.000000000000000000, -0.000000000000000000, -1.000000000000000000 ) ) ;
#87 = DATE_AND_TIME ( #112, #244 ) ;
#88 = FACE_OUTER_BOUND ( 'NONE', #185, .T. ) ;
#89 = CALENDAR_DATE ( 2022, 20, 6 ) ;
#90 = VERTEX_POINT ( 'NONE', #190 ) ;
#91 = DATE_AND_TIME ( #206, #145 ) ;
#92 = CIRCLE ( 'NONE', #294, 4.000000000000000000 ) ;
#93 = EDGE_LOOP ( 'NONE', ( #83, #158, #195, #23 ) ) ;
#94 = DIRECTION ( 'NONE',  ( 1.000000000000000000, 0.000000000000000000, 0.000000000000000000 ) ) ;
#95 = EDGE_CURVE ( 'NONE', #236, #277, #237, .T. ) ;
#96 = FACE_OUTER_BOUND ( 'NONE', #109, .T. ) ;
#97 = DIRECTION ( 'NONE',  ( 1.000000000000000000, 0.000000000000000000, -0.000000000000000000 ) ) ;
#98 = AXIS2_PLACEMENT_3D ( 'NONE', #168, #138, #59 ) ;
#99 = DIRECTION ( 'NONE',  ( 0.000000000000000000, 0.000000000000000000, 1.000000000000000000 ) ) ;
#100 = CARTESIAN_POINT ( 'NONE',  ( -2.250000000000000000, 0.000000000000000000, 633.0000000000000000 ) ) ;
#101 = UNCERTAINTY_MEASURE_WITH_UNIT (LENGTH_MEASURE( 1.000000000000000082E-05 ), #199, 'distance_accuracy_value', 'NONE');
#102 = PRODUCT_RELATED_PRODUCT_CATEGORY ( 'detail', '', ( #276 ) ) ;
#103 = EDGE_CURVE ( 'NONE', #226, #125, #92, .T. ) ;
#104 = ORIENTED_EDGE ( 'NONE', *, *, #57, .T. ) ;
#105 = CYLINDRICAL_SURFACE ( 'NONE', #216, 2.250000000000000000 ) ;
#106 = AXIS2_PLACEMENT_3D ( 'NONE', #267, #16, #97 ) ;
#107 = SHAPE_DEFINITION_REPRESENTATION ( #248, #25 ) ;
#108 = CC_DESIGN_DATE_AND_TIME_ASSIGNMENT ( #91, #204, ( #84 ) ) ;
#109 = EDGE_LOOP ( 'NONE', ( #74, #263 ) ) ;
#110 = CARTESIAN_POINT ( 'NONE',  ( 0.000000000000000000, 0.000000000000000000, 3.000000000000000000 ) ) ;
#111 = CARTESIAN_POINT ( 'NONE',  ( 0.000000000000000000, 0.000000000000000000, 3.199999999999980638 ) ) ;
#112 = CALENDAR_DATE ( 2022, 20, 6 ) ;
#113 = CARTESIAN_POINT ( 'NONE',  ( 0.000000000000000000, 0.000000000000000000, 3.000000000000000000 ) ) ;
#114 = ORIENTED_EDGE ( 'NONE', *, *, #296, .T. ) ;
#115 = VERTEX_POINT ( 'NONE', #18 ) ;
#116 = CARTESIAN_POINT ( 'NONE',  ( 0.000000000000000000, 0.000000000000000000, 0.000000000000000000 ) ) ;
#117 = CC_DESIGN_PERSON_AND_ORGANIZATION_ASSIGNMENT ( #282, #288, ( #215 ) ) ;
#118 = CARTESIAN_POINT ( 'NONE',  ( 0.000000000000000000, 0.000000000000000000, 3.199999999999980638 ) ) ;
#119 = CARTESIAN_POINT ( 'NONE',  ( 2.250000000000000000, 2.755455298081544285E-16, 633.0000000000000000 ) ) ;
#120 = LINE ( 'NONE', #119, #156 ) ;
#121 = AXIS2_PLACEMENT_3D ( 'NONE', #12, #58, #94 ) ;
#122 = DIRECTION ( 'NONE',  ( 0.000000000000000000, 0.000000000000000000, 1.000000000000000000 ) ) ;
#123 = CARTESIAN_POINT ( 'NONE',  ( -2.250000000000000000, 0.000000000000000000, 3.199999999999980638 ) ) ;
#124 = DIRECTION ( 'NONE',  ( -0.000000000000000000, -0.000000000000000000, -1.000000000000000000 ) ) ;
#125 = VERTEX_POINT ( 'NONE', #191 ) ;
#126 = CIRCLE ( 'NONE', #130, 4.000000000000000000 ) ;
#127 = AXIS2_PLACEMENT_3D ( 'NONE', #246, #63, #148 ) ;
#128 = PERSON_AND_ORGANIZATION_ROLE ( 'creator' ) ;
#129 = VERTEX_POINT ( 'NONE', #139 ) ;
#130 = AXIS2_PLACEMENT_3D ( 'NONE', #36, #99, #78 ) ;
#131 = COORDINATED_UNIVERSAL_TIME_OFFSET ( 1, 0, .AHEAD. ) ;
#132 = DIRECTION ( 'NONE',  ( -0.000000000000000000, -0.000000000000000000, -1.000000000000000000 ) ) ;
#133 = PERSON_AND_ORGANIZATION ( #163, #37 ) ;
#134 = CYLINDRICAL_SURFACE ( 'NONE', #278, 2.250000000000000000 ) ;
#135 = EDGE_CURVE ( 'NONE', #161, #236, #120, .T. ) ;
#136 = PERSON_AND_ORGANIZATION ( #163, #37 ) ;
#137 = ORIENTED_EDGE ( 'NONE', *, *, #135, .T. ) ;
#138 = DIRECTION ( 'NONE',  ( 0.000000000000000000, 0.000000000000000000, 1.000000000000000000 ) ) ;
#139 = CARTESIAN_POINT ( 'NONE',  ( 4.000000000000000000, 4.898587196589412829E-16, 3.000000000000000000 ) ) ;
#140 = EDGE_CURVE ( 'NONE', #129, #226, #166, .T. ) ;
#141 = DIRECTION ( 'NONE',  ( -0.000000000000000000, -0.000000000000000000, -1.000000000000000000 ) ) ;
#142 = CIRCLE ( 'NONE', #127, 2.449999999999999734 ) ;
#143 = DIRECTION ( 'NONE',  ( 0.000000000000000000, 0.000000000000000000, 1.000000000000000000 ) ) ;
#144 = EDGE_CURVE ( 'NONE', #125, #226, #183, .T. ) ;
#145 = LOCAL_TIME ( 12, 4, 49.00000000000000000, #8 ) ;
#146 = ORIENTED_EDGE ( 'NONE', *, *, #135, .F. ) ;
#147 = VECTOR ( 'NONE', #298, 1000.000000000000000 ) ;
#148 = DIRECTION ( 'NONE',  ( 1.000000000000000000, 0.000000000000000000, 0.000000000000000000 ) ) ;
#149 = AXIS2_PLACEMENT_3D ( 'NONE', #110, #201, #306 ) ;
#150 = DIRECTION ( 'NONE',  ( 1.000000000000000000, 0.000000000000000000, -0.000000000000000000 ) ) ;
#151 = EDGE_CURVE ( 'NONE', #48, #277, #19, .T. ) ;
#152 = CARTESIAN_POINT ( 'NONE',  ( 0.000000000000000000, 0.000000000000000000, 0.000000000000000000 ) ) ;
#153 = EDGE_LOOP ( 'NONE', ( #255, #258, #180, #305 ) ) ;
#154 = DATE_AND_TIME ( #89, #173 ) ;
#155 = DIRECTION ( 'NONE',  ( 0.000000000000000000, 0.000000000000000000, 1.000000000000000000 ) ) ;
#156 = VECTOR ( 'NONE', #141, 1000.000000000000000 ) ;
#157 = APPROVAL_DATE_TIME ( #154, #290 ) ;
#158 = ORIENTED_EDGE ( 'NONE', *, *, #95, .F. ) ;
#159 = CC_DESIGN_PERSON_AND_ORGANIZATION_ASSIGNMENT ( #133, #179, ( #215 ) ) ;
#160 = APPROVAL_ROLE ( '' ) ;
#161 = VERTEX_POINT ( 'NONE', #239 ) ;
#162 = CARTESIAN_POINT ( 'NONE',  ( 0.000000000000000000, 0.000000000000000000, 3.000000000000000000 ) ) ;
#163 = PERSON ( 'NEURÈENÝ', 'NEURÈENÝ', 'NEURÈENÝ', ('NEURÈENÝ'), ('NEURÈENÝ'), ('NEURÈENÝ') ) ;
#164 = PLANE ( 'NONE',  #106 ) ;
#165 = ADVANCED_FACE ( 'NONE', ( #14 ), #28, .F. ) ;
#166 = LINE ( 'NONE', #214, #147 ) ;
#167 = ADVANCED_FACE ( 'NONE', ( #297 ), #62, .T. ) ;
#168 = CARTESIAN_POINT ( 'NONE',  ( 0.000000000000000000, 0.000000000000000000, 633.0000000000000000 ) ) ;
#169 = DIRECTION ( 'NONE',  ( 0.000000000000000000, 0.000000000000000000, 1.000000000000000000 ) ) ;
#170 = AXIS2_PLACEMENT_3D ( 'NONE', #111, #155, #205 ) ;
#171 = CC_DESIGN_PERSON_AND_ORGANIZATION_ASSIGNMENT ( #52, #208, ( #276 ) ) ;
#172 = EDGE_LOOP ( 'NONE', ( #5, #73, #55, #51 ) ) ;
#173 = LOCAL_TIME ( 12, 4, 49.00000000000000000, #260 ) ;
#174 = SECURITY_CLASSIFICATION ( '', '', #257 ) ;
#175 = DIRECTION ( 'NONE',  ( 0.000000000000000000, 0.000000000000000000, -1.000000000000000000 ) ) ;
#176 = ORIENTED_EDGE ( 'NONE', *, *, #151, .F. ) ;
#177 = PLANE ( 'NONE',  #210 ) ;
#178 = EDGE_LOOP ( 'NONE', ( #26, #67 ) ) ;
#179 = PERSON_AND_ORGANIZATION_ROLE ( 'creator' ) ;
#180 = ORIENTED_EDGE ( 'NONE', *, *, #2, .T. ) ;
#181 = MECHANICAL_CONTEXT ( 'NONE', #13, 'mechanical' ) ;
#182 = CARTESIAN_POINT ( 'NONE',  ( -4.000000000000000000, 0.000000000000000000, 3.000000000000000000 ) ) ;
#183 = CIRCLE ( 'NONE', #188, 4.000000000000000000 ) ;
#184 = PERSON_AND_ORGANIZATION ( #163, #37 ) ;
#185 = EDGE_LOOP ( 'NONE', ( #229, #47 ) ) ;
#186 = FACE_OUTER_BOUND ( 'NONE', #153, .T. ) ;
#187 = CARTESIAN_POINT ( 'NONE',  ( 0.000000000000000000, 0.000000000000000000, 3.000000000000000000 ) ) ;
#188 = AXIS2_PLACEMENT_3D ( 'NONE', #116, #272, #35 ) ;
#189 = FACE_OUTER_BOUND ( 'NONE', #9, .T. ) ;
#190 = CARTESIAN_POINT ( 'NONE',  ( -4.000000000000000000, 0.000000000000000000, 3.000000000000000000 ) ) ;
#191 = CARTESIAN_POINT ( 'NONE',  ( -4.000000000000000000, 0.000000000000000000, 0.000000000000000000 ) ) ;
#192 = EDGE_CURVE ( 'NONE', #48, #161, #242, .T. ) ;
#193 = APPROVAL_PERSON_ORGANIZATION ( #136, #270, #251 ) ;
#194 = CLOSED_SHELL ( 'NONE', ( #165, #300, #167, #225, #249, #256, #61, #21, #41 ) ) ;
#195 = ORIENTED_EDGE ( 'NONE', *, *, #281, .T. ) ;
#196 = CIRCLE ( 'NONE', #301, 0.2000000000000000944 ) ;
#197 = EDGE_CURVE ( 'NONE', #161, #48, #304, .T. ) ;
#198 = AXIS2_PLACEMENT_3D ( 'NONE', #118, #169, #293 ) ;
#199 =( LENGTH_UNIT ( ) NAMED_UNIT ( * ) SI_UNIT ( .MILLI., .METRE. ) );
#200 = ORIENTED_EDGE ( 'NONE', *, *, #197, .F. ) ;
#201 = DIRECTION ( 'NONE',  ( 0.000000000000000000, 0.000000000000000000, 1.000000000000000000 ) ) ;
#202 = CC_DESIGN_DATE_AND_TIME_ASSIGNMENT ( #31, #262, ( #174 ) ) ;
#203 = VERTEX_POINT ( 'NONE', #75 ) ;
#204 = DATE_TIME_ROLE ( 'creation_date' ) ;
#205 = DIRECTION ( 'NONE',  ( 1.000000000000000000, 0.000000000000000000, 0.000000000000000000 ) ) ;
#206 = CALENDAR_DATE ( 2022, 20, 6 ) ;
#207 = CARTESIAN_POINT ( 'NONE',  ( 0.000000000000000000, 0.000000000000000000, 3.199999999999980638 ) ) ;
#208 = PERSON_AND_ORGANIZATION_ROLE ( 'design_owner' ) ;
#209 = EDGE_LOOP ( 'NONE', ( #200, #137, #283, #176 ) ) ;
#210 = AXIS2_PLACEMENT_3D ( 'NONE', #280, #71, #150 ) ;
#211 = DIRECTION ( 'NONE',  ( 0.000000000000000000, 0.000000000000000000, 1.000000000000000000 ) ) ;
#212 = CARTESIAN_POINT ( 'NONE',  ( 0.000000000000000000, 0.000000000000000000, 3.000000000000000000 ) ) ;
#213 = EDGE_CURVE ( 'NONE', #90, #129, #126, .T. ) ;
#214 = CARTESIAN_POINT ( 'NONE',  ( 4.000000000000000000, 4.898587196589412829E-16, 3.000000000000000000 ) ) ;
#215 = PRODUCT_DEFINITION_FORMATION_WITH_SPECIFIED_SOURCE ( 'LIBOVOLNÝ', '', #276, .NOT_KNOWN. ) ;
#216 = AXIS2_PLACEMENT_3D ( 'NONE', #274, #124, #20 ) ;
#217 = CARTESIAN_POINT ( 'NONE',  ( 2.250000000000000000, 2.755455298081544285E-16, 3.199999999999980638 ) ) ;
#218 = CARTESIAN_POINT ( 'NONE',  ( 0.000000000000000000, 0.000000000000000000, 633.0000000000000000 ) ) ;
#219 = DIRECTION ( 'NONE',  ( 1.000000000000000000, 0.000000000000000000, 0.000000000000000000 ) ) ;
#220 = APPROVAL ( #254, 'NEURÈENÝ' ) ;
#221 = DIRECTION ( 'NONE',  ( 1.224646799147353207E-16, 1.000000000000000000, -0.000000000000000000 ) ) ;
#222 =( NAMED_UNIT ( * ) PLANE_ANGLE_UNIT ( ) SI_UNIT ( $, .RADIAN. ) );
#223 = APPROVAL_DATE_TIME ( #24, #270 ) ;
#224 = AXIS2_PLACEMENT_3D ( 'NONE', #187, #243, #77 ) ;
#225 = ADVANCED_FACE ( 'NONE', ( #186 ), #291, .T. ) ;
#226 = VERTEX_POINT ( 'NONE', #56 ) ;
#227 = LINE ( 'NONE', #182, #34 ) ;
#228 = APPLICATION_PROTOCOL_DEFINITION ( 'international standard', 'config_control_design', 1994, #13 ) ;
#229 = ORIENTED_EDGE ( 'NONE', *, *, #192, .T. ) ;
#230 = AXIS2_PLACEMENT_3D ( 'NONE', #207, #7, #286 ) ;
#231 = PERSON_AND_ORGANIZATION_ROLE ( 'classification_officer' ) ;
#232 = CARTESIAN_POINT ( 'NONE',  ( -2.250000000000000000, 0.000000000000000000, 633.0000000000000000 ) ) ;
#233 = CALENDAR_DATE ( 2022, 20, 6 ) ;
#234 = ORIENTED_EDGE ( 'NONE', *, *, #151, .T. ) ;
#235 = APPROVAL_STATUS ( 'not_yet_approved' ) ;
#236 = VERTEX_POINT ( 'NONE', #217 ) ;
#237 = CIRCLE ( 'NONE', #39, 2.250000000000000000 ) ;
#238 = DIRECTION ( 'NONE',  ( -1.000000000000000000, 0.000000000000000000, 0.000000000000000000 ) ) ;
#239 = CARTESIAN_POINT ( 'NONE',  ( 2.250000000000000000, 2.755455298081544285E-16, 633.0000000000000000 ) ) ;
#240 = AXIS2_PLACEMENT_3D ( 'NONE', #152, #211, #6 ) ;
#241 = DIRECTION ( 'NONE',  ( -1.000000000000000000, 0.000000000000000000, 0.000000000000000000 ) ) ;
#242 = CIRCLE ( 'NONE', #98, 2.250000000000000000 ) ;
#243 = DIRECTION ( 'NONE',  ( 0.000000000000000000, 0.000000000000000000, 1.000000000000000000 ) ) ;
#244 = LOCAL_TIME ( 12, 4, 49.00000000000000000, #131 ) ;
#245 = DIRECTION ( 'NONE',  ( -1.000000000000000000, 1.224646799147353207E-16, 0.000000000000000000 ) ) ;
#246 = CARTESIAN_POINT ( 'NONE',  ( 0.000000000000000000, 0.000000000000000000, 3.000000000000000000 ) ) ;
#247 = AXIS2_PLACEMENT_3D ( 'NONE', #113, #132, #261 ) ;
#248 = PRODUCT_DEFINITION_SHAPE ( 'NONE', 'NONE',  #84 ) ;
#249 = ADVANCED_FACE ( 'NONE', ( #269, #96 ), #60, .T. ) ;
#250 = TOROIDAL_SURFACE ( 'NONE', #170, 2.449999999999999734, 0.2000000000000000111 ) ;
#251 = APPROVAL_ROLE ( '' ) ;
#252 = ORIENTED_EDGE ( 'NONE', *, *, #281, .F. ) ;
#253 = APPROVAL_PERSON_ORGANIZATION ( #184, #290, #160 ) ;
#254 = APPROVAL_STATUS ( 'not_yet_approved' ) ;
#255 = ORIENTED_EDGE ( 'NONE', *, *, #140, .F. ) ;
#256 = ADVANCED_FACE ( 'NONE', ( #189 ), #164, .F. ) ;
#257 = SECURITY_CLASSIFICATION_LEVEL ( 'unclassified' ) ;
#258 = ORIENTED_EDGE ( 'NONE', *, *, #213, .F. ) ;
#259 = CIRCLE ( 'NONE', #149, 4.000000000000000000 ) ;
#260 = COORDINATED_UNIVERSAL_TIME_OFFSET ( 1, 0, .AHEAD. ) ;
#261 = DIRECTION ( 'NONE',  ( 1.000000000000000000, 0.000000000000000000, 0.000000000000000000 ) ) ;
#262 = DATE_TIME_ROLE ( 'classification_date' ) ;
#263 = ORIENTED_EDGE ( 'NONE', *, *, #17, .T. ) ;
#264 = EDGE_CURVE ( 'NONE', #203, #115, #142, .T. ) ;
#265 = DIRECTION ( 'NONE',  ( -1.000000000000000000, 0.000000000000000000, 0.000000000000000000 ) ) ;
#266 = CC_DESIGN_SECURITY_CLASSIFICATION ( #174, ( #215 ) ) ;
#267 = CARTESIAN_POINT ( 'NONE',  ( 0.000000000000000000, 0.000000000000000000, 0.000000000000000000 ) ) ;
#268 = DIRECTION ( 'NONE',  ( 1.000000000000000000, 0.000000000000000000, 0.000000000000000000 ) ) ;
#269 = FACE_BOUND ( 'NONE', #178, .T. ) ;
#270 = APPROVAL ( #235, 'NEURÈENÝ' ) ;
#271 = VECTOR ( 'NONE', #80, 1000.000000000000000 ) ;
#272 = DIRECTION ( 'NONE',  ( 0.000000000000000000, 0.000000000000000000, 1.000000000000000000 ) ) ;
#273 = CIRCLE ( 'NONE', #15, 0.2000000000000000944 ) ;
#274 = CARTESIAN_POINT ( 'NONE',  ( 0.000000000000000000, 0.000000000000000000, 633.0000000000000000 ) ) ;
#275 = CARTESIAN_POINT ( 'NONE',  ( 2.449999999999999734, 0.000000000000000000, 3.199999999999980638 ) ) ;
#276 = PRODUCT ( 'fc1c', 'fc1c', '', ( #181 ) ) ;
#277 = VERTEX_POINT ( 'NONE', #123 ) ;
#278 = AXIS2_PLACEMENT_3D ( 'NONE', #218, #79, #241 ) ;
#279 = COORDINATED_UNIVERSAL_TIME_OFFSET ( 1, 0, .AHEAD. ) ;
#280 = CARTESIAN_POINT ( 'NONE',  ( 0.000000000000000000, 0.000000000000000000, 633.0000000000000000 ) ) ;
#281 = EDGE_CURVE ( 'NONE', #236, #203, #273, .T. ) ;
#282 = PERSON_AND_ORGANIZATION ( #163, #37 ) ;
#283 = ORIENTED_EDGE ( 'NONE', *, *, #95, .T. ) ;
#284 = CC_DESIGN_APPROVAL ( #270, ( #174 ) ) ;
#285 = COORDINATED_UNIVERSAL_TIME_OFFSET ( 1, 0, .AHEAD. ) ;
#286 = DIRECTION ( 'NONE',  ( 1.000000000000000000, 0.000000000000000000, 0.000000000000000000 ) ) ;
#287 = AXIS2_PLACEMENT_3D ( 'NONE', #162, #40, #265 ) ;
#288 = PERSON_AND_ORGANIZATION_ROLE ( 'design_supplier' ) ;
#289 = ORIENTED_EDGE ( 'NONE', *, *, #264, .F. ) ;
#290 = APPROVAL ( #4, 'NEURÈENÝ' ) ;
#291 = CYLINDRICAL_SURFACE ( 'NONE', #287, 4.000000000000000000 ) ;
#292 = CC_DESIGN_APPROVAL ( #220, ( #84 ) ) ;
#293 = DIRECTION ( 'NONE',  ( 1.000000000000000000, 0.000000000000000000, 0.000000000000000000 ) ) ;
#294 = AXIS2_PLACEMENT_3D ( 'NONE', #33, #143, #219 ) ;
#295 = DIRECTION ( 'NONE',  ( -0.000000000000000000, -0.000000000000000000, -1.000000000000000000 ) ) ;
#296 = EDGE_CURVE ( 'NONE', #277, #115, #196, .T. ) ;
#297 = FACE_OUTER_BOUND ( 'NONE', #172, .T. ) ;
#298 = DIRECTION ( 'NONE',  ( -0.000000000000000000, -0.000000000000000000, -1.000000000000000000 ) ) ;
#299 = DESIGN_CONTEXT ( 'detailed design', #302, 'design' ) ;
#300 = ADVANCED_FACE ( 'NONE', ( #303 ), #105, .T. ) ;
#301 = AXIS2_PLACEMENT_3D ( 'NONE', #22, #221, #245 ) ;
#302 = APPLICATION_CONTEXT ( 'configuration controlled 3d designs of mechanical parts and assemblies' ) ;
#303 = FACE_OUTER_BOUND ( 'NONE', #209, .T. ) ;
#304 = CIRCLE ( 'NONE', #121, 2.250000000000000000 ) ;
#305 = ORIENTED_EDGE ( 'NONE', *, *, #144, .T. ) ;
#306 = DIRECTION ( 'NONE',  ( 1.000000000000000000, 0.000000000000000000, 0.000000000000000000 ) ) ;
#307 = LOCAL_TIME ( 12, 4, 49.00000000000000000, #279 ) ;
ENDSEC;
END-ISO-10303-21;
