ISO-10303-21;
HEADER;
FILE_DESCRIPTION (( 'STEP AP203' ),
    '1' );
FILE_NAME ('ed45.STEP',
    '2022-06-20T10:15:02',
    ( '' ),
    ( '' ),
    'SwSTEP 2.0',
    'SolidWorks 2019',
    '' );
FILE_SCHEMA (( 'CONFIG_CONTROL_DESIGN' ));
ENDSEC;

DATA;
#1 = APPROVAL_ROLE ( '' ) ;
#2 = ADVANCED_FACE ( 'NONE', ( #83 ), #35, .T. ) ;
#3 = AXIS2_PLACEMENT_3D ( 'NONE', #228, #70, #29 ) ;
#4 = LOCAL_TIME ( 12, 15, 2.000000000000000000, #217 ) ;
#5 = ORIENTED_EDGE ( 'NONE', *, *, #137, .F. ) ;
#6 = CARTESIAN_POINT ( 'NONE',  ( 0.000000000000000000, 0.000000000000000000, 3.000000000000000000 ) ) ;
#7 = VERTEX_POINT ( 'NONE', #181 ) ;
#8 = DIRECTION ( 'NONE',  ( -1.000000000000000000, 0.000000000000000000, 0.000000000000000000 ) ) ;
#9 = ORIENTED_EDGE ( 'NONE', *, *, #122, .T. ) ;
#10 = DIRECTION ( 'NONE',  ( 1.000000000000000000, 0.000000000000000000, 0.000000000000000000 ) ) ;
#11 = ORIENTED_EDGE ( 'NONE', *, *, #193, .T. ) ;
#12 = CIRCLE ( 'NONE', #165, 0.2000000000000000944 ) ;
#13 = FACE_OUTER_BOUND ( 'NONE', #197, .T. ) ;
#14 = DIRECTION ( 'NONE',  ( -0.000000000000000000, -0.000000000000000000, -1.000000000000000000 ) ) ;
#15 = CC_DESIGN_PERSON_AND_ORGANIZATION_ASSIGNMENT ( #22, #59, ( #126 ) ) ;
#16 = ADVANCED_FACE ( 'NONE', ( #40, #38 ), #107, .T. ) ;
#17 = DIRECTION ( 'NONE',  ( 1.000000000000000000, 0.000000000000000000, 0.000000000000000000 ) ) ;
#18 = DIRECTION ( 'NONE',  ( 0.000000000000000000, 0.000000000000000000, 1.000000000000000000 ) ) ;
#19 = APPLICATION_PROTOCOL_DEFINITION ( 'international standard', 'config_control_design', 1994, #194 ) ;
#20 = DIRECTION ( 'NONE',  ( 1.000000000000000000, 0.000000000000000000, 0.000000000000000000 ) ) ;
#21 =( NAMED_UNIT ( * ) PLANE_ANGLE_UNIT ( ) SI_UNIT ( $, .RADIAN. ) );
#22 = PERSON_AND_ORGANIZATION ( #265, #297 ) ;
#23 = AXIS2_PLACEMENT_3D ( 'NONE', #109, #212, #152 ) ;
#24 = CC_DESIGN_PERSON_AND_ORGANIZATION_ASSIGNMENT ( #285, #214, ( #190 ) ) ;
#25 = DATE_AND_TIME ( #57, #240 ) ;
#26 = LOCAL_TIME ( 12, 15, 2.000000000000000000, #136 ) ;
#27 = ADVANCED_FACE ( 'NONE', ( #302 ), #105, .T. ) ;
#28 = EDGE_LOOP ( 'NONE', ( #9, #142 ) ) ;
#29 = DIRECTION ( 'NONE',  ( -1.000000000000000000, 0.000000000000000000, 0.000000000000000000 ) ) ;
#30 = ORIENTED_EDGE ( 'NONE', *, *, #102, .F. ) ;
#31 = CARTESIAN_POINT ( 'NONE',  ( -1.500000000000000222, 0.000000000000000000, 318.0000000000000000 ) ) ;
#32 = ORIENTED_EDGE ( 'NONE', *, *, #192, .F. ) ;
#33 = CYLINDRICAL_SURFACE ( 'NONE', #229, 1.500000000000000222 ) ;
#34 = FACE_OUTER_BOUND ( 'NONE', #272, .T. ) ;
#35 = CYLINDRICAL_SURFACE ( 'NONE', #207, 3.000000000000000444 ) ;
#36 = LOCAL_TIME ( 12, 15, 2.000000000000000000, #187 ) ;
#37 = DIRECTION ( 'NONE',  ( 1.000000000000000000, 0.000000000000000000, 0.000000000000000000 ) ) ;
#38 = FACE_OUTER_BOUND ( 'NONE', #226, .T. ) ;
#39 = DATE_TIME_ROLE ( 'classification_date' ) ;
#40 = FACE_BOUND ( 'NONE', #28, .T. ) ;
#41 = DATE_AND_TIME ( #157, #4 ) ;
#42 = AXIS2_PLACEMENT_3D ( 'NONE', #101, #51, #71 ) ;
#43 = CALENDAR_DATE ( 2022, 20, 6 ) ;
#44 = UNCERTAINTY_MEASURE_WITH_UNIT (LENGTH_MEASURE( 1.000000000000000082E-05 ), #262, 'distance_accuracy_value', 'NONE');
#45 = APPROVAL_PERSON_ORGANIZATION ( #280, #155, #1 ) ;
#46 = AXIS2_PLACEMENT_3D ( 'NONE', #258, #18, #209 ) ;
#47 = VERTEX_POINT ( 'NONE', #80 ) ;
#48 = VERTEX_POINT ( 'NONE', #304 ) ;
#49 = DIRECTION ( 'NONE',  ( 0.000000000000000000, 0.000000000000000000, 1.000000000000000000 ) ) ;
#50 = ORIENTED_EDGE ( 'NONE', *, *, #60, .F. ) ;
#51 = DIRECTION ( 'NONE',  ( 0.000000000000000000, 0.000000000000000000, 1.000000000000000000 ) ) ;
#52 = CARTESIAN_POINT ( 'NONE',  ( 1.500000000000000222, 1.836970198721030181E-16, 318.0000000000000000 ) ) ;
#53 = ADVANCED_FACE ( 'NONE', ( #230 ), #275, .F. ) ;
#54 = ORIENTED_EDGE ( 'NONE', *, *, #137, .T. ) ;
#55 = LINE ( 'NONE', #31, #84 ) ;
#56 = CARTESIAN_POINT ( 'NONE',  ( 0.000000000000000000, 0.000000000000000000, 3.000000000000000000 ) ) ;
#57 = CALENDAR_DATE ( 2022, 20, 6 ) ;
#58 = CARTESIAN_POINT ( 'NONE',  ( 0.000000000000000000, 0.000000000000000000, 318.0000000000000000 ) ) ;
#59 = PERSON_AND_ORGANIZATION_ROLE ( 'creator' ) ;
#60 = EDGE_CURVE ( 'NONE', #72, #124, #288, .T. ) ;
#61 = DIRECTION ( 'NONE',  ( 0.000000000000000000, 0.000000000000000000, -1.000000000000000000 ) ) ;
#62 = CC_DESIGN_APPROVAL ( #155, ( #126 ) ) ;
#63 = DIRECTION ( 'NONE',  ( 1.000000000000000000, 0.000000000000000000, 0.000000000000000000 ) ) ;
#64 = SECURITY_CLASSIFICATION_LEVEL ( 'unclassified' ) ;
#65 = EDGE_CURVE ( 'NONE', #244, #118, #242, .T. ) ;
#66 = AXIS2_PLACEMENT_3D ( 'NONE', #156, #184, #279 ) ;
#67 = PRODUCT_RELATED_PRODUCT_CATEGORY ( 'detail', '', ( #190 ) ) ;
#68 = ORIENTED_EDGE ( 'NONE', *, *, #128, .T. ) ;
#69 = EDGE_CURVE ( 'NONE', #148, #47, #149, .T. ) ;
#70 = DIRECTION ( 'NONE',  ( -0.000000000000000000, -0.000000000000000000, -1.000000000000000000 ) ) ;
#71 = DIRECTION ( 'NONE',  ( 1.000000000000000000, 0.000000000000000000, 0.000000000000000000 ) ) ;
#72 = VERTEX_POINT ( 'NONE', #254 ) ;
#73 = ADVANCED_FACE ( 'NONE', ( #79 ), #125, .T. ) ;
#74 = AXIS2_PLACEMENT_3D ( 'NONE', #99, #198, #143 ) ;
#75 = CARTESIAN_POINT ( 'NONE',  ( -3.000000000000000444, 0.000000000000000000, 3.000000000000000000 ) ) ;
#76 = EDGE_LOOP ( 'NONE', ( #267, #146, #177, #291 ) ) ;
#77 = APPLICATION_CONTEXT ( 'configuration controlled 3d designs of mechanical parts and assemblies' ) ;
#78 = CC_DESIGN_DATE_AND_TIME_ASSIGNMENT ( #25, #39, ( #307 ) ) ;
#79 = FACE_OUTER_BOUND ( 'NONE', #179, .T. ) ;
#80 = CARTESIAN_POINT ( 'NONE',  ( 1.500000000000000222, 1.836970198721030181E-16, 3.199999999999980638 ) ) ;
#81 = CYLINDRICAL_SURFACE ( 'NONE', #196, 3.000000000000000444 ) ;
#82 = DATE_AND_TIME ( #253, #211 ) ;
#83 = FACE_OUTER_BOUND ( 'NONE', #76, .T. ) ;
#84 = VECTOR ( 'NONE', #225, 1000.000000000000000 ) ;
#85 = PERSON_AND_ORGANIZATION ( #265, #297 ) ;
#86 = AXIS2_PLACEMENT_3D ( 'NONE', #232, #14, #20 ) ;
#87 = APPROVAL_ROLE ( '' ) ;
#88 = CARTESIAN_POINT ( 'NONE',  ( 0.000000000000000000, 0.000000000000000000, 0.000000000000000000 ) ) ;
#89 = AXIS2_PLACEMENT_3D ( 'NONE', #270, #172, #37 ) ;
#90 = PERSON_AND_ORGANIZATION_ROLE ( 'creator' ) ;
#91 = PRODUCT_DEFINITION_SHAPE ( 'NONE', 'NONE',  #218 ) ;
#92 = APPROVAL_STATUS ( 'not_yet_approved' ) ;
#93 = CC_DESIGN_DATE_AND_TIME_ASSIGNMENT ( #210, #306, ( #218 ) ) ;
#94 = VERTEX_POINT ( 'NONE', #204 ) ;
#95 = CIRCLE ( 'NONE', #286, 3.000000000000000444 ) ;
#96 = ORIENTED_EDGE ( 'NONE', *, *, #180, .F. ) ;
#97 = DIRECTION ( 'NONE',  ( 0.000000000000000000, 0.000000000000000000, 1.000000000000000000 ) ) ;
#98 = ORIENTED_EDGE ( 'NONE', *, *, #69, .F. ) ;
#99 = CARTESIAN_POINT ( 'NONE',  ( 0.000000000000000000, 0.000000000000000000, 3.000000000000000000 ) ) ;
#100 = ORIENTED_EDGE ( 'NONE', *, *, #168, .T. ) ;
#101 = CARTESIAN_POINT ( 'NONE',  ( 0.000000000000000000, 0.000000000000000000, 3.000000000000000000 ) ) ;
#102 = EDGE_CURVE ( 'NONE', #47, #148, #103, .T. ) ;
#103 = CIRCLE ( 'NONE', #239, 1.500000000000000222 ) ;
#104 = CARTESIAN_POINT ( 'NONE',  ( -1.700000000000000400, 2.081899558550500773E-16, 3.199999999999980638 ) ) ;
#105 = PLANE ( 'NONE',  #46 ) ;
#106 = LINE ( 'NONE', #208, #154 ) ;
#107 = PLANE ( 'NONE',  #112 ) ;
#108 = CC_DESIGN_PERSON_AND_ORGANIZATION_ASSIGNMENT ( #264, #281, ( #307 ) ) ;
#109 = CARTESIAN_POINT ( 'NONE',  ( 0.000000000000000000, 0.000000000000000000, 3.199999999999980638 ) ) ;
#110 = CC_DESIGN_APPROVAL ( #243, ( #307 ) ) ;
#111 = CARTESIAN_POINT ( 'NONE',  ( 1.700000000000000400, 0.000000000000000000, 3.199999999999980638 ) ) ;
#112 = AXIS2_PLACEMENT_3D ( 'NONE', #56, #205, #231 ) ;
#113 = DATE_AND_TIME ( #43, #36 ) ;
#114 = PERSON_AND_ORGANIZATION ( #265, #297 ) ;
#115 = CC_DESIGN_PERSON_AND_ORGANIZATION_ASSIGNMENT ( #114, #90, ( #218 ) ) ;
#116 = AXIS2_PLACEMENT_3D ( 'NONE', #104, #147, #129 ) ;
#117 = ADVANCED_FACE ( 'NONE', ( #13 ), #33, .T. ) ;
#118 = VERTEX_POINT ( 'NONE', #178 ) ;
#119 = DIRECTION ( 'NONE',  ( 1.000000000000000000, 0.000000000000000000, 0.000000000000000000 ) ) ;
#120 = ORIENTED_EDGE ( 'NONE', *, *, #283, .T. ) ;
#121 = CARTESIAN_POINT ( 'NONE',  ( -3.000000000000000444, 0.000000000000000000, 0.000000000000000000 ) ) ;
#122 = EDGE_CURVE ( 'NONE', #118, #244, #176, .T. ) ;
#123 = CARTESIAN_POINT ( 'NONE',  ( 0.000000000000000000, 0.000000000000000000, 318.0000000000000000 ) ) ;
#124 = VERTEX_POINT ( 'NONE', #52 ) ;
#125 = CYLINDRICAL_SURFACE ( 'NONE', #3, 1.500000000000000222 ) ;
#126 = PRODUCT_DEFINITION_FORMATION_WITH_SPECIFIED_SOURCE ( 'LIBOVOLNÝ', '', #190, .NOT_KNOWN. ) ;
#127 = DIRECTION ( 'NONE',  ( -1.000000000000000000, 0.000000000000000000, 0.000000000000000000 ) ) ;
#128 = EDGE_CURVE ( 'NONE', #94, #173, #247, .T. ) ;
#129 = DIRECTION ( 'NONE',  ( -1.000000000000000000, 1.224646799147353207E-16, 0.000000000000000000 ) ) ;
#130 = CARTESIAN_POINT ( 'NONE',  ( 0.000000000000000000, 0.000000000000000000, 3.000000000000000000 ) ) ;
#131 = DIRECTION ( 'NONE',  ( 1.000000000000000000, 0.000000000000000000, 0.000000000000000000 ) ) ;
#132 = CLOSED_SHELL ( 'NONE', ( #203, #73, #2, #263, #16, #53, #117, #27, #189 ) ) ;
#133 = DIRECTION ( 'NONE',  ( 1.000000000000000000, 0.000000000000000000, 0.000000000000000000 ) ) ;
#134 = DIRECTION ( 'NONE',  ( 0.000000000000000000, 0.000000000000000000, 1.000000000000000000 ) ) ;
#135 = AXIS2_PLACEMENT_3D ( 'NONE', #161, #134, #63 ) ;
#136 = COORDINATED_UNIVERSAL_TIME_OFFSET ( 1, 0, .AHEAD. ) ;
#137 = EDGE_CURVE ( 'NONE', #72, #148, #55, .T. ) ;
#138 = APPLICATION_PROTOCOL_DEFINITION ( 'international standard', 'config_control_design', 1994, #77 ) ;
#139 = CIRCLE ( 'NONE', #135, 1.500000000000000222 ) ;
#140 = ORIENTED_EDGE ( 'NONE', *, *, #151, .F. ) ;
#141 = DIRECTION ( 'NONE',  ( -0.000000000000000000, -0.000000000000000000, -1.000000000000000000 ) ) ;
#142 = ORIENTED_EDGE ( 'NONE', *, *, #65, .T. ) ;
#143 = DIRECTION ( 'NONE',  ( 1.000000000000000000, 0.000000000000000000, 0.000000000000000000 ) ) ;
#144 =( GEOMETRIC_REPRESENTATION_CONTEXT ( 3 ) GLOBAL_UNCERTAINTY_ASSIGNED_CONTEXT ( ( #44 ) ) GLOBAL_UNIT_ASSIGNED_CONTEXT ( ( #262, #21, #163 ) ) REPRESENTATION_CONTEXT ( 'NONE', 'WORKASPACE' ) );
#145 = CIRCLE ( 'NONE', #116, 0.2000000000000000944 ) ;
#146 = ORIENTED_EDGE ( 'NONE', *, *, #250, .T. ) ;
#147 = DIRECTION ( 'NONE',  ( 1.224646799147353207E-16, 1.000000000000000000, -0.000000000000000000 ) ) ;
#148 = VERTEX_POINT ( 'NONE', #220 ) ;
#149 = CIRCLE ( 'NONE', #23, 1.500000000000000222 ) ;
#150 = DIRECTION ( 'NONE',  ( 1.000000000000000000, 0.000000000000000000, 0.000000000000000000 ) ) ;
#151 = EDGE_CURVE ( 'NONE', #7, #173, #166, .T. ) ;
#152 = DIRECTION ( 'NONE',  ( 1.000000000000000000, 0.000000000000000000, 0.000000000000000000 ) ) ;
#153 = CARTESIAN_POINT ( 'NONE',  ( 0.000000000000000000, 0.000000000000000000, 3.199999999999980638 ) ) ;
#154 = VECTOR ( 'NONE', #277, 1000.000000000000000 ) ;
#155 = APPROVAL ( #259, 'NEURÈENÝ' ) ;
#156 = CARTESIAN_POINT ( 'NONE',  ( 0.000000000000000000, 0.000000000000000000, 0.000000000000000000 ) ) ;
#157 = CALENDAR_DATE ( 2022, 20, 6 ) ;
#158 = SHAPE_DEFINITION_REPRESENTATION ( #91, #167 ) ;
#159 = DIRECTION ( 'NONE',  ( 0.000000000000000000, 0.000000000000000000, 1.000000000000000000 ) ) ;
#160 = DIRECTION ( 'NONE',  ( 0.000000000000000000, 0.000000000000000000, 1.000000000000000000 ) ) ;
#161 = CARTESIAN_POINT ( 'NONE',  ( 0.000000000000000000, 0.000000000000000000, 318.0000000000000000 ) ) ;
#162 = CC_DESIGN_APPROVAL ( #164, ( #218 ) ) ;
#163 =( NAMED_UNIT ( * ) SI_UNIT ( $, .STERADIAN. ) SOLID_ANGLE_UNIT ( ) );
#164 = APPROVAL ( #92, 'NEURÈENÝ' ) ;
#165 = AXIS2_PLACEMENT_3D ( 'NONE', #111, #185, #61 ) ;
#166 = CIRCLE ( 'NONE', #261, 3.000000000000000444 ) ;
#167 = ADVANCED_BREP_SHAPE_REPRESENTATION ( 'ed45', ( #215, #175 ), #144 ) ;
#168 = EDGE_CURVE ( 'NONE', #148, #244, #145, .T. ) ;
#169 = ORIENTED_EDGE ( 'NONE', *, *, #180, .T. ) ;
#170 = EDGE_LOOP ( 'NONE', ( #241, #30, #221, #266 ) ) ;
#171 = APPROVAL_STATUS ( 'not_yet_approved' ) ;
#172 = DIRECTION ( 'NONE',  ( 0.000000000000000000, 0.000000000000000000, 1.000000000000000000 ) ) ;
#173 = VERTEX_POINT ( 'NONE', #121 ) ;
#174 = FACE_OUTER_BOUND ( 'NONE', #170, .T. ) ;
#175 = AXIS2_PLACEMENT_3D ( 'NONE', #88, #160, #131 ) ;
#176 = CIRCLE ( 'NONE', #74, 1.700000000000000400 ) ;
#177 = ORIENTED_EDGE ( 'NONE', *, *, #151, .T. ) ;
#178 = CARTESIAN_POINT ( 'NONE',  ( 1.700000000000000400, 0.000000000000000000, 2.999999999999990674 ) ) ;
#179 = EDGE_LOOP ( 'NONE', ( #219, #248, #195, #5 ) ) ;
#180 = EDGE_CURVE ( 'NONE', #94, #48, #299, .T. ) ;
#181 = CARTESIAN_POINT ( 'NONE',  ( 3.000000000000000444, 3.673940397442060361E-16, 0.000000000000000000 ) ) ;
#182 = CARTESIAN_POINT ( 'NONE',  ( 0.000000000000000000, 0.000000000000000000, 3.000000000000000000 ) ) ;
#183 = APPROVAL_PERSON_ORGANIZATION ( #273, #243, #87 ) ;
#184 = DIRECTION ( 'NONE',  ( 0.000000000000000000, 0.000000000000000000, 1.000000000000000000 ) ) ;
#185 = DIRECTION ( 'NONE',  ( 0.000000000000000000, -1.000000000000000000, 0.000000000000000000 ) ) ;
#186 = EDGE_CURVE ( 'NONE', #48, #94, #289, .T. ) ;
#187 = COORDINATED_UNIVERSAL_TIME_OFFSET ( 1, 0, .AHEAD. ) ;
#188 = PERSON_AND_ORGANIZATION_ROLE ( 'design_supplier' ) ;
#189 = ADVANCED_FACE ( 'NONE', ( #174 ), #227, .F. ) ;
#190 = PRODUCT ( 'ed45', 'ed45', '', ( #213 ) ) ;
#191 = AXIS2_PLACEMENT_3D ( 'NONE', #6, #252, #301 ) ;
#192 = EDGE_CURVE ( 'NONE', #124, #47, #201, .T. ) ;
#193 = EDGE_CURVE ( 'NONE', #173, #7, #95, .T. ) ;
#194 = APPLICATION_CONTEXT ( 'configuration controlled 3d designs of mechanical parts and assemblies' ) ;
#195 = ORIENTED_EDGE ( 'NONE', *, *, #102, .T. ) ;
#196 = AXIS2_PLACEMENT_3D ( 'NONE', #182, #141, #245 ) ;
#197 = EDGE_LOOP ( 'NONE', ( #32, #50, #54, #223 ) ) ;
#198 = DIRECTION ( 'NONE',  ( -0.000000000000000000, -0.000000000000000000, -1.000000000000000000 ) ) ;
#199 = EDGE_LOOP ( 'NONE', ( #269, #120 ) ) ;
#200 = DIRECTION ( 'NONE',  ( -0.000000000000000000, -0.000000000000000000, -1.000000000000000000 ) ) ;
#201 = LINE ( 'NONE', #298, #237 ) ;
#202 = EDGE_LOOP ( 'NONE', ( #293, #140 ) ) ;
#203 = ADVANCED_FACE ( 'NONE', ( #34 ), #276, .F. ) ;
#204 = CARTESIAN_POINT ( 'NONE',  ( -3.000000000000000444, 0.000000000000000000, 3.000000000000000000 ) ) ;
#205 = DIRECTION ( 'NONE',  ( 0.000000000000000000, 0.000000000000000000, 1.000000000000000000 ) ) ;
#206 = CC_DESIGN_PERSON_AND_ORGANIZATION_ASSIGNMENT ( #85, #188, ( #126 ) ) ;
#207 = AXIS2_PLACEMENT_3D ( 'NONE', #130, #256, #127 ) ;
#208 = CARTESIAN_POINT ( 'NONE',  ( 3.000000000000000444, 3.673940397442060361E-16, 3.000000000000000000 ) ) ;
#209 = DIRECTION ( 'NONE',  ( 1.000000000000000000, 0.000000000000000000, -0.000000000000000000 ) ) ;
#210 = DATE_AND_TIME ( #234, #26 ) ;
#211 = LOCAL_TIME ( 12, 15, 2.000000000000000000, #282 ) ;
#212 = DIRECTION ( 'NONE',  ( 0.000000000000000000, 0.000000000000000000, 1.000000000000000000 ) ) ;
#213 = MECHANICAL_CONTEXT ( 'NONE', #77, 'mechanical' ) ;
#214 = PERSON_AND_ORGANIZATION_ROLE ( 'design_owner' ) ;
#215 = MANIFOLD_SOLID_BREP ( 'Zaoblit1', #132 ) ;
#216 = APPROVAL_DATE_TIME ( #113, #164 ) ;
#217 = COORDINATED_UNIVERSAL_TIME_OFFSET ( 1, 0, .AHEAD. ) ;
#218 = PRODUCT_DEFINITION ( 'NEZNÁMÝ', '', #126, #233 ) ;
#219 = ORIENTED_EDGE ( 'NONE', *, *, #283, .F. ) ;
#220 = CARTESIAN_POINT ( 'NONE',  ( -1.500000000000000222, 0.000000000000000000, 3.199999999999980638 ) ) ;
#221 = ORIENTED_EDGE ( 'NONE', *, *, #294, .T. ) ;
#222 = CARTESIAN_POINT ( 'NONE',  ( 0.000000000000000000, 0.000000000000000000, 3.199999999999980638 ) ) ;
#223 = ORIENTED_EDGE ( 'NONE', *, *, #69, .T. ) ;
#224 = AXIS2_PLACEMENT_3D ( 'NONE', #58, #159, #133 ) ;
#225 = DIRECTION ( 'NONE',  ( -0.000000000000000000, -0.000000000000000000, -1.000000000000000000 ) ) ;
#226 = EDGE_LOOP ( 'NONE', ( #169, #300 ) ) ;
#227 = TOROIDAL_SURFACE ( 'NONE', #89, 1.700000000000000400, 0.2000000000000000111 ) ;
#228 = CARTESIAN_POINT ( 'NONE',  ( 0.000000000000000000, 0.000000000000000000, 318.0000000000000000 ) ) ;
#229 = AXIS2_PLACEMENT_3D ( 'NONE', #123, #249, #8 ) ;
#230 = FACE_OUTER_BOUND ( 'NONE', #202, .T. ) ;
#231 = DIRECTION ( 'NONE',  ( 1.000000000000000000, 0.000000000000000000, -0.000000000000000000 ) ) ;
#232 = CARTESIAN_POINT ( 'NONE',  ( 0.000000000000000000, 0.000000000000000000, 3.000000000000000000 ) ) ;
#233 = DESIGN_CONTEXT ( 'detailed design', #194, 'design' ) ;
#234 = CALENDAR_DATE ( 2022, 20, 6 ) ;
#235 = APPROVAL_ROLE ( '' ) ;
#236 = COORDINATED_UNIVERSAL_TIME_OFFSET ( 1, 0, .AHEAD. ) ;
#237 = VECTOR ( 'NONE', #271, 1000.000000000000000 ) ;
#238 = CC_DESIGN_SECURITY_CLASSIFICATION ( #307, ( #126 ) ) ;
#239 = AXIS2_PLACEMENT_3D ( 'NONE', #222, #49, #119 ) ;
#240 = LOCAL_TIME ( 12, 15, 2.000000000000000000, #236 ) ;
#241 = ORIENTED_EDGE ( 'NONE', *, *, #168, .F. ) ;
#242 = CIRCLE ( 'NONE', #86, 1.700000000000000400 ) ;
#243 = APPROVAL ( #171, 'NEURÈENÝ' ) ;
#244 = VERTEX_POINT ( 'NONE', #274 ) ;
#245 = DIRECTION ( 'NONE',  ( -1.000000000000000000, 0.000000000000000000, 0.000000000000000000 ) ) ;
#246 = ORIENTED_EDGE ( 'NONE', *, *, #122, .F. ) ;
#247 = LINE ( 'NONE', #75, #287 ) ;
#248 = ORIENTED_EDGE ( 'NONE', *, *, #192, .T. ) ;
#249 = DIRECTION ( 'NONE',  ( -0.000000000000000000, -0.000000000000000000, -1.000000000000000000 ) ) ;
#250 = EDGE_CURVE ( 'NONE', #48, #7, #106, .T. ) ;
#251 = ORIENTED_EDGE ( 'NONE', *, *, #294, .F. ) ;
#252 = DIRECTION ( 'NONE',  ( 0.000000000000000000, 0.000000000000000000, 1.000000000000000000 ) ) ;
#253 = CALENDAR_DATE ( 2022, 20, 6 ) ;
#254 = CARTESIAN_POINT ( 'NONE',  ( -1.500000000000000222, 0.000000000000000000, 318.0000000000000000 ) ) ;
#255 = DIRECTION ( 'NONE',  ( 0.000000000000000000, 0.000000000000000000, 1.000000000000000000 ) ) ;
#256 = DIRECTION ( 'NONE',  ( -0.000000000000000000, -0.000000000000000000, -1.000000000000000000 ) ) ;
#257 = PERSON_AND_ORGANIZATION ( #265, #297 ) ;
#258 = CARTESIAN_POINT ( 'NONE',  ( 0.000000000000000000, 0.000000000000000000, 318.0000000000000000 ) ) ;
#259 = APPROVAL_STATUS ( 'not_yet_approved' ) ;
#260 = APPROVAL_PERSON_ORGANIZATION ( #257, #164, #235 ) ;
#261 = AXIS2_PLACEMENT_3D ( 'NONE', #295, #97, #10 ) ;
#262 =( LENGTH_UNIT ( ) NAMED_UNIT ( * ) SI_UNIT ( .MILLI., .METRE. ) );
#263 = ADVANCED_FACE ( 'NONE', ( #303 ), #81, .T. ) ;
#264 = PERSON_AND_ORGANIZATION ( #265, #297 ) ;
#265 = PERSON ( 'NEURÈENÝ', 'NEURÈENÝ', 'NEURÈENÝ', ('NEURÈENÝ'), ('NEURÈENÝ'), ('NEURÈENÝ') ) ;
#266 = ORIENTED_EDGE ( 'NONE', *, *, #65, .F. ) ;
#267 = ORIENTED_EDGE ( 'NONE', *, *, #186, .F. ) ;
#268 = DIRECTION ( 'NONE',  ( 0.000000000000000000, 0.000000000000000000, 1.000000000000000000 ) ) ;
#269 = ORIENTED_EDGE ( 'NONE', *, *, #60, .T. ) ;
#270 = CARTESIAN_POINT ( 'NONE',  ( 0.000000000000000000, 0.000000000000000000, 3.199999999999980638 ) ) ;
#271 = DIRECTION ( 'NONE',  ( -0.000000000000000000, -0.000000000000000000, -1.000000000000000000 ) ) ;
#272 = EDGE_LOOP ( 'NONE', ( #98, #100, #246, #251 ) ) ;
#273 = PERSON_AND_ORGANIZATION ( #265, #297 ) ;
#274 = CARTESIAN_POINT ( 'NONE',  ( -1.700000000000000400, 2.081899558550500773E-16, 2.999999999999990674 ) ) ;
#275 = PLANE ( 'NONE',  #66 ) ;
#276 = TOROIDAL_SURFACE ( 'NONE', #284, 1.700000000000000400, 0.2000000000000000111 ) ;
#277 = DIRECTION ( 'NONE',  ( -0.000000000000000000, -0.000000000000000000, -1.000000000000000000 ) ) ;
#278 = APPROVAL_DATE_TIME ( #82, #243 ) ;
#279 = DIRECTION ( 'NONE',  ( 1.000000000000000000, 0.000000000000000000, -0.000000000000000000 ) ) ;
#280 = PERSON_AND_ORGANIZATION ( #265, #297 ) ;
#281 = PERSON_AND_ORGANIZATION_ROLE ( 'classification_officer' ) ;
#282 = COORDINATED_UNIVERSAL_TIME_OFFSET ( 1, 0, .AHEAD. ) ;
#283 = EDGE_CURVE ( 'NONE', #124, #72, #139, .T. ) ;
#284 = AXIS2_PLACEMENT_3D ( 'NONE', #153, #255, #17 ) ;
#285 = PERSON_AND_ORGANIZATION ( #265, #297 ) ;
#286 = AXIS2_PLACEMENT_3D ( 'NONE', #292, #268, #150 ) ;
#287 = VECTOR ( 'NONE', #200, 1000.000000000000000 ) ;
#288 = CIRCLE ( 'NONE', #224, 1.500000000000000222 ) ;
#289 = CIRCLE ( 'NONE', #42, 3.000000000000000444 ) ;
#290 = EDGE_LOOP ( 'NONE', ( #296, #96, #68, #11 ) ) ;
#291 = ORIENTED_EDGE ( 'NONE', *, *, #128, .F. ) ;
#292 = CARTESIAN_POINT ( 'NONE',  ( 0.000000000000000000, 0.000000000000000000, 0.000000000000000000 ) ) ;
#293 = ORIENTED_EDGE ( 'NONE', *, *, #193, .F. ) ;
#294 = EDGE_CURVE ( 'NONE', #47, #118, #12, .T. ) ;
#295 = CARTESIAN_POINT ( 'NONE',  ( 0.000000000000000000, 0.000000000000000000, 0.000000000000000000 ) ) ;
#296 = ORIENTED_EDGE ( 'NONE', *, *, #250, .F. ) ;
#297 = ORGANIZATION ( 'NEURÈENÝ', 'NEURÈENÝ', '' ) ;
#298 = CARTESIAN_POINT ( 'NONE',  ( 1.500000000000000222, 1.836970198721030181E-16, 318.0000000000000000 ) ) ;
#299 = CIRCLE ( 'NONE', #191, 3.000000000000000444 ) ;
#300 = ORIENTED_EDGE ( 'NONE', *, *, #186, .T. ) ;
#301 = DIRECTION ( 'NONE',  ( 1.000000000000000000, 0.000000000000000000, 0.000000000000000000 ) ) ;
#302 = FACE_OUTER_BOUND ( 'NONE', #199, .T. ) ;
#303 = FACE_OUTER_BOUND ( 'NONE', #290, .T. ) ;
#304 = CARTESIAN_POINT ( 'NONE',  ( 3.000000000000000444, 3.673940397442060361E-16, 3.000000000000000000 ) ) ;
#305 = APPROVAL_DATE_TIME ( #41, #155 ) ;
#306 = DATE_TIME_ROLE ( 'creation_date' ) ;
#307 = SECURITY_CLASSIFICATION ( '', '', #64 ) ;
ENDSEC;
END-ISO-10303-21;
