ISO-10303-21;
HEADER;
FILE_DESCRIPTION (( 'STEP AP203' ),
    '1' );
FILE_NAME ('864b.STEP',
    '2022-06-20T09:27:03',
    ( '' ),
    ( '' ),
    'SwSTEP 2.0',
    'SolidWorks 2019',
    '' );
FILE_SCHEMA (( 'CONFIG_CONTROL_DESIGN' ));
ENDSEC;

DATA;
#1 = PERSON_AND_ORGANIZATION ( #302, #196 ) ;
#2 = ORIENTED_EDGE ( 'NONE', *, *, #166, .F. ) ;
#3 = VERTEX_POINT ( 'NONE', #238 ) ;
#4 = EDGE_CURVE ( 'NONE', #146, #171, #117, .T. ) ;
#5 = ORIENTED_EDGE ( 'NONE', *, *, #33, .F. ) ;
#6 = PERSON_AND_ORGANIZATION_ROLE ( 'classification_officer' ) ;
#7 = ORIENTED_EDGE ( 'NONE', *, *, #251, .F. ) ;
#8 = DIRECTION ( 'NONE',  ( 1.000000000000000000, 0.000000000000000000, 0.000000000000000000 ) ) ;
#9 = EDGE_CURVE ( 'NONE', #3, #212, #284, .T. ) ;
#10 = CARTESIAN_POINT ( 'NONE',  ( -7.000000000000000888, 0.000000000000000000, 7.200000000000011724 ) ) ;
#11 = SECURITY_CLASSIFICATION ( '', '', #213 ) ;
#12 = TOROIDAL_SURFACE ( 'NONE', #44, 7.200000000000001066, 0.2000000000000000111 ) ;
#13 = CALENDAR_DATE ( 2022, 20, 6 ) ;
#14 = DIRECTION ( 'NONE',  ( 1.000000000000000000, 0.000000000000000000, 0.000000000000000000 ) ) ;
#15 = FACE_OUTER_BOUND ( 'NONE', #254, .T. ) ;
#16 = EDGE_CURVE ( 'NONE', #78, #237, #285, .T. ) ;
#17 = CYLINDRICAL_SURFACE ( 'NONE', #119, 7.000000000000000888 ) ;
#18 = UNCERTAINTY_MEASURE_WITH_UNIT (LENGTH_MEASURE( 1.000000000000000082E-05 ), #156, 'distance_accuracy_value', 'NONE');
#19 = ORIENTED_EDGE ( 'NONE', *, *, #241, .F. ) ;
#20 = DIRECTION ( 'NONE',  ( 1.000000000000000000, 0.000000000000000000, -0.000000000000000000 ) ) ;
#21 = TOROIDAL_SURFACE ( 'NONE', #258, 7.200000000000001066, 0.2000000000000000111 ) ;
#22 = LOCAL_TIME ( 11, 27, 3.000000000000000000, #175 ) ;
#23 = APPROVAL_DATE_TIME ( #230, #277 ) ;
#24 = CC_DESIGN_PERSON_AND_ORGANIZATION_ASSIGNMENT ( #296, #161, ( #191 ) ) ;
#25 = ORIENTED_EDGE ( 'NONE', *, *, #159, .F. ) ;
#26 = CC_DESIGN_APPROVAL ( #41, ( #55 ) ) ;
#27 = ORIENTED_EDGE ( 'NONE', *, *, #9, .F. ) ;
#28 = CC_DESIGN_PERSON_AND_ORGANIZATION_ASSIGNMENT ( #135, #69, ( #55 ) ) ;
#29 = CARTESIAN_POINT ( 'NONE',  ( 0.000000000000000000, 0.000000000000000000, 7.200000000000011724 ) ) ;
#30 = CARTESIAN_POINT ( 'NONE',  ( -11.00000000000000000, 0.000000000000000000, 7.000000000000000000 ) ) ;
#31 = DIRECTION ( 'NONE',  ( 1.000000000000000000, 0.000000000000000000, -0.000000000000000000 ) ) ;
#32 = ORIENTED_EDGE ( 'NONE', *, *, #88, .F. ) ;
#33 = EDGE_CURVE ( 'NONE', #3, #276, #167, .T. ) ;
#34 = MANIFOLD_SOLID_BREP ( 'Zaoblit1', #96 ) ;
#35 = CARTESIAN_POINT ( 'NONE',  ( 11.00000000000000000, 1.347111479062088405E-15, 0.000000000000000000 ) ) ;
#36 = DATE_AND_TIME ( #266, #22 ) ;
#37 = CARTESIAN_POINT ( 'NONE',  ( 7.200000000000001066, 0.000000000000000000, 7.200000000000011724 ) ) ;
#38 = AXIS2_PLACEMENT_3D ( 'NONE', #225, #204, #20 ) ;
#39 = CIRCLE ( 'NONE', #126, 7.200000000000001066 ) ;
#40 = DIRECTION ( 'NONE',  ( 1.000000000000000000, 0.000000000000000000, 0.000000000000000000 ) ) ;
#41 = APPROVAL ( #132, 'NEURÈENÝ' ) ;
#42 = CARTESIAN_POINT ( 'NONE',  ( -11.00000000000000000, 0.000000000000000000, 0.000000000000000000 ) ) ;
#43 = APPLICATION_PROTOCOL_DEFINITION ( 'international standard', 'config_control_design', 1994, #224 ) ;
#44 = AXIS2_PLACEMENT_3D ( 'NONE', #29, #121, #40 ) ;
#45 = APPROVAL_ROLE ( '' ) ;
#46 = EDGE_CURVE ( 'NONE', #78, #146, #58, .T. ) ;
#47 = APPLICATION_CONTEXT ( 'configuration controlled 3d designs of mechanical parts and assemblies' ) ;
#48 = DIRECTION ( 'NONE',  ( -1.000000000000000000, 0.000000000000000000, 0.000000000000000000 ) ) ;
#49 = DATE_AND_TIME ( #207, #197 ) ;
#50 = PERSON_AND_ORGANIZATION ( #302, #196 ) ;
#51 = CC_DESIGN_DATE_AND_TIME_ASSIGNMENT ( #49, #247, ( #55 ) ) ;
#52 = VERTEX_POINT ( 'NONE', #57 ) ;
#53 = ORIENTED_EDGE ( 'NONE', *, *, #9, .T. ) ;
#54 = CIRCLE ( 'NONE', #235, 7.000000000000000888 ) ;
#55 = PRODUCT_DEFINITION ( 'NEZNÁMÝ', '', #183, #86 ) ;
#56 = AXIS2_PLACEMENT_3D ( 'NONE', #281, #188, #147 ) ;
#57 = CARTESIAN_POINT ( 'NONE',  ( 7.000000000000000888, 8.572527594031474176E-16, 7.200000000000011724 ) ) ;
#58 = LINE ( 'NONE', #30, #270 ) ;
#59 = DIRECTION ( 'NONE',  ( -0.000000000000000000, -0.000000000000000000, -1.000000000000000000 ) ) ;
#60 = ORIENTED_EDGE ( 'NONE', *, *, #184, .T. ) ;
#61 = CARTESIAN_POINT ( 'NONE',  ( -7.200000000000001066, 8.817456953860944275E-16, 7.000000000000006217 ) ) ;
#62 = APPROVAL_ROLE ( '' ) ;
#63 = DIRECTION ( 'NONE',  ( 1.000000000000000000, 0.000000000000000000, 0.000000000000000000 ) ) ;
#64 = CARTESIAN_POINT ( 'NONE',  ( 0.000000000000000000, 0.000000000000000000, 7.200000000000011724 ) ) ;
#65 = AXIS2_PLACEMENT_3D ( 'NONE', #82, #77, #31 ) ;
#66 = DATE_TIME_ROLE ( 'classification_date' ) ;
#67 = FACE_OUTER_BOUND ( 'NONE', #205, .T. ) ;
#68 = LINE ( 'NONE', #130, #211 ) ;
#69 = PERSON_AND_ORGANIZATION_ROLE ( 'creator' ) ;
#70 = LOCAL_TIME ( 11, 27, 3.000000000000000000, #252 ) ;
#71 = AXIS2_PLACEMENT_3D ( 'NONE', #111, #107, #295 ) ;
#72 = CARTESIAN_POINT ( 'NONE',  ( 0.000000000000000000, 0.000000000000000000, 207.0000000000000284 ) ) ;
#73 = EDGE_LOOP ( 'NONE', ( #261, #60, #214, #163 ) ) ;
#74 = PERSON_AND_ORGANIZATION ( #302, #196 ) ;
#75 = ORIENTED_EDGE ( 'NONE', *, *, #200, .T. ) ;
#76 = EDGE_LOOP ( 'NONE', ( #138, #148, #216, #102 ) ) ;
#77 = DIRECTION ( 'NONE',  ( 0.000000000000000000, 0.000000000000000000, 1.000000000000000000 ) ) ;
#78 = VERTEX_POINT ( 'NONE', #140 ) ;
#79 = AXIS2_PLACEMENT_3D ( 'NONE', #150, #242, #289 ) ;
#80 = ORIENTED_EDGE ( 'NONE', *, *, #134, .T. ) ;
#81 = CARTESIAN_POINT ( 'NONE',  ( -7.000000000000000888, 0.000000000000000000, 207.0000000000000284 ) ) ;
#82 = CARTESIAN_POINT ( 'NONE',  ( 0.000000000000000000, 0.000000000000000000, 7.000000000000000000 ) ) ;
#83 = APPROVAL_STATUS ( 'not_yet_approved' ) ;
#84 = CYLINDRICAL_SURFACE ( 'NONE', #79, 11.00000000000000000 ) ;
#85 = APPROVAL_PERSON_ORGANIZATION ( #92, #41, #180 ) ;
#86 = DESIGN_CONTEXT ( 'detailed design', #224, 'design' ) ;
#87 = FACE_OUTER_BOUND ( 'NONE', #76, .T. ) ;
#88 = EDGE_CURVE ( 'NONE', #276, #3, #233, .T. ) ;
#89 = DIRECTION ( 'NONE',  ( -0.000000000000000000, -0.000000000000000000, -1.000000000000000000 ) ) ;
#90 = LINE ( 'NONE', #272, #220 ) ;
#91 = DIRECTION ( 'NONE',  ( 1.000000000000000000, 0.000000000000000000, 0.000000000000000000 ) ) ;
#92 = PERSON_AND_ORGANIZATION ( #302, #196 ) ;
#93 = CC_DESIGN_PERSON_AND_ORGANIZATION_ASSIGNMENT ( #50, #304, ( #183 ) ) ;
#94 = CARTESIAN_POINT ( 'NONE',  ( 7.000000000000000888, 8.572527594031474176E-16, 207.0000000000000284 ) ) ;
#95 = CIRCLE ( 'NONE', #229, 11.00000000000000000 ) ;
#96 = CLOSED_SHELL ( 'NONE', ( #145, #298, #217, #236, #105, #257, #226, #262, #115 ) ) ;
#97 = COORDINATED_UNIVERSAL_TIME_OFFSET ( 1, 0, .AHEAD. ) ;
#98 = CC_DESIGN_DATE_AND_TIME_ASSIGNMENT ( #36, #66, ( #11 ) ) ;
#99 = MECHANICAL_CONTEXT ( 'NONE', #47, 'mechanical' ) ;
#100 = DIRECTION ( 'NONE',  ( 1.000000000000000000, 0.000000000000000000, 0.000000000000000000 ) ) ;
#101 = EDGE_LOOP ( 'NONE', ( #157, #80 ) ) ;
#102 = ORIENTED_EDGE ( 'NONE', *, *, #4, .T. ) ;
#103 = CC_DESIGN_APPROVAL ( #209, ( #11 ) ) ;
#104 = ORIENTED_EDGE ( 'NONE', *, *, #190, .T. ) ;
#105 = ADVANCED_FACE ( 'NONE', ( #234, #215 ), #193, .T. ) ;
#106 = DIRECTION ( 'NONE',  ( 1.000000000000000000, 0.000000000000000000, 0.000000000000000000 ) ) ;
#107 = DIRECTION ( 'NONE',  ( -0.000000000000000000, -0.000000000000000000, -1.000000000000000000 ) ) ;
#108 = CC_DESIGN_APPROVAL ( #277, ( #183 ) ) ;
#109 = CARTESIAN_POINT ( 'NONE',  ( 0.000000000000000000, 0.000000000000000000, 207.0000000000000284 ) ) ;
#110 = CIRCLE ( 'NONE', #141, 0.1999999999999996503 ) ;
#111 = CARTESIAN_POINT ( 'NONE',  ( 0.000000000000000000, 0.000000000000000000, 7.000000000000000000 ) ) ;
#112 = CARTESIAN_POINT ( 'NONE',  ( 0.000000000000000000, 0.000000000000000000, 0.000000000000000000 ) ) ;
#113 = FACE_OUTER_BOUND ( 'NONE', #73, .T. ) ;
#114 = CC_DESIGN_SECURITY_CLASSIFICATION ( #11, ( #183 ) ) ;
#115 = ADVANCED_FACE ( 'NONE', ( #143 ), #12, .F. ) ;
#116 =( NAMED_UNIT ( * ) PLANE_ANGLE_UNIT ( ) SI_UNIT ( $, .RADIAN. ) );
#117 = CIRCLE ( 'NONE', #274, 11.00000000000000000 ) ;
#118 = PRODUCT_RELATED_PRODUCT_CATEGORY ( 'detail', '', ( #191 ) ) ;
#119 = AXIS2_PLACEMENT_3D ( 'NONE', #109, #89, #152 ) ;
#120 = ORIENTED_EDGE ( 'NONE', *, *, #190, .F. ) ;
#121 = DIRECTION ( 'NONE',  ( 0.000000000000000000, 0.000000000000000000, 1.000000000000000000 ) ) ;
#122 = CARTESIAN_POINT ( 'NONE',  ( 0.000000000000000000, 0.000000000000000000, 0.000000000000000000 ) ) ;
#123 = CARTESIAN_POINT ( 'NONE',  ( 0.000000000000000000, 0.000000000000000000, 7.000000000000000000 ) ) ;
#124 = DIRECTION ( 'NONE',  ( 0.000000000000000000, 0.000000000000000000, 1.000000000000000000 ) ) ;
#125 = DIRECTION ( 'NONE',  ( -0.000000000000000000, -0.000000000000000000, -1.000000000000000000 ) ) ;
#126 = AXIS2_PLACEMENT_3D ( 'NONE', #155, #202, #8 ) ;
#127 = DATE_AND_TIME ( #13, #231 ) ;
#128 = EDGE_CURVE ( 'NONE', #212, #52, #142, .T. ) ;
#129 = DIRECTION ( 'NONE',  ( 1.000000000000000000, 0.000000000000000000, 0.000000000000000000 ) ) ;
#130 = CARTESIAN_POINT ( 'NONE',  ( 7.000000000000000888, 8.572527594031474176E-16, 207.0000000000000284 ) ) ;
#131 = DIRECTION ( 'NONE',  ( 0.000000000000000000, 0.000000000000000000, -1.000000000000000000 ) ) ;
#132 = APPROVAL_STATUS ( 'not_yet_approved' ) ;
#133 = CIRCLE ( 'NONE', #165, 0.1999999999999996503 ) ;
#134 = EDGE_CURVE ( 'NONE', #237, #78, #95, .T. ) ;
#135 = PERSON_AND_ORGANIZATION ( #302, #196 ) ;
#136 = ORIENTED_EDGE ( 'NONE', *, *, #200, .F. ) ;
#137 = CALENDAR_DATE ( 2022, 20, 6 ) ;
#138 = ORIENTED_EDGE ( 'NONE', *, *, #184, .F. ) ;
#139 = EDGE_CURVE ( 'NONE', #171, #146, #265, .T. ) ;
#140 = CARTESIAN_POINT ( 'NONE',  ( -11.00000000000000000, 0.000000000000000000, 7.000000000000000000 ) ) ;
#141 = AXIS2_PLACEMENT_3D ( 'NONE', #267, #269, #223 ) ;
#142 = CIRCLE ( 'NONE', #260, 7.000000000000000888 ) ;
#143 = FACE_OUTER_BOUND ( 'NONE', #210, .T. ) ;
#144 = PRODUCT_DEFINITION_SHAPE ( 'NONE', 'NONE',  #55 ) ;
#145 = ADVANCED_FACE ( 'NONE', ( #292 ), #21, .F. ) ;
#146 = VERTEX_POINT ( 'NONE', #42 ) ;
#147 = DIRECTION ( 'NONE',  ( 1.000000000000000000, 0.000000000000000000, 0.000000000000000000 ) ) ;
#148 = ORIENTED_EDGE ( 'NONE', *, *, #16, .F. ) ;
#149 = PLANE ( 'NONE',  #153 ) ;
#150 = CARTESIAN_POINT ( 'NONE',  ( 0.000000000000000000, 0.000000000000000000, 7.000000000000000000 ) ) ;
#151 =( GEOMETRIC_REPRESENTATION_CONTEXT ( 3 ) GLOBAL_UNCERTAINTY_ASSIGNED_CONTEXT ( ( #18 ) ) GLOBAL_UNIT_ASSIGNED_CONTEXT ( ( #156, #116, #303 ) ) REPRESENTATION_CONTEXT ( 'NONE', 'WORKASPACE' ) );
#152 = DIRECTION ( 'NONE',  ( -1.000000000000000000, 0.000000000000000000, 0.000000000000000000 ) ) ;
#153 = AXIS2_PLACEMENT_3D ( 'NONE', #112, #201, #271 ) ;
#154 = CARTESIAN_POINT ( 'NONE',  ( 0.000000000000000000, 0.000000000000000000, 0.000000000000000000 ) ) ;
#155 = CARTESIAN_POINT ( 'NONE',  ( 0.000000000000000000, 0.000000000000000000, 7.000000000000000000 ) ) ;
#156 =( LENGTH_UNIT ( ) NAMED_UNIT ( * ) SI_UNIT ( .MILLI., .METRE. ) );
#157 = ORIENTED_EDGE ( 'NONE', *, *, #16, .T. ) ;
#158 = LOCAL_TIME ( 11, 27, 3.000000000000000000, #275 ) ;
#159 = EDGE_CURVE ( 'NONE', #255, #228, #39, .T. ) ;
#160 = APPLICATION_PROTOCOL_DEFINITION ( 'international standard', 'config_control_design', 1994, #47 ) ;
#161 = PERSON_AND_ORGANIZATION_ROLE ( 'design_owner' ) ;
#162 = CC_DESIGN_PERSON_AND_ORGANIZATION_ASSIGNMENT ( #1, #6, ( #11 ) ) ;
#163 = ORIENTED_EDGE ( 'NONE', *, *, #46, .F. ) ;
#164 = DIRECTION ( 'NONE',  ( 0.000000000000000000, 0.000000000000000000, 1.000000000000000000 ) ) ;
#165 = AXIS2_PLACEMENT_3D ( 'NONE', #37, #174, #131 ) ;
#166 = EDGE_CURVE ( 'NONE', #228, #255, #208, .T. ) ;
#167 = CIRCLE ( 'NONE', #181, 7.000000000000000888 ) ;
#168 = DIRECTION ( 'NONE',  ( 0.000000000000000000, 0.000000000000000000, 1.000000000000000000 ) ) ;
#169 = ORIENTED_EDGE ( 'NONE', *, *, #241, .T. ) ;
#170 = PERSON_AND_ORGANIZATION ( #302, #196 ) ;
#171 = VERTEX_POINT ( 'NONE', #35 ) ;
#172 = SHAPE_DEFINITION_REPRESENTATION ( #144, #293 ) ;
#173 = VECTOR ( 'NONE', #239, 1000.000000000000000 ) ;
#174 = DIRECTION ( 'NONE',  ( 0.000000000000000000, -1.000000000000000000, 0.000000000000000000 ) ) ;
#175 = COORDINATED_UNIVERSAL_TIME_OFFSET ( 1, 0, .AHEAD. ) ;
#176 = CARTESIAN_POINT ( 'NONE',  ( 0.000000000000000000, 0.000000000000000000, 7.200000000000011724 ) ) ;
#177 = DIRECTION ( 'NONE',  ( -0.000000000000000000, -0.000000000000000000, -1.000000000000000000 ) ) ;
#178 = CARTESIAN_POINT ( 'NONE',  ( 11.00000000000000000, 1.347111479062088405E-15, 7.000000000000000000 ) ) ;
#179 = DIRECTION ( 'NONE',  ( 1.000000000000000000, 0.000000000000000000, 0.000000000000000000 ) ) ;
#180 = APPROVAL_ROLE ( '' ) ;
#181 = AXIS2_PLACEMENT_3D ( 'NONE', #307, #168, #100 ) ;
#182 = FACE_OUTER_BOUND ( 'NONE', #280, .T. ) ;
#183 = PRODUCT_DEFINITION_FORMATION_WITH_SPECIFIED_SOURCE ( 'LIBOVOLNÝ', '', #191, .NOT_KNOWN. ) ;
#184 = EDGE_CURVE ( 'NONE', #237, #171, #90, .T. ) ;
#185 = APPROVAL_STATUS ( 'not_yet_approved' ) ;
#186 = DIRECTION ( 'NONE',  ( -0.000000000000000000, -0.000000000000000000, -1.000000000000000000 ) ) ;
#187 = EDGE_LOOP ( 'NONE', ( #305, #232 ) ) ;
#188 = DIRECTION ( 'NONE',  ( 0.000000000000000000, 0.000000000000000000, 1.000000000000000000 ) ) ;
#189 = ORIENTED_EDGE ( 'NONE', *, *, #88, .T. ) ;
#190 = EDGE_CURVE ( 'NONE', #276, #52, #68, .T. ) ;
#191 = PRODUCT ( '864b', '864b', '', ( #99 ) ) ;
#192 = DIRECTION ( 'NONE',  ( 0.000000000000000000, 0.000000000000000000, 1.000000000000000000 ) ) ;
#193 = PLANE ( 'NONE',  #65 ) ;
#194 = ORIENTED_EDGE ( 'NONE', *, *, #139, .F. ) ;
#195 = DIRECTION ( 'NONE',  ( 0.000000000000000000, 0.000000000000000000, 1.000000000000000000 ) ) ;
#196 = ORGANIZATION ( 'NEURÈENÝ', 'NEURÈENÝ', '' ) ;
#197 = LOCAL_TIME ( 11, 27, 3.000000000000000000, #97 ) ;
#198 = APPROVAL_DATE_TIME ( #127, #209 ) ;
#199 = FACE_OUTER_BOUND ( 'NONE', #287, .T. ) ;
#200 = EDGE_CURVE ( 'NONE', #52, #212, #54, .T. ) ;
#201 = DIRECTION ( 'NONE',  ( 0.000000000000000000, 0.000000000000000000, 1.000000000000000000 ) ) ;
#202 = DIRECTION ( 'NONE',  ( -0.000000000000000000, -0.000000000000000000, -1.000000000000000000 ) ) ;
#203 = DIRECTION ( 'NONE',  ( 1.000000000000000000, 0.000000000000000000, 0.000000000000000000 ) ) ;
#204 = DIRECTION ( 'NONE',  ( 0.000000000000000000, 0.000000000000000000, 1.000000000000000000 ) ) ;
#205 = EDGE_LOOP ( 'NONE', ( #263, #189 ) ) ;
#206 = AXIS2_PLACEMENT_3D ( 'NONE', #72, #186, #48 ) ;
#207 = CALENDAR_DATE ( 2022, 20, 6 ) ;
#208 = CIRCLE ( 'NONE', #283, 7.200000000000001066 ) ;
#209 = APPROVAL ( #83, 'NEURÈENÝ' ) ;
#210 = EDGE_LOOP ( 'NONE', ( #7, #136, #169, #25 ) ) ;
#211 = VECTOR ( 'NONE', #177, 1000.000000000000000 ) ;
#212 = VERTEX_POINT ( 'NONE', #10 ) ;
#213 = SECURITY_CLASSIFICATION_LEVEL ( 'unclassified' ) ;
#214 = ORIENTED_EDGE ( 'NONE', *, *, #139, .T. ) ;
#215 = FACE_OUTER_BOUND ( 'NONE', #101, .T. ) ;
#216 = ORIENTED_EDGE ( 'NONE', *, *, #46, .T. ) ;
#217 = ADVANCED_FACE ( 'NONE', ( #113 ), #245, .T. ) ;
#218 = DIRECTION ( 'NONE',  ( 0.000000000000000000, 0.000000000000000000, 1.000000000000000000 ) ) ;
#219 = DIRECTION ( 'NONE',  ( 1.000000000000000000, 0.000000000000000000, 0.000000000000000000 ) ) ;
#220 = VECTOR ( 'NONE', #125, 1000.000000000000000 ) ;
#221 = CARTESIAN_POINT ( 'NONE',  ( 0.000000000000000000, 0.000000000000000000, 7.000000000000000000 ) ) ;
#222 = CC_DESIGN_PERSON_AND_ORGANIZATION_ASSIGNMENT ( #74, #253, ( #183 ) ) ;
#223 = DIRECTION ( 'NONE',  ( -1.000000000000000000, 1.224646799147358384E-16, 0.000000000000000000 ) ) ;
#224 = APPLICATION_CONTEXT ( 'configuration controlled 3d designs of mechanical parts and assemblies' ) ;
#225 = CARTESIAN_POINT ( 'NONE',  ( 0.000000000000000000, 0.000000000000000000, 207.0000000000000284 ) ) ;
#226 = ADVANCED_FACE ( 'NONE', ( #199 ), #17, .T. ) ;
#227 = CYLINDRICAL_SURFACE ( 'NONE', #206, 7.000000000000000888 ) ;
#228 = VERTEX_POINT ( 'NONE', #243 ) ;
#229 = AXIS2_PLACEMENT_3D ( 'NONE', #221, #240, #91 ) ;
#230 = DATE_AND_TIME ( #137, #70 ) ;
#231 = LOCAL_TIME ( 11, 27, 3.000000000000000000, #288 ) ;
#232 = ORIENTED_EDGE ( 'NONE', *, *, #159, .T. ) ;
#233 = CIRCLE ( 'NONE', #56, 7.000000000000000888 ) ;
#234 = FACE_BOUND ( 'NONE', #187, .T. ) ;
#235 = AXIS2_PLACEMENT_3D ( 'NONE', #64, #195, #14 ) ;
#236 = ADVANCED_FACE ( 'NONE', ( #87 ), #84, .T. ) ;
#237 = VERTEX_POINT ( 'NONE', #178 ) ;
#238 = CARTESIAN_POINT ( 'NONE',  ( -7.000000000000000888, 0.000000000000000000, 207.0000000000000284 ) ) ;
#239 = DIRECTION ( 'NONE',  ( -0.000000000000000000, -0.000000000000000000, -1.000000000000000000 ) ) ;
#240 = DIRECTION ( 'NONE',  ( 0.000000000000000000, 0.000000000000000000, 1.000000000000000000 ) ) ;
#241 = EDGE_CURVE ( 'NONE', #52, #228, #133, .T. ) ;
#242 = DIRECTION ( 'NONE',  ( -0.000000000000000000, -0.000000000000000000, -1.000000000000000000 ) ) ;
#243 = CARTESIAN_POINT ( 'NONE',  ( 7.200000000000001066, 0.000000000000000000, 7.000000000000006217 ) ) ;
#244 = PLANE ( 'NONE',  #38 ) ;
#245 = CYLINDRICAL_SURFACE ( 'NONE', #71, 11.00000000000000000 ) ;
#246 = AXIS2_PLACEMENT_3D ( 'NONE', #123, #164, #256 ) ;
#247 = DATE_TIME_ROLE ( 'creation_date' ) ;
#248 = ORIENTED_EDGE ( 'NONE', *, *, #128, .T. ) ;
#249 = DATE_AND_TIME ( #273, #158 ) ;
#250 = EDGE_LOOP ( 'NONE', ( #282, #259, #2, #19 ) ) ;
#251 = EDGE_CURVE ( 'NONE', #212, #255, #110, .T. ) ;
#252 = COORDINATED_UNIVERSAL_TIME_OFFSET ( 1, 0, .AHEAD. ) ;
#253 = PERSON_AND_ORGANIZATION_ROLE ( 'creator' ) ;
#254 = EDGE_LOOP ( 'NONE', ( #264, #194 ) ) ;
#255 = VERTEX_POINT ( 'NONE', #61 ) ;
#256 = DIRECTION ( 'NONE',  ( 1.000000000000000000, 0.000000000000000000, 0.000000000000000000 ) ) ;
#257 = ADVANCED_FACE ( 'NONE', ( #15 ), #149, .F. ) ;
#258 = AXIS2_PLACEMENT_3D ( 'NONE', #176, #268, #219 ) ;
#259 = ORIENTED_EDGE ( 'NONE', *, *, #251, .T. ) ;
#260 = AXIS2_PLACEMENT_3D ( 'NONE', #286, #124, #129 ) ;
#261 = ORIENTED_EDGE ( 'NONE', *, *, #134, .F. ) ;
#262 = ADVANCED_FACE ( 'NONE', ( #67 ), #244, .T. ) ;
#263 = ORIENTED_EDGE ( 'NONE', *, *, #33, .T. ) ;
#264 = ORIENTED_EDGE ( 'NONE', *, *, #4, .F. ) ;
#265 = CIRCLE ( 'NONE', #299, 11.00000000000000000 ) ;
#266 = CALENDAR_DATE ( 2022, 20, 6 ) ;
#267 = CARTESIAN_POINT ( 'NONE',  ( -7.200000000000001066, 8.817456953860944275E-16, 7.200000000000011724 ) ) ;
#268 = DIRECTION ( 'NONE',  ( 0.000000000000000000, 0.000000000000000000, 1.000000000000000000 ) ) ;
#269 = DIRECTION ( 'NONE',  ( 1.224646799147353207E-16, 1.000000000000000000, -0.000000000000000000 ) ) ;
#270 = VECTOR ( 'NONE', #59, 1000.000000000000000 ) ;
#271 = DIRECTION ( 'NONE',  ( 1.000000000000000000, 0.000000000000000000, -0.000000000000000000 ) ) ;
#272 = CARTESIAN_POINT ( 'NONE',  ( 11.00000000000000000, 1.347111479062088405E-15, 7.000000000000000000 ) ) ;
#273 = CALENDAR_DATE ( 2022, 20, 6 ) ;
#274 = AXIS2_PLACEMENT_3D ( 'NONE', #122, #192, #106 ) ;
#275 = COORDINATED_UNIVERSAL_TIME_OFFSET ( 1, 0, .AHEAD. ) ;
#276 = VERTEX_POINT ( 'NONE', #94 ) ;
#277 = APPROVAL ( #185, 'NEURÈENÝ' ) ;
#278 = CARTESIAN_POINT ( 'NONE',  ( 0.000000000000000000, 0.000000000000000000, 0.000000000000000000 ) ) ;
#279 = APPROVAL_DATE_TIME ( #249, #41 ) ;
#280 = EDGE_LOOP ( 'NONE', ( #32, #104, #75, #27 ) ) ;
#281 = CARTESIAN_POINT ( 'NONE',  ( 0.000000000000000000, 0.000000000000000000, 207.0000000000000284 ) ) ;
#282 = ORIENTED_EDGE ( 'NONE', *, *, #128, .F. ) ;
#283 = AXIS2_PLACEMENT_3D ( 'NONE', #291, #290, #63 ) ;
#284 = LINE ( 'NONE', #81, #173 ) ;
#285 = CIRCLE ( 'NONE', #246, 11.00000000000000000 ) ;
#286 = CARTESIAN_POINT ( 'NONE',  ( 0.000000000000000000, 0.000000000000000000, 7.200000000000011724 ) ) ;
#287 = EDGE_LOOP ( 'NONE', ( #120, #5, #53, #248 ) ) ;
#288 = COORDINATED_UNIVERSAL_TIME_OFFSET ( 1, 0, .AHEAD. ) ;
#289 = DIRECTION ( 'NONE',  ( -1.000000000000000000, 0.000000000000000000, 0.000000000000000000 ) ) ;
#290 = DIRECTION ( 'NONE',  ( -0.000000000000000000, -0.000000000000000000, -1.000000000000000000 ) ) ;
#291 = CARTESIAN_POINT ( 'NONE',  ( 0.000000000000000000, 0.000000000000000000, 7.000000000000000000 ) ) ;
#292 = FACE_OUTER_BOUND ( 'NONE', #250, .T. ) ;
#293 = ADVANCED_BREP_SHAPE_REPRESENTATION ( '864b', ( #34, #306 ), #151 ) ;
#294 = APPROVAL_PERSON_ORGANIZATION ( #170, #209, #62 ) ;
#295 = DIRECTION ( 'NONE',  ( -1.000000000000000000, 0.000000000000000000, 0.000000000000000000 ) ) ;
#296 = PERSON_AND_ORGANIZATION ( #302, #196 ) ;
#297 = DIRECTION ( 'NONE',  ( 0.000000000000000000, 0.000000000000000000, 1.000000000000000000 ) ) ;
#298 = ADVANCED_FACE ( 'NONE', ( #182 ), #227, .T. ) ;
#299 = AXIS2_PLACEMENT_3D ( 'NONE', #154, #218, #179 ) ;
#300 = APPROVAL_PERSON_ORGANIZATION ( #301, #277, #45 ) ;
#301 = PERSON_AND_ORGANIZATION ( #302, #196 ) ;
#302 = PERSON ( 'NEURÈENÝ', 'NEURÈENÝ', 'NEURÈENÝ', ('NEURÈENÝ'), ('NEURÈENÝ'), ('NEURÈENÝ') ) ;
#303 =( NAMED_UNIT ( * ) SI_UNIT ( $, .STERADIAN. ) SOLID_ANGLE_UNIT ( ) );
#304 = PERSON_AND_ORGANIZATION_ROLE ( 'design_supplier' ) ;
#305 = ORIENTED_EDGE ( 'NONE', *, *, #166, .T. ) ;
#306 = AXIS2_PLACEMENT_3D ( 'NONE', #278, #297, #203 ) ;
#307 = CARTESIAN_POINT ( 'NONE',  ( 0.000000000000000000, 0.000000000000000000, 207.0000000000000284 ) ) ;
ENDSEC;
END-ISO-10303-21;
