ISO-10303-21;
HEADER;
FILE_DESCRIPTION (( 'STEP AP203' ),
    '1' );
FILE_NAME ('fcd3.STEP',
    '2022-06-20T10:28:31',
    ( '' ),
    ( '' ),
    'SwSTEP 2.0',
    'SolidWorks 2019',
    '' );
FILE_SCHEMA (( 'CONFIG_CONTROL_DESIGN' ));
ENDSEC;

DATA;
#1 = CARTESIAN_POINT ( 'NONE',  ( 0.000000000000000000, 0.000000000000000000, 101.2000000000000171 ) ) ;
#2 = SECURITY_CLASSIFICATION_LEVEL ( 'unclassified' ) ;
#3 = ORIENTED_EDGE ( 'NONE', *, *, #303, .F. ) ;
#4 = CIRCLE ( 'NONE', #42, 0.6999999999999999556 ) ;
#5 = ORIENTED_EDGE ( 'NONE', *, *, #290, .T. ) ;
#6 = AXIS2_PLACEMENT_3D ( 'NONE', #252, #153, #110 ) ;
#7 = ORIENTED_EDGE ( 'NONE', *, *, #82, .T. ) ;
#8 = DIRECTION ( 'NONE',  ( -1.000000000000000000, 0.000000000000000000, 0.000000000000000000 ) ) ;
#9 = DIRECTION ( 'NONE',  ( -0.000000000000000000, -0.000000000000000000, -1.000000000000000000 ) ) ;
#10 = APPROVAL ( #292, 'NEURÈENÝ' ) ;
#11 = CARTESIAN_POINT ( 'NONE',  ( 0.5000000000000000000, 6.123233995736766036E-17, 101.2000000000000171 ) ) ;
#12 = CIRCLE ( 'NONE', #163, 1.250000000000000000 ) ;
#13 = CARTESIAN_POINT ( 'NONE',  ( -0.5000000000000000000, 0.000000000000000000, 101.2000000000000171 ) ) ;
#14 = EDGE_CURVE ( 'NONE', #259, #263, #114, .T. ) ;
#15 = AXIS2_PLACEMENT_3D ( 'NONE', #231, #73, #23 ) ;
#16 = CARTESIAN_POINT ( 'NONE',  ( 0.6999999999999999556, 0.000000000000000000, 1.199999999999999289 ) ) ;
#17 = CARTESIAN_POINT ( 'NONE',  ( 0.000000000000000000, 0.000000000000000000, 1.199999999999999956 ) ) ;
#18 = LOCAL_TIME ( 12, 28, 31.00000000000000000, #189 ) ;
#19 = EDGE_CURVE ( 'NONE', #152, #117, #172, .T. ) ;
#20 = DIRECTION ( 'NONE',  ( 1.224646799147353207E-16, 1.000000000000000000, -0.000000000000000000 ) ) ;
#21 = CYLINDRICAL_SURFACE ( 'NONE', #197, 0.5000000000000000000 ) ;
#22 = ORIENTED_EDGE ( 'NONE', *, *, #38, .F. ) ;
#23 = DIRECTION ( 'NONE',  ( 1.000000000000000000, 0.000000000000000000, -0.000000000000000000 ) ) ;
#24 = AXIS2_PLACEMENT_3D ( 'NONE', #120, #9, #8 ) ;
#25 = EDGE_LOOP ( 'NONE', ( #3, #254, #7, #256 ) ) ;
#26 = DIRECTION ( 'NONE',  ( 1.000000000000000000, 0.000000000000000000, 0.000000000000000000 ) ) ;
#27 = EDGE_LOOP ( 'NONE', ( #202, #185, #205, #48 ) ) ;
#28 = ORIENTED_EDGE ( 'NONE', *, *, #218, .F. ) ;
#29 = VECTOR ( 'NONE', #39, 1000.000000000000000 ) ;
#30 = ADVANCED_FACE ( 'NONE', ( #90, #130 ), #261, .T. ) ;
#31 = PERSON_AND_ORGANIZATION ( #87, #217 ) ;
#32 = LOCAL_TIME ( 12, 28, 31.00000000000000000, #175 ) ;
#33 = DIRECTION ( 'NONE',  ( 1.000000000000000000, 0.000000000000000000, 0.000000000000000000 ) ) ;
#34 = PERSON_AND_ORGANIZATION_ROLE ( 'design_owner' ) ;
#35 = DIRECTION ( 'NONE',  ( -1.000000000000000000, 0.000000000000000000, 0.000000000000000000 ) ) ;
#36 = EDGE_CURVE ( 'NONE', #164, #134, #107, .T. ) ;
#37 = LINE ( 'NONE', #11, #297 ) ;
#38 = EDGE_CURVE ( 'NONE', #159, #113, #4, .T. ) ;
#39 = DIRECTION ( 'NONE',  ( -0.000000000000000000, -0.000000000000000000, -1.000000000000000000 ) ) ;
#40 = CIRCLE ( 'NONE', #122, 1.250000000000000000 ) ;
#41 = DIRECTION ( 'NONE',  ( -0.000000000000000000, -0.000000000000000000, -1.000000000000000000 ) ) ;
#42 = AXIS2_PLACEMENT_3D ( 'NONE', #222, #41, #55 ) ;
#43 =( NAMED_UNIT ( * ) SI_UNIT ( $, .STERADIAN. ) SOLID_ANGLE_UNIT ( ) );
#44 = ORIENTED_EDGE ( 'NONE', *, *, #19, .F. ) ;
#45 = VECTOR ( 'NONE', #46, 1000.000000000000000 ) ;
#46 = DIRECTION ( 'NONE',  ( -0.000000000000000000, -0.000000000000000000, -1.000000000000000000 ) ) ;
#47 = CC_DESIGN_PERSON_AND_ORGANIZATION_ASSIGNMENT ( #265, #268, ( #144 ) ) ;
#48 = ORIENTED_EDGE ( 'NONE', *, *, #177, .F. ) ;
#49 = AXIS2_PLACEMENT_3D ( 'NONE', #157, #250, #304 ) ;
#50 = SECURITY_CLASSIFICATION ( '', '', #2 ) ;
#51 = EDGE_LOOP ( 'NONE', ( #233, #227, #129, #111 ) ) ;
#52 = EDGE_LOOP ( 'NONE', ( #237, #212 ) ) ;
#53 = CC_DESIGN_PERSON_AND_ORGANIZATION_ASSIGNMENT ( #242, #112, ( #50 ) ) ;
#54 = CARTESIAN_POINT ( 'NONE',  ( 0.000000000000000000, 0.000000000000000000, 0.000000000000000000 ) ) ;
#55 = DIRECTION ( 'NONE',  ( 1.000000000000000000, 0.000000000000000000, 0.000000000000000000 ) ) ;
#56 = APPROVAL_DATE_TIME ( #294, #199 ) ;
#57 = CC_DESIGN_APPROVAL ( #199, ( #144 ) ) ;
#58 = CARTESIAN_POINT ( 'NONE',  ( 0.000000000000000000, 0.000000000000000000, 1.199999999999999956 ) ) ;
#59 = VERTEX_POINT ( 'NONE', #295 ) ;
#60 = DIRECTION ( 'NONE',  ( 0.000000000000000000, 0.000000000000000000, 1.000000000000000000 ) ) ;
#61 = CYLINDRICAL_SURFACE ( 'NONE', #63, 1.250000000000000000 ) ;
#62 = PRODUCT_DEFINITION ( 'NEZNÁMÝ', '', #144, #154 ) ;
#63 = AXIS2_PLACEMENT_3D ( 'NONE', #17, #127, #126 ) ;
#64 = ORIENTED_EDGE ( 'NONE', *, *, #104, .T. ) ;
#65 =( NAMED_UNIT ( * ) PLANE_ANGLE_UNIT ( ) SI_UNIT ( $, .RADIAN. ) );
#66 = EDGE_LOOP ( 'NONE', ( #28, #93, #22, #158 ) ) ;
#67 = CARTESIAN_POINT ( 'NONE',  ( -0.6999999999999999556, 8.572527594031471957E-17, 1.399999999999998579 ) ) ;
#68 = CIRCLE ( 'NONE', #274, 1.250000000000000000 ) ;
#69 = ORIENTED_EDGE ( 'NONE', *, *, #167, .F. ) ;
#70 = DIRECTION ( 'NONE',  ( 0.000000000000000000, 0.000000000000000000, 1.000000000000000000 ) ) ;
#71 = LOCAL_TIME ( 12, 28, 31.00000000000000000, #264 ) ;
#72 = DATE_TIME_ROLE ( 'creation_date' ) ;
#73 = DIRECTION ( 'NONE',  ( 0.000000000000000000, 0.000000000000000000, 1.000000000000000000 ) ) ;
#74 = APPROVAL_ROLE ( '' ) ;
#75 = CARTESIAN_POINT ( 'NONE',  ( 0.6999999999999999556, 0.000000000000000000, 1.399999999999998579 ) ) ;
#76 = PERSON_AND_ORGANIZATION_ROLE ( 'creator' ) ;
#77 = CIRCLE ( 'NONE', #228, 0.5000000000000000000 ) ;
#78 = CARTESIAN_POINT ( 'NONE',  ( -0.5000000000000000000, 0.000000000000000000, 101.2000000000000171 ) ) ;
#79 = CARTESIAN_POINT ( 'NONE',  ( -1.250000000000000000, 0.000000000000000000, 1.199999999999999956 ) ) ;
#80 = CARTESIAN_POINT ( 'NONE',  ( 0.000000000000000000, 0.000000000000000000, 1.399999999999998579 ) ) ;
#81 = CIRCLE ( 'NONE', #6, 1.250000000000000000 ) ;
#82 = EDGE_CURVE ( 'NONE', #164, #159, #281, .T. ) ;
#83 = FACE_OUTER_BOUND ( 'NONE', #66, .T. ) ;
#84 = CC_DESIGN_DATE_AND_TIME_ASSIGNMENT ( #94, #72, ( #62 ) ) ;
#85 = CARTESIAN_POINT ( 'NONE',  ( 1.250000000000000000, 1.530808498934191571E-16, 1.199999999999999956 ) ) ;
#86 =( LENGTH_UNIT ( ) NAMED_UNIT ( * ) SI_UNIT ( .MILLI., .METRE. ) );
#87 = PERSON ( 'NEURÈENÝ', 'NEURÈENÝ', 'NEURÈENÝ', ('NEURÈENÝ'), ('NEURÈENÝ'), ('NEURÈENÝ') ) ;
#88 = ORIENTED_EDGE ( 'NONE', *, *, #173, .T. ) ;
#89 = DIRECTION ( 'NONE',  ( 0.000000000000000000, 0.000000000000000000, 1.000000000000000000 ) ) ;
#90 = FACE_BOUND ( 'NONE', #183, .T. ) ;
#91 = COORDINATED_UNIVERSAL_TIME_OFFSET ( 1, 0, .AHEAD. ) ;
#92 = EDGE_LOOP ( 'NONE', ( #44, #132, #284, #165 ) ) ;
#93 = ORIENTED_EDGE ( 'NONE', *, *, #303, .T. ) ;
#94 = DATE_AND_TIME ( #238, #289 ) ;
#95 = CARTESIAN_POINT ( 'NONE',  ( -0.6999999999999999556, 8.572527594031473190E-17, 1.199999999999999289 ) ) ;
#96 = APPROVAL_STATUS ( 'not_yet_approved' ) ;
#97 = DIRECTION ( 'NONE',  ( -0.000000000000000000, -0.000000000000000000, -1.000000000000000000 ) ) ;
#98 = DATE_TIME_ROLE ( 'classification_date' ) ;
#99 = EDGE_CURVE ( 'NONE', #117, #134, #166, .T. ) ;
#100 = AXIS2_PLACEMENT_3D ( 'NONE', #67, #20, #203 ) ;
#101 = DIRECTION ( 'NONE',  ( 0.000000000000000000, 0.000000000000000000, -1.000000000000000000 ) ) ;
#102 = FACE_OUTER_BOUND ( 'NONE', #52, .T. ) ;
#103 = CARTESIAN_POINT ( 'NONE',  ( 0.5000000000000000000, 6.123233995736766036E-17, 1.399999999999998579 ) ) ;
#104 = EDGE_CURVE ( 'NONE', #259, #235, #68, .T. ) ;
#105 = CC_DESIGN_APPROVAL ( #10, ( #62 ) ) ;
#106 = APPROVAL_PERSON_ORGANIZATION ( #116, #10, #74 ) ;
#107 = CIRCLE ( 'NONE', #191, 0.5000000000000000000 ) ;
#108 = EDGE_CURVE ( 'NONE', #117, #152, #77, .T. ) ;
#109 = EDGE_LOOP ( 'NONE', ( #69, #209, #188, #187 ) ) ;
#110 = DIRECTION ( 'NONE',  ( 1.000000000000000000, 0.000000000000000000, 0.000000000000000000 ) ) ;
#111 = ORIENTED_EDGE ( 'NONE', *, *, #224, .T. ) ;
#112 = PERSON_AND_ORGANIZATION_ROLE ( 'classification_officer' ) ;
#113 = VERTEX_POINT ( 'NONE', #95 ) ;
#114 = LINE ( 'NONE', #85, #45 ) ;
#115 = ADVANCED_FACE ( 'NONE', ( #299 ), #241, .T. ) ;
#116 = PERSON_AND_ORGANIZATION ( #87, #217 ) ;
#117 = VERTEX_POINT ( 'NONE', #78 ) ;
#118 = CARTESIAN_POINT ( 'NONE',  ( 0.000000000000000000, 0.000000000000000000, 1.199999999999999956 ) ) ;
#119 = CC_DESIGN_PERSON_AND_ORGANIZATION_ASSIGNMENT ( #31, #34, ( #169 ) ) ;
#120 = CARTESIAN_POINT ( 'NONE',  ( 0.000000000000000000, 0.000000000000000000, 101.2000000000000171 ) ) ;
#121 = MANIFOLD_SOLID_BREP ( 'Zaoblit1', #200 ) ;
#122 = AXIS2_PLACEMENT_3D ( 'NONE', #58, #148, #247 ) ;
#123 = CALENDAR_DATE ( 2022, 20, 6 ) ;
#124 = DIRECTION ( 'NONE',  ( 0.000000000000000000, 0.000000000000000000, 1.000000000000000000 ) ) ;
#125 = DIRECTION ( 'NONE',  ( 1.000000000000000000, 0.000000000000000000, 0.000000000000000000 ) ) ;
#126 = DIRECTION ( 'NONE',  ( -1.000000000000000000, 0.000000000000000000, 0.000000000000000000 ) ) ;
#127 = DIRECTION ( 'NONE',  ( -0.000000000000000000, -0.000000000000000000, -1.000000000000000000 ) ) ;
#128 = TOROIDAL_SURFACE ( 'NONE', #269, 0.6999999999999999556, 0.2000000000000000111 ) ;
#129 = ORIENTED_EDGE ( 'NONE', *, *, #177, .T. ) ;
#130 = FACE_OUTER_BOUND ( 'NONE', #307, .T. ) ;
#131 = DIRECTION ( 'NONE',  ( 1.000000000000000000, 0.000000000000000000, 0.000000000000000000 ) ) ;
#132 = ORIENTED_EDGE ( 'NONE', *, *, #167, .T. ) ;
#133 = ADVANCED_FACE ( 'NONE', ( #216 ), #271, .T. ) ;
#134 = VERTEX_POINT ( 'NONE', #193 ) ;
#135 = PERSON_AND_ORGANIZATION ( #87, #217 ) ;
#136 = ORIENTED_EDGE ( 'NONE', *, *, #251, .F. ) ;
#137 = PERSON_AND_ORGANIZATION ( #87, #217 ) ;
#138 = DIRECTION ( 'NONE',  ( 0.000000000000000000, -1.000000000000000000, 0.000000000000000000 ) ) ;
#139 = PERSON_AND_ORGANIZATION ( #87, #217 ) ;
#140 = CARTESIAN_POINT ( 'NONE',  ( 0.000000000000000000, 0.000000000000000000, 101.2000000000000171 ) ) ;
#141 = PERSON_AND_ORGANIZATION_ROLE ( 'design_supplier' ) ;
#142 = AXIS2_PLACEMENT_3D ( 'NONE', #118, #97, #35 ) ;
#143 = PRODUCT_DEFINITION_SHAPE ( 'NONE', 'NONE',  #62 ) ;
#144 = PRODUCT_DEFINITION_FORMATION_WITH_SPECIFIED_SOURCE ( 'LIBOVOLNÝ', '', #169, .NOT_KNOWN. ) ;
#145 = APPROVAL_STATUS ( 'not_yet_approved' ) ;
#146 = DIRECTION ( 'NONE',  ( 0.000000000000000000, 0.000000000000000000, 1.000000000000000000 ) ) ;
#147 = SHAPE_DEFINITION_REPRESENTATION ( #143, #215 ) ;
#148 = DIRECTION ( 'NONE',  ( 0.000000000000000000, 0.000000000000000000, 1.000000000000000000 ) ) ;
#149 = DATE_AND_TIME ( #275, #32 ) ;
#150 = DIRECTION ( 'NONE',  ( 1.000000000000000000, 0.000000000000000000, 0.000000000000000000 ) ) ;
#151 = CC_DESIGN_SECURITY_CLASSIFICATION ( #50, ( #144 ) ) ;
#152 = VERTEX_POINT ( 'NONE', #194 ) ;
#153 = DIRECTION ( 'NONE',  ( 0.000000000000000000, 0.000000000000000000, 1.000000000000000000 ) ) ;
#154 = DESIGN_CONTEXT ( 'detailed design', #234, 'design' ) ;
#155 = CARTESIAN_POINT ( 'NONE',  ( 0.000000000000000000, 0.000000000000000000, 101.2000000000000171 ) ) ;
#156 = PRODUCT_RELATED_PRODUCT_CATEGORY ( 'detail', '', ( #169 ) ) ;
#157 = CARTESIAN_POINT ( 'NONE',  ( 0.000000000000000000, 0.000000000000000000, 1.199999999999999956 ) ) ;
#158 = ORIENTED_EDGE ( 'NONE', *, *, #82, .F. ) ;
#159 = VERTEX_POINT ( 'NONE', #16 ) ;
#160 = ORIENTED_EDGE ( 'NONE', *, *, #224, .F. ) ;
#161 = MECHANICAL_CONTEXT ( 'NONE', #171, 'mechanical' ) ;
#162 = ADVANCED_FACE ( 'NONE', ( #102 ), #266, .T. ) ;
#163 = AXIS2_PLACEMENT_3D ( 'NONE', #276, #60, #150 ) ;
#164 = VERTEX_POINT ( 'NONE', #103 ) ;
#165 = ORIENTED_EDGE ( 'NONE', *, *, #99, .F. ) ;
#166 = LINE ( 'NONE', #13, #180 ) ;
#167 = EDGE_CURVE ( 'NONE', #152, #164, #37, .T. ) ;
#168 = DIRECTION ( 'NONE',  ( 1.000000000000000000, 0.000000000000000000, -0.000000000000000000 ) ) ;
#169 = PRODUCT ( 'fcd3', 'fcd3', '', ( #161 ) ) ;
#170 = CALENDAR_DATE ( 2022, 20, 6 ) ;
#171 = APPLICATION_CONTEXT ( 'configuration controlled 3d designs of mechanical parts and assemblies' ) ;
#172 = CIRCLE ( 'NONE', #195, 0.5000000000000000000 ) ;
#173 = EDGE_CURVE ( 'NONE', #235, #259, #40, .T. ) ;
#174 = DIRECTION ( 'NONE',  ( 0.000000000000000000, 0.000000000000000000, 1.000000000000000000 ) ) ;
#175 = COORDINATED_UNIVERSAL_TIME_OFFSET ( 1, 0, .AHEAD. ) ;
#176 = DIRECTION ( 'NONE',  ( 1.000000000000000000, 0.000000000000000000, 0.000000000000000000 ) ) ;
#177 = EDGE_CURVE ( 'NONE', #235, #59, #302, .T. ) ;
#178 = CIRCLE ( 'NONE', #100, 0.1999999999999999833 ) ;
#179 = CARTESIAN_POINT ( 'NONE',  ( 1.250000000000000000, 1.530808498934191571E-16, 0.000000000000000000 ) ) ;
#180 = VECTOR ( 'NONE', #214, 1000.000000000000000 ) ;
#181 = EDGE_LOOP ( 'NONE', ( #160, #136 ) ) ;
#182 = DIRECTION ( 'NONE',  ( -0.000000000000000000, -0.000000000000000000, -1.000000000000000000 ) ) ;
#183 = EDGE_LOOP ( 'NONE', ( #207, #5 ) ) ;
#184 = APPROVAL ( #145, 'NEURÈENÝ' ) ;
#185 = ORIENTED_EDGE ( 'NONE', *, *, #14, .T. ) ;
#186 = CALENDAR_DATE ( 2022, 20, 6 ) ;
#187 = ORIENTED_EDGE ( 'NONE', *, *, #218, .T. ) ;
#188 = ORIENTED_EDGE ( 'NONE', *, *, #99, .T. ) ;
#189 = COORDINATED_UNIVERSAL_TIME_OFFSET ( 1, 0, .AHEAD. ) ;
#190 = CARTESIAN_POINT ( 'NONE',  ( 0.000000000000000000, 0.000000000000000000, 101.2000000000000171 ) ) ;
#191 = AXIS2_PLACEMENT_3D ( 'NONE', #288, #70, #125 ) ;
#192 = AXIS2_PLACEMENT_3D ( 'NONE', #293, #124, #221 ) ;
#193 = CARTESIAN_POINT ( 'NONE',  ( -0.5000000000000000000, 0.000000000000000000, 1.399999999999998579 ) ) ;
#194 = CARTESIAN_POINT ( 'NONE',  ( 0.5000000000000000000, 6.123233995736766036E-17, 101.2000000000000171 ) ) ;
#195 = AXIS2_PLACEMENT_3D ( 'NONE', #1, #291, #286 ) ;
#196 = APPLICATION_PROTOCOL_DEFINITION ( 'international standard', 'config_control_design', 1994, #171 ) ;
#197 = AXIS2_PLACEMENT_3D ( 'NONE', #155, #182, #225 ) ;
#198 = DIRECTION ( 'NONE',  ( 0.000000000000000000, 0.000000000000000000, 1.000000000000000000 ) ) ;
#199 = APPROVAL ( #96, 'NEURÈENÝ' ) ;
#200 = CLOSED_SHELL ( 'NONE', ( #270, #296, #267, #115, #30, #243, #133, #162, #283 ) ) ;
#201 = FACE_OUTER_BOUND ( 'NONE', #25, .T. ) ;
#202 = ORIENTED_EDGE ( 'NONE', *, *, #104, .F. ) ;
#203 = DIRECTION ( 'NONE',  ( -1.000000000000000000, 1.224646799147352714E-16, 0.000000000000000000 ) ) ;
#204 = TOROIDAL_SURFACE ( 'NONE', #239, 0.6999999999999999556, 0.2000000000000000111 ) ;
#205 = ORIENTED_EDGE ( 'NONE', *, *, #251, .T. ) ;
#206 = APPROVAL_DATE_TIME ( #213, #10 ) ;
#207 = ORIENTED_EDGE ( 'NONE', *, *, #38, .T. ) ;
#208 = APPLICATION_PROTOCOL_DEFINITION ( 'international standard', 'config_control_design', 1994, #234 ) ;
#209 = ORIENTED_EDGE ( 'NONE', *, *, #108, .F. ) ;
#210 = CC_DESIGN_PERSON_AND_ORGANIZATION_ASSIGNMENT ( #139, #141, ( #144 ) ) ;
#211 = LOCAL_TIME ( 12, 28, 31.00000000000000000, #300 ) ;
#212 = ORIENTED_EDGE ( 'NONE', *, *, #19, .T. ) ;
#213 = DATE_AND_TIME ( #186, #71 ) ;
#214 = DIRECTION ( 'NONE',  ( -0.000000000000000000, -0.000000000000000000, -1.000000000000000000 ) ) ;
#215 = ADVANCED_BREP_SHAPE_REPRESENTATION ( 'fcd3', ( #121, #260 ), #219 ) ;
#216 = FACE_OUTER_BOUND ( 'NONE', #109, .T. ) ;
#217 = ORGANIZATION ( 'NEURÈENÝ', 'NEURÈENÝ', '' ) ;
#218 = EDGE_CURVE ( 'NONE', #134, #164, #244, .T. ) ;
#219 =( GEOMETRIC_REPRESENTATION_CONTEXT ( 3 ) GLOBAL_UNCERTAINTY_ASSIGNED_CONTEXT ( ( #279 ) ) GLOBAL_UNIT_ASSIGNED_CONTEXT ( ( #86, #65, #43 ) ) REPRESENTATION_CONTEXT ( 'NONE', 'WORKASPACE' ) );
#220 = PERSON_AND_ORGANIZATION ( #87, #217 ) ;
#221 = DIRECTION ( 'NONE',  ( 1.000000000000000000, 0.000000000000000000, 0.000000000000000000 ) ) ;
#222 = CARTESIAN_POINT ( 'NONE',  ( 0.000000000000000000, 0.000000000000000000, 1.199999999999999956 ) ) ;
#223 = DIRECTION ( 'NONE',  ( 1.000000000000000000, 0.000000000000000000, 0.000000000000000000 ) ) ;
#224 = EDGE_CURVE ( 'NONE', #59, #263, #12, .T. ) ;
#225 = DIRECTION ( 'NONE',  ( -1.000000000000000000, 0.000000000000000000, 0.000000000000000000 ) ) ;
#226 = FACE_OUTER_BOUND ( 'NONE', #181, .T. ) ;
#227 = ORIENTED_EDGE ( 'NONE', *, *, #173, .F. ) ;
#228 = AXIS2_PLACEMENT_3D ( 'NONE', #140, #174, #33 ) ;
#229 = PLANE ( 'NONE',  #232 ) ;
#230 = CC_DESIGN_PERSON_AND_ORGANIZATION_ASSIGNMENT ( #137, #76, ( #62 ) ) ;
#231 = CARTESIAN_POINT ( 'NONE',  ( 0.000000000000000000, 0.000000000000000000, 1.199999999999999956 ) ) ;
#232 = AXIS2_PLACEMENT_3D ( 'NONE', #282, #278, #306 ) ;
#233 = ORIENTED_EDGE ( 'NONE', *, *, #14, .F. ) ;
#234 = APPLICATION_CONTEXT ( 'configuration controlled 3d designs of mechanical parts and assemblies' ) ;
#235 = VERTEX_POINT ( 'NONE', #249 ) ;
#236 = APPROVAL_ROLE ( '' ) ;
#237 = ORIENTED_EDGE ( 'NONE', *, *, #108, .T. ) ;
#238 = CALENDAR_DATE ( 2022, 20, 6 ) ;
#239 = AXIS2_PLACEMENT_3D ( 'NONE', #80, #255, #131 ) ;
#240 = CARTESIAN_POINT ( 'NONE',  ( 0.000000000000000000, 0.000000000000000000, 1.199999999999999956 ) ) ;
#241 = CYLINDRICAL_SURFACE ( 'NONE', #142, 1.250000000000000000 ) ;
#242 = PERSON_AND_ORGANIZATION ( #87, #217 ) ;
#243 = ADVANCED_FACE ( 'NONE', ( #226 ), #229, .F. ) ;
#244 = CIRCLE ( 'NONE', #192, 0.5000000000000000000 ) ;
#245 = APPROVAL_ROLE ( '' ) ;
#246 = DIRECTION ( 'NONE',  ( 0.000000000000000000, 0.000000000000000000, 1.000000000000000000 ) ) ;
#247 = DIRECTION ( 'NONE',  ( 1.000000000000000000, 0.000000000000000000, 0.000000000000000000 ) ) ;
#248 = CC_DESIGN_APPROVAL ( #184, ( #50 ) ) ;
#249 = CARTESIAN_POINT ( 'NONE',  ( -1.250000000000000000, 0.000000000000000000, 1.199999999999999956 ) ) ;
#250 = DIRECTION ( 'NONE',  ( -0.000000000000000000, -0.000000000000000000, -1.000000000000000000 ) ) ;
#251 = EDGE_CURVE ( 'NONE', #263, #59, #81, .T. ) ;
#252 = CARTESIAN_POINT ( 'NONE',  ( 0.000000000000000000, 0.000000000000000000, 0.000000000000000000 ) ) ;
#253 = APPROVAL_PERSON_ORGANIZATION ( #135, #199, #236 ) ;
#254 = ORIENTED_EDGE ( 'NONE', *, *, #36, .F. ) ;
#255 = DIRECTION ( 'NONE',  ( 0.000000000000000000, 0.000000000000000000, 1.000000000000000000 ) ) ;
#256 = ORIENTED_EDGE ( 'NONE', *, *, #290, .F. ) ;
#257 = CARTESIAN_POINT ( 'NONE',  ( 0.000000000000000000, 0.000000000000000000, 1.399999999999998579 ) ) ;
#258 = AXIS2_PLACEMENT_3D ( 'NONE', #190, #246, #168 ) ;
#259 = VERTEX_POINT ( 'NONE', #305 ) ;
#260 = AXIS2_PLACEMENT_3D ( 'NONE', #54, #89, #26 ) ;
#261 = PLANE ( 'NONE',  #15 ) ;
#262 = CC_DESIGN_DATE_AND_TIME_ASSIGNMENT ( #301, #98, ( #50 ) ) ;
#263 = VERTEX_POINT ( 'NONE', #179 ) ;
#264 = COORDINATED_UNIVERSAL_TIME_OFFSET ( 1, 0, .AHEAD. ) ;
#265 = PERSON_AND_ORGANIZATION ( #87, #217 ) ;
#266 = PLANE ( 'NONE',  #258 ) ;
#267 = ADVANCED_FACE ( 'NONE', ( #280 ), #61, .T. ) ;
#268 = PERSON_AND_ORGANIZATION_ROLE ( 'creator' ) ;
#269 = AXIS2_PLACEMENT_3D ( 'NONE', #257, #198, #223 ) ;
#270 = ADVANCED_FACE ( 'NONE', ( #83 ), #204, .F. ) ;
#271 = CYLINDRICAL_SURFACE ( 'NONE', #24, 0.5000000000000000000 ) ;
#272 = APPROVAL_DATE_TIME ( #149, #184 ) ;
#273 = DIRECTION ( 'NONE',  ( -0.000000000000000000, -0.000000000000000000, -1.000000000000000000 ) ) ;
#274 = AXIS2_PLACEMENT_3D ( 'NONE', #240, #146, #176 ) ;
#275 = CALENDAR_DATE ( 2022, 20, 6 ) ;
#276 = CARTESIAN_POINT ( 'NONE',  ( 0.000000000000000000, 0.000000000000000000, 0.000000000000000000 ) ) ;
#277 = CIRCLE ( 'NONE', #49, 0.6999999999999999556 ) ;
#278 = DIRECTION ( 'NONE',  ( 0.000000000000000000, 0.000000000000000000, 1.000000000000000000 ) ) ;
#279 = UNCERTAINTY_MEASURE_WITH_UNIT (LENGTH_MEASURE( 1.000000000000000082E-05 ), #86, 'distance_accuracy_value', 'NONE');
#280 = FACE_OUTER_BOUND ( 'NONE', #27, .T. ) ;
#281 = CIRCLE ( 'NONE', #287, 0.2000000000000000944 ) ;
#282 = CARTESIAN_POINT ( 'NONE',  ( 0.000000000000000000, 0.000000000000000000, 0.000000000000000000 ) ) ;
#283 = ADVANCED_FACE ( 'NONE', ( #201 ), #128, .F. ) ;
#284 = ORIENTED_EDGE ( 'NONE', *, *, #36, .T. ) ;
#285 = FACE_OUTER_BOUND ( 'NONE', #92, .T. ) ;
#286 = DIRECTION ( 'NONE',  ( 1.000000000000000000, 0.000000000000000000, 0.000000000000000000 ) ) ;
#287 = AXIS2_PLACEMENT_3D ( 'NONE', #75, #138, #101 ) ;
#288 = CARTESIAN_POINT ( 'NONE',  ( 0.000000000000000000, 0.000000000000000000, 1.399999999999998579 ) ) ;
#289 = LOCAL_TIME ( 12, 28, 31.00000000000000000, #91 ) ;
#290 = EDGE_CURVE ( 'NONE', #113, #159, #277, .T. ) ;
#291 = DIRECTION ( 'NONE',  ( 0.000000000000000000, 0.000000000000000000, 1.000000000000000000 ) ) ;
#292 = APPROVAL_STATUS ( 'not_yet_approved' ) ;
#293 = CARTESIAN_POINT ( 'NONE',  ( 0.000000000000000000, 0.000000000000000000, 1.399999999999998579 ) ) ;
#294 = DATE_AND_TIME ( #170, #18 ) ;
#295 = CARTESIAN_POINT ( 'NONE',  ( -1.250000000000000000, 0.000000000000000000, 0.000000000000000000 ) ) ;
#296 = ADVANCED_FACE ( 'NONE', ( #285 ), #21, .T. ) ;
#297 = VECTOR ( 'NONE', #273, 1000.000000000000000 ) ;
#298 = APPROVAL_PERSON_ORGANIZATION ( #220, #184, #245 ) ;
#299 = FACE_OUTER_BOUND ( 'NONE', #51, .T. ) ;
#300 = COORDINATED_UNIVERSAL_TIME_OFFSET ( 1, 0, .AHEAD. ) ;
#301 = DATE_AND_TIME ( #123, #211 ) ;
#302 = LINE ( 'NONE', #79, #29 ) ;
#303 = EDGE_CURVE ( 'NONE', #134, #113, #178, .T. ) ;
#304 = DIRECTION ( 'NONE',  ( 1.000000000000000000, 0.000000000000000000, 0.000000000000000000 ) ) ;
#305 = CARTESIAN_POINT ( 'NONE',  ( 1.250000000000000000, 1.530808498934191571E-16, 1.199999999999999956 ) ) ;
#306 = DIRECTION ( 'NONE',  ( 1.000000000000000000, 0.000000000000000000, -0.000000000000000000 ) ) ;
#307 = EDGE_LOOP ( 'NONE', ( #88, #64 ) ) ;
ENDSEC;
END-ISO-10303-21;
