ISO-10303-21;
HEADER;
FILE_DESCRIPTION (( 'STEP AP203' ),
    '1' );
FILE_NAME ('d71f.STEP',
    '2022-06-20T10:08:42',
    ( '' ),
    ( '' ),
    'SwSTEP 2.0',
    'SolidWorks 2019',
    '' );
FILE_SCHEMA (( 'CONFIG_CONTROL_DESIGN' ));
ENDSEC;

DATA;
#1 = PLANE ( 'NONE',  #207 ) ;
#2 = AXIS2_PLACEMENT_3D ( 'NONE', #59, #126, #4 ) ;
#3 = DIRECTION ( 'NONE',  ( 1.000000000000000000, 0.000000000000000000, 0.000000000000000000 ) ) ;
#4 = DIRECTION ( 'NONE',  ( -1.000000000000000000, 1.224646799147353207E-16, 0.000000000000000000 ) ) ;
#5 = DIRECTION ( 'NONE',  ( 1.000000000000000000, 0.000000000000000000, -0.000000000000000000 ) ) ;
#6 = LOCAL_TIME ( 12, 8, 42.00000000000000000, #15 ) ;
#7 = DIRECTION ( 'NONE',  ( 0.000000000000000000, 0.000000000000000000, 1.000000000000000000 ) ) ;
#8 = EDGE_CURVE ( 'NONE', #90, #209, #119, .T. ) ;
#9 = EDGE_CURVE ( 'NONE', #55, #209, #162, .T. ) ;
#10 = PERSON_AND_ORGANIZATION ( #38, #136 ) ;
#11 = APPLICATION_CONTEXT ( 'configuration controlled 3d designs of mechanical parts and assemblies' ) ;
#12 = COORDINATED_UNIVERSAL_TIME_OFFSET ( 1, 0, .AHEAD. ) ;
#13 = ORIENTED_EDGE ( 'NONE', *, *, #8, .T. ) ;
#14 = AXIS2_PLACEMENT_3D ( 'NONE', #77, #76, #53 ) ;
#15 = COORDINATED_UNIVERSAL_TIME_OFFSET ( 1, 0, .AHEAD. ) ;
#16 = CIRCLE ( 'NONE', #264, 4.000000000000000000 ) ;
#17 = CC_DESIGN_APPROVAL ( #52, ( #214 ) ) ;
#18 = SHAPE_DEFINITION_REPRESENTATION ( #142, #303 ) ;
#19 = APPROVAL_ROLE ( '' ) ;
#20 = ORIENTED_EDGE ( 'NONE', *, *, #203, .T. ) ;
#21 = EDGE_LOOP ( 'NONE', ( #299, #249, #232, #24 ) ) ;
#22 = AXIS2_PLACEMENT_3D ( 'NONE', #234, #190, #284 ) ;
#23 = LOCAL_TIME ( 12, 8, 42.00000000000000000, #226 ) ;
#24 = ORIENTED_EDGE ( 'NONE', *, *, #95, .T. ) ;
#25 = CARTESIAN_POINT ( 'NONE',  ( 0.000000000000000000, 0.000000000000000000, 3.199999999999980638 ) ) ;
#26 = CARTESIAN_POINT ( 'NONE',  ( 0.000000000000000000, 0.000000000000000000, 0.000000000000000000 ) ) ;
#27 = AXIS2_PLACEMENT_3D ( 'NONE', #94, #75, #74 ) ;
#28 = ORIENTED_EDGE ( 'NONE', *, *, #72, .F. ) ;
#29 = FACE_OUTER_BOUND ( 'NONE', #97, .T. ) ;
#30 = DIRECTION ( 'NONE',  ( -0.000000000000000000, -0.000000000000000000, -1.000000000000000000 ) ) ;
#31 = EDGE_CURVE ( 'NONE', #296, #55, #282, .T. ) ;
#32 = EDGE_CURVE ( 'NONE', #90, #296, #210, .T. ) ;
#33 = CC_DESIGN_SECURITY_CLASSIFICATION ( #145, ( #214 ) ) ;
#34 = DIRECTION ( 'NONE',  ( 1.000000000000000000, 0.000000000000000000, 0.000000000000000000 ) ) ;
#35 = FACE_OUTER_BOUND ( 'NONE', #216, .T. ) ;
#36 = CARTESIAN_POINT ( 'NONE',  ( 4.000000000000000000, 4.898587196589412829E-16, 0.000000000000000000 ) ) ;
#37 = EDGE_CURVE ( 'NONE', #246, #191, #84, .T. ) ;
#38 = PERSON ( 'NEURÈENÝ', 'NEURÈENÝ', 'NEURÈENÝ', ('NEURÈENÝ'), ('NEURÈENÝ'), ('NEURÈENÝ') ) ;
#39 = VECTOR ( 'NONE', #257, 1000.000000000000000 ) ;
#40 = APPROVAL_PERSON_ORGANIZATION ( #92, #52, #248 ) ;
#41 = DATE_AND_TIME ( #87, #229 ) ;
#42 = MECHANICAL_CONTEXT ( 'NONE', #301, 'mechanical' ) ;
#43 = ORIENTED_EDGE ( 'NONE', *, *, #31, .T. ) ;
#44 = APPROVAL_ROLE ( '' ) ;
#45 = APPROVAL ( #135, 'NEURÈENÝ' ) ;
#46 = AXIS2_PLACEMENT_3D ( 'NONE', #290, #83, #3 ) ;
#47 = DATE_AND_TIME ( #161, #6 ) ;
#48 = CC_DESIGN_APPROVAL ( #45, ( #147 ) ) ;
#49 = SECURITY_CLASSIFICATION_LEVEL ( 'unclassified' ) ;
#50 = ORIENTED_EDGE ( 'NONE', *, *, #115, .T. ) ;
#51 = ORIENTED_EDGE ( 'NONE', *, *, #151, .F. ) ;
#52 = APPROVAL ( #188, 'NEURÈENÝ' ) ;
#53 = DIRECTION ( 'NONE',  ( 1.000000000000000000, 0.000000000000000000, 0.000000000000000000 ) ) ;
#54 = DIRECTION ( 'NONE',  ( 0.000000000000000000, -1.000000000000000000, 0.000000000000000000 ) ) ;
#55 = VERTEX_POINT ( 'NONE', #123 ) ;
#56 = ORIENTED_EDGE ( 'NONE', *, *, #185, .T. ) ;
#57 = AXIS2_PLACEMENT_3D ( 'NONE', #26, #122, #155 ) ;
#58 = CARTESIAN_POINT ( 'NONE',  ( 2.200000000000000178, 0.000000000000000000, 3.199999999999980638 ) ) ;
#59 = CARTESIAN_POINT ( 'NONE',  ( -2.200000000000000178, 2.694222958124177006E-16, 3.199999999999980638 ) ) ;
#60 = CC_DESIGN_DATE_AND_TIME_ASSIGNMENT ( #271, #159, ( #145 ) ) ;
#61 = DIRECTION ( 'NONE',  ( 1.000000000000000000, 0.000000000000000000, 0.000000000000000000 ) ) ;
#62 = CIRCLE ( 'NONE', #78, 0.2000000000000000944 ) ;
#63 = LINE ( 'NONE', #131, #152 ) ;
#64 = FACE_OUTER_BOUND ( 'NONE', #143, .T. ) ;
#65 = FACE_OUTER_BOUND ( 'NONE', #134, .T. ) ;
#66 = AXIS2_PLACEMENT_3D ( 'NONE', #221, #7, #106 ) ;
#67 = DIRECTION ( 'NONE',  ( 1.000000000000000000, 0.000000000000000000, 0.000000000000000000 ) ) ;
#68 = ORIENTED_EDGE ( 'NONE', *, *, #72, .T. ) ;
#69 = PERSON_AND_ORGANIZATION ( #38, #136 ) ;
#70 = CIRCLE ( 'NONE', #193, 2.000000000000000000 ) ;
#71 = EDGE_LOOP ( 'NONE', ( #50, #274 ) ) ;
#72 = EDGE_CURVE ( 'NONE', #209, #194, #62, .T. ) ;
#73 = EDGE_LOOP ( 'NONE', ( #169, #258, #43, #206 ) ) ;
#74 = DIRECTION ( 'NONE',  ( 1.000000000000000000, 0.000000000000000000, 0.000000000000000000 ) ) ;
#75 = DIRECTION ( 'NONE',  ( 0.000000000000000000, 0.000000000000000000, 1.000000000000000000 ) ) ;
#76 = DIRECTION ( 'NONE',  ( 0.000000000000000000, 0.000000000000000000, 1.000000000000000000 ) ) ;
#77 = CARTESIAN_POINT ( 'NONE',  ( 0.000000000000000000, 0.000000000000000000, 3.199999999999980638 ) ) ;
#78 = AXIS2_PLACEMENT_3D ( 'NONE', #58, #54, #100 ) ;
#79 = APPROVAL_PERSON_ORGANIZATION ( #69, #293, #44 ) ;
#80 = ADVANCED_FACE ( 'NONE', ( #167 ), #149, .T. ) ;
#81 = CYLINDRICAL_SURFACE ( 'NONE', #112, 2.000000000000000000 ) ;
#82 = DIRECTION ( 'NONE',  ( -0.000000000000000000, -0.000000000000000000, -1.000000000000000000 ) ) ;
#83 = DIRECTION ( 'NONE',  ( 0.000000000000000000, 0.000000000000000000, 1.000000000000000000 ) ) ;
#84 = CIRCLE ( 'NONE', #27, 4.000000000000000000 ) ;
#85 = CARTESIAN_POINT ( 'NONE',  ( 0.000000000000000000, 0.000000000000000000, 3.000000000000000000 ) ) ;
#86 = EDGE_CURVE ( 'NONE', #209, #55, #177, .T. ) ;
#87 = CALENDAR_DATE ( 2022, 20, 6 ) ;
#88 =( NAMED_UNIT ( * ) PLANE_ANGLE_UNIT ( ) SI_UNIT ( $, .RADIAN. ) );
#89 = DATE_AND_TIME ( #110, #98 ) ;
#90 = VERTEX_POINT ( 'NONE', #170 ) ;
#91 = ADVANCED_FACE ( 'NONE', ( #236 ), #213, .F. ) ;
#92 = PERSON_AND_ORGANIZATION ( #38, #136 ) ;
#93 = VERTEX_POINT ( 'NONE', #237 ) ;
#94 = CARTESIAN_POINT ( 'NONE',  ( 0.000000000000000000, 0.000000000000000000, 3.000000000000000000 ) ) ;
#95 = EDGE_CURVE ( 'NONE', #93, #302, #192, .T. ) ;
#96 = CIRCLE ( 'NONE', #2, 0.2000000000000000944 ) ;
#97 = EDGE_LOOP ( 'NONE', ( #270, #13, #233, #272 ) ) ;
#98 = LOCAL_TIME ( 12, 8, 42.00000000000000000, #295 ) ;
#99 = CARTESIAN_POINT ( 'NONE',  ( 0.000000000000000000, 0.000000000000000000, 3.000000000000000000 ) ) ;
#100 = DIRECTION ( 'NONE',  ( 0.000000000000000000, 0.000000000000000000, -1.000000000000000000 ) ) ;
#101 = DIRECTION ( 'NONE',  ( -1.000000000000000000, 0.000000000000000000, 0.000000000000000000 ) ) ;
#102 = AXIS2_PLACEMENT_3D ( 'NONE', #222, #113, #67 ) ;
#103 = DIRECTION ( 'NONE',  ( 0.000000000000000000, 0.000000000000000000, 1.000000000000000000 ) ) ;
#104 = CARTESIAN_POINT ( 'NONE',  ( 0.000000000000000000, 0.000000000000000000, 1002.999999999999886 ) ) ;
#105 = DIRECTION ( 'NONE',  ( 1.000000000000000000, 0.000000000000000000, 0.000000000000000000 ) ) ;
#106 = DIRECTION ( 'NONE',  ( 1.000000000000000000, 0.000000000000000000, 0.000000000000000000 ) ) ;
#107 = PERSON_AND_ORGANIZATION_ROLE ( 'design_supplier' ) ;
#108 = ADVANCED_FACE ( 'NONE', ( #238, #306 ), #211, .T. ) ;
#109 = CC_DESIGN_PERSON_AND_ORGANIZATION_ASSIGNMENT ( #244, #160, ( #286 ) ) ;
#110 = CALENDAR_DATE ( 2022, 20, 6 ) ;
#111 = ORIENTED_EDGE ( 'NONE', *, *, #32, .T. ) ;
#112 = AXIS2_PLACEMENT_3D ( 'NONE', #292, #157, #218 ) ;
#113 = DIRECTION ( 'NONE',  ( 0.000000000000000000, 0.000000000000000000, 1.000000000000000000 ) ) ;
#114 = DATE_TIME_ROLE ( 'creation_date' ) ;
#115 = EDGE_CURVE ( 'NONE', #191, #246, #285, .T. ) ;
#116 = ORIENTED_EDGE ( 'NONE', *, *, #278, .T. ) ;
#117 = AXIS2_PLACEMENT_3D ( 'NONE', #118, #283, #261 ) ;
#118 = CARTESIAN_POINT ( 'NONE',  ( 0.000000000000000000, 0.000000000000000000, 0.000000000000000000 ) ) ;
#119 = LINE ( 'NONE', #307, #39 ) ;
#120 = EDGE_CURVE ( 'NONE', #55, #294, #96, .T. ) ;
#121 = DIRECTION ( 'NONE',  ( -0.000000000000000000, -0.000000000000000000, -1.000000000000000000 ) ) ;
#122 = DIRECTION ( 'NONE',  ( 0.000000000000000000, 0.000000000000000000, 1.000000000000000000 ) ) ;
#123 = CARTESIAN_POINT ( 'NONE',  ( -2.000000000000000000, 0.000000000000000000, 3.199999999999980638 ) ) ;
#124 = ADVANCED_FACE ( 'NONE', ( #35 ), #1, .T. ) ;
#125 = DIRECTION ( 'NONE',  ( -1.000000000000000000, 0.000000000000000000, 0.000000000000000000 ) ) ;
#126 = DIRECTION ( 'NONE',  ( 1.224646799147353207E-16, 1.000000000000000000, -0.000000000000000000 ) ) ;
#127 = AXIS2_PLACEMENT_3D ( 'NONE', #304, #305, #256 ) ;
#128 = CC_DESIGN_APPROVAL ( #293, ( #145 ) ) ;
#129 = CARTESIAN_POINT ( 'NONE',  ( -2.000000000000000000, 0.000000000000000000, 1002.999999999999886 ) ) ;
#130 = EDGE_CURVE ( 'NONE', #194, #294, #251, .T. ) ;
#131 = CARTESIAN_POINT ( 'NONE',  ( -4.000000000000000000, 0.000000000000000000, 3.000000000000000000 ) ) ;
#132 = CARTESIAN_POINT ( 'NONE',  ( 0.000000000000000000, 0.000000000000000000, 0.000000000000000000 ) ) ;
#133 = PERSON_AND_ORGANIZATION ( #38, #136 ) ;
#134 = EDGE_LOOP ( 'NONE', ( #195, #116, #20, #168 ) ) ;
#135 = APPROVAL_STATUS ( 'not_yet_approved' ) ;
#136 = ORGANIZATION ( 'NEURÈENÝ', 'NEURÈENÝ', '' ) ;
#137 = PERSON_AND_ORGANIZATION ( #38, #136 ) ;
#138 = EDGE_CURVE ( 'NONE', #191, #93, #63, .T. ) ;
#139 = PERSON_AND_ORGANIZATION_ROLE ( 'creator' ) ;
#140 = ORIENTED_EDGE ( 'NONE', *, *, #95, .F. ) ;
#141 = PRODUCT_RELATED_PRODUCT_CATEGORY ( 'detail', '', ( #286 ) ) ;
#142 = PRODUCT_DEFINITION_SHAPE ( 'NONE', 'NONE',  #147 ) ;
#143 = EDGE_LOOP ( 'NONE', ( #164, #196, #253, #28 ) ) ;
#144 = CIRCLE ( 'NONE', #255, 2.200000000000000178 ) ;
#145 = SECURITY_CLASSIFICATION ( '', '', #49 ) ;
#146 = CARTESIAN_POINT ( 'NONE',  ( 0.000000000000000000, 0.000000000000000000, 3.000000000000000000 ) ) ;
#147 = PRODUCT_DEFINITION ( 'NEZNÁMÝ', '', #214, #281 ) ;
#148 = EDGE_LOOP ( 'NONE', ( #140, #212 ) ) ;
#149 = CYLINDRICAL_SURFACE ( 'NONE', #22, 2.000000000000000000 ) ;
#150 = UNCERTAINTY_MEASURE_WITH_UNIT (LENGTH_MEASURE( 1.000000000000000082E-05 ), #180, 'distance_accuracy_value', 'NONE');
#151 = EDGE_CURVE ( 'NONE', #294, #194, #144, .T. ) ;
#152 = VECTOR ( 'NONE', #267, 1000.000000000000000 ) ;
#153 = DIRECTION ( 'NONE',  ( 1.000000000000000000, 0.000000000000000000, 0.000000000000000000 ) ) ;
#154 = AXIS2_PLACEMENT_3D ( 'NONE', #85, #156, #101 ) ;
#155 = DIRECTION ( 'NONE',  ( 1.000000000000000000, 0.000000000000000000, 0.000000000000000000 ) ) ;
#156 = DIRECTION ( 'NONE',  ( -0.000000000000000000, -0.000000000000000000, -1.000000000000000000 ) ) ;
#157 = DIRECTION ( 'NONE',  ( -0.000000000000000000, -0.000000000000000000, -1.000000000000000000 ) ) ;
#158 = CARTESIAN_POINT ( 'NONE',  ( 0.000000000000000000, 0.000000000000000000, 3.000000000000000000 ) ) ;
#159 = DATE_TIME_ROLE ( 'classification_date' ) ;
#160 = PERSON_AND_ORGANIZATION_ROLE ( 'design_owner' ) ;
#161 = CALENDAR_DATE ( 2022, 20, 6 ) ;
#162 = CIRCLE ( 'NONE', #275, 2.000000000000000000 ) ;
#163 = APPROVAL_DATE_TIME ( #41, #45 ) ;
#164 = ORIENTED_EDGE ( 'NONE', *, *, #9, .F. ) ;
#165 = DIRECTION ( 'NONE',  ( 1.000000000000000000, 0.000000000000000000, -0.000000000000000000 ) ) ;
#166 = AXIS2_PLACEMENT_3D ( 'NONE', #146, #219, #173 ) ;
#167 = FACE_OUTER_BOUND ( 'NONE', #73, .T. ) ;
#168 = ORIENTED_EDGE ( 'NONE', *, *, #138, .F. ) ;
#169 = ORIENTED_EDGE ( 'NONE', *, *, #8, .F. ) ;
#170 = CARTESIAN_POINT ( 'NONE',  ( 2.000000000000000000, 2.449293598294706414E-16, 1002.999999999999886 ) ) ;
#171 = CYLINDRICAL_SURFACE ( 'NONE', #154, 4.000000000000000000 ) ;
#172 = ADVANCED_FACE ( 'NONE', ( #29 ), #81, .T. ) ;
#173 = DIRECTION ( 'NONE',  ( 1.000000000000000000, 0.000000000000000000, 0.000000000000000000 ) ) ;
#174 = ADVANCED_FACE ( 'NONE', ( #220 ), #240, .F. ) ;
#175 = CC_DESIGN_PERSON_AND_ORGANIZATION_ASSIGNMENT ( #10, #181, ( #145 ) ) ;
#176 = DIRECTION ( 'NONE',  ( 0.000000000000000000, 0.000000000000000000, 1.000000000000000000 ) ) ;
#177 = CIRCLE ( 'NONE', #14, 2.000000000000000000 ) ;
#178 = VECTOR ( 'NONE', #30, 1000.000000000000000 ) ;
#179 = CARTESIAN_POINT ( 'NONE',  ( 4.000000000000000000, 4.898587196589412829E-16, 3.000000000000000000 ) ) ;
#180 =( LENGTH_UNIT ( ) NAMED_UNIT ( * ) SI_UNIT ( .MILLI., .METRE. ) );
#181 = PERSON_AND_ORGANIZATION_ROLE ( 'classification_officer' ) ;
#182 = AXIS2_PLACEMENT_3D ( 'NONE', #158, #82, #105 ) ;
#183 = CALENDAR_DATE ( 2022, 20, 6 ) ;
#184 = EDGE_LOOP ( 'NONE', ( #223, #235 ) ) ;
#185 = EDGE_CURVE ( 'NONE', #296, #90, #70, .T. ) ;
#186 = APPROVAL_DATE_TIME ( #205, #52 ) ;
#187 = CLOSED_SHELL ( 'NONE', ( #289, #172, #224, #273, #108, #91, #80, #124, #174 ) ) ;
#188 = APPROVAL_STATUS ( 'not_yet_approved' ) ;
#189 = CC_DESIGN_DATE_AND_TIME_ASSIGNMENT ( #89, #114, ( #147 ) ) ;
#190 = DIRECTION ( 'NONE',  ( -0.000000000000000000, -0.000000000000000000, -1.000000000000000000 ) ) ;
#191 = VERTEX_POINT ( 'NONE', #266 ) ;
#192 = CIRCLE ( 'NONE', #57, 4.000000000000000000 ) ;
#193 = AXIS2_PLACEMENT_3D ( 'NONE', #217, #176, #34 ) ;
#194 = VERTEX_POINT ( 'NONE', #262 ) ;
#195 = ORIENTED_EDGE ( 'NONE', *, *, #37, .F. ) ;
#196 = ORIENTED_EDGE ( 'NONE', *, *, #120, .T. ) ;
#197 = FACE_OUTER_BOUND ( 'NONE', #21, .T. ) ;
#198 = LOCAL_TIME ( 12, 8, 42.00000000000000000, #12 ) ;
#199 = CARTESIAN_POINT ( 'NONE',  ( 2.000000000000000000, 2.449293598294706414E-16, 3.199999999999980638 ) ) ;
#200 = CC_DESIGN_PERSON_AND_ORGANIZATION_ASSIGNMENT ( #137, #139, ( #147 ) ) ;
#201 = DIRECTION ( 'NONE',  ( -0.000000000000000000, -0.000000000000000000, -1.000000000000000000 ) ) ;
#202 = CYLINDRICAL_SURFACE ( 'NONE', #300, 4.000000000000000000 ) ;
#203 = EDGE_CURVE ( 'NONE', #302, #93, #16, .T. ) ;
#204 = ORIENTED_EDGE ( 'NONE', *, *, #86, .F. ) ;
#205 = DATE_AND_TIME ( #183, #198 ) ;
#206 = ORIENTED_EDGE ( 'NONE', *, *, #9, .T. ) ;
#207 = AXIS2_PLACEMENT_3D ( 'NONE', #104, #241, #5 ) ;
#208 = APPLICATION_PROTOCOL_DEFINITION ( 'international standard', 'config_control_design', 1994, #11 ) ;
#209 = VERTEX_POINT ( 'NONE', #199 ) ;
#210 = CIRCLE ( 'NONE', #127, 2.000000000000000000 ) ;
#211 = PLANE ( 'NONE',  #259 ) ;
#212 = ORIENTED_EDGE ( 'NONE', *, *, #203, .F. ) ;
#213 = PLANE ( 'NONE',  #117 ) ;
#214 = PRODUCT_DEFINITION_FORMATION_WITH_SPECIFIED_SOURCE ( 'LIBOVOLNÝ', '', #286, .NOT_KNOWN. ) ;
#215 = DIRECTION ( 'NONE',  ( 0.000000000000000000, 0.000000000000000000, 1.000000000000000000 ) ) ;
#216 = EDGE_LOOP ( 'NONE', ( #56, #111 ) ) ;
#217 = CARTESIAN_POINT ( 'NONE',  ( 0.000000000000000000, 0.000000000000000000, 1002.999999999999886 ) ) ;
#218 = DIRECTION ( 'NONE',  ( -1.000000000000000000, 0.000000000000000000, 0.000000000000000000 ) ) ;
#219 = DIRECTION ( 'NONE',  ( 0.000000000000000000, 0.000000000000000000, 1.000000000000000000 ) ) ;
#220 = FACE_OUTER_BOUND ( 'NONE', #254, .T. ) ;
#221 = CARTESIAN_POINT ( 'NONE',  ( 0.000000000000000000, 0.000000000000000000, 3.199999999999980638 ) ) ;
#222 = CARTESIAN_POINT ( 'NONE',  ( 0.000000000000000000, 0.000000000000000000, 0.000000000000000000 ) ) ;
#223 = ORIENTED_EDGE ( 'NONE', *, *, #130, .T. ) ;
#224 = ADVANCED_FACE ( 'NONE', ( #65 ), #202, .T. ) ;
#225 = CC_DESIGN_PERSON_AND_ORGANIZATION_ASSIGNMENT ( #276, #107, ( #214 ) ) ;
#226 = COORDINATED_UNIVERSAL_TIME_OFFSET ( 1, 0, .AHEAD. ) ;
#227 = MANIFOLD_SOLID_BREP ( 'Zaoblit1', #187 ) ;
#228 = APPROVAL_PERSON_ORGANIZATION ( #231, #45, #19 ) ;
#229 = LOCAL_TIME ( 12, 8, 42.00000000000000000, #297 ) ;
#230 = PERSON_AND_ORGANIZATION_ROLE ( 'creator' ) ;
#231 = PERSON_AND_ORGANIZATION ( #38, #136 ) ;
#232 = ORIENTED_EDGE ( 'NONE', *, *, #138, .T. ) ;
#233 = ORIENTED_EDGE ( 'NONE', *, *, #86, .T. ) ;
#234 = CARTESIAN_POINT ( 'NONE',  ( 0.000000000000000000, 0.000000000000000000, 1002.999999999999886 ) ) ;
#235 = ORIENTED_EDGE ( 'NONE', *, *, #151, .T. ) ;
#236 = FACE_OUTER_BOUND ( 'NONE', #148, .T. ) ;
#237 = CARTESIAN_POINT ( 'NONE',  ( -4.000000000000000000, 0.000000000000000000, 0.000000000000000000 ) ) ;
#238 = FACE_BOUND ( 'NONE', #184, .T. ) ;
#239 = LINE ( 'NONE', #179, #178 ) ;
#240 = TOROIDAL_SURFACE ( 'NONE', #46, 2.200000000000000178, 0.2000000000000000111 ) ;
#241 = DIRECTION ( 'NONE',  ( 0.000000000000000000, 0.000000000000000000, 1.000000000000000000 ) ) ;
#242 = CARTESIAN_POINT ( 'NONE',  ( 0.000000000000000000, 0.000000000000000000, 3.000000000000000000 ) ) ;
#243 = DIRECTION ( 'NONE',  ( -0.000000000000000000, -0.000000000000000000, -1.000000000000000000 ) ) ;
#244 = PERSON_AND_ORGANIZATION ( #38, #136 ) ;
#245 = APPROVAL_STATUS ( 'not_yet_approved' ) ;
#246 = VERTEX_POINT ( 'NONE', #263 ) ;
#247 = CC_DESIGN_PERSON_AND_ORGANIZATION_ASSIGNMENT ( #133, #230, ( #214 ) ) ;
#248 = APPROVAL_ROLE ( '' ) ;
#249 = ORIENTED_EDGE ( 'NONE', *, *, #115, .F. ) ;
#250 = APPROVAL_DATE_TIME ( #47, #293 ) ;
#251 = CIRCLE ( 'NONE', #182, 2.200000000000000178 ) ;
#252 = APPLICATION_PROTOCOL_DEFINITION ( 'international standard', 'config_control_design', 1994, #301 ) ;
#253 = ORIENTED_EDGE ( 'NONE', *, *, #130, .F. ) ;
#254 = EDGE_LOOP ( 'NONE', ( #298, #204, #68, #51 ) ) ;
#255 = AXIS2_PLACEMENT_3D ( 'NONE', #242, #201, #287 ) ;
#256 = DIRECTION ( 'NONE',  ( 1.000000000000000000, 0.000000000000000000, 0.000000000000000000 ) ) ;
#257 = DIRECTION ( 'NONE',  ( -0.000000000000000000, -0.000000000000000000, -1.000000000000000000 ) ) ;
#258 = ORIENTED_EDGE ( 'NONE', *, *, #185, .F. ) ;
#259 = AXIS2_PLACEMENT_3D ( 'NONE', #99, #277, #165 ) ;
#260 = TOROIDAL_SURFACE ( 'NONE', #66, 2.200000000000000178, 0.2000000000000000111 ) ;
#261 = DIRECTION ( 'NONE',  ( 1.000000000000000000, 0.000000000000000000, -0.000000000000000000 ) ) ;
#262 = CARTESIAN_POINT ( 'NONE',  ( 2.200000000000000178, 0.000000000000000000, 2.999999999999990674 ) ) ;
#263 = CARTESIAN_POINT ( 'NONE',  ( 4.000000000000000000, 4.898587196589412829E-16, 3.000000000000000000 ) ) ;
#264 = AXIS2_PLACEMENT_3D ( 'NONE', #132, #103, #61 ) ;
#265 =( GEOMETRIC_REPRESENTATION_CONTEXT ( 3 ) GLOBAL_UNCERTAINTY_ASSIGNED_CONTEXT ( ( #150 ) ) GLOBAL_UNIT_ASSIGNED_CONTEXT ( ( #180, #88, #269 ) ) REPRESENTATION_CONTEXT ( 'NONE', 'WORKASPACE' ) );
#266 = CARTESIAN_POINT ( 'NONE',  ( -4.000000000000000000, 0.000000000000000000, 3.000000000000000000 ) ) ;
#267 = DIRECTION ( 'NONE',  ( -0.000000000000000000, -0.000000000000000000, -1.000000000000000000 ) ) ;
#268 = CALENDAR_DATE ( 2022, 20, 6 ) ;
#269 =( NAMED_UNIT ( * ) SI_UNIT ( $, .STERADIAN. ) SOLID_ANGLE_UNIT ( ) );
#270 = ORIENTED_EDGE ( 'NONE', *, *, #32, .F. ) ;
#271 = DATE_AND_TIME ( #268, #23 ) ;
#272 = ORIENTED_EDGE ( 'NONE', *, *, #31, .F. ) ;
#273 = ADVANCED_FACE ( 'NONE', ( #197 ), #171, .T. ) ;
#274 = ORIENTED_EDGE ( 'NONE', *, *, #37, .T. ) ;
#275 = AXIS2_PLACEMENT_3D ( 'NONE', #25, #215, #153 ) ;
#276 = PERSON_AND_ORGANIZATION ( #38, #136 ) ;
#277 = DIRECTION ( 'NONE',  ( 0.000000000000000000, 0.000000000000000000, 1.000000000000000000 ) ) ;
#278 = EDGE_CURVE ( 'NONE', #246, #302, #239, .T. ) ;
#279 = CARTESIAN_POINT ( 'NONE',  ( -2.000000000000000000, 0.000000000000000000, 1002.999999999999886 ) ) ;
#280 = VECTOR ( 'NONE', #121, 1000.000000000000000 ) ;
#281 = DESIGN_CONTEXT ( 'detailed design', #11, 'design' ) ;
#282 = LINE ( 'NONE', #279, #280 ) ;
#283 = DIRECTION ( 'NONE',  ( 0.000000000000000000, 0.000000000000000000, 1.000000000000000000 ) ) ;
#284 = DIRECTION ( 'NONE',  ( -1.000000000000000000, 0.000000000000000000, 0.000000000000000000 ) ) ;
#285 = CIRCLE ( 'NONE', #166, 4.000000000000000000 ) ;
#286 = PRODUCT ( 'd71f', 'd71f', '', ( #42 ) ) ;
#287 = DIRECTION ( 'NONE',  ( 1.000000000000000000, 0.000000000000000000, 0.000000000000000000 ) ) ;
#288 = CARTESIAN_POINT ( 'NONE',  ( -2.200000000000000178, 2.694222958124177006E-16, 2.999999999999990674 ) ) ;
#289 = ADVANCED_FACE ( 'NONE', ( #64 ), #260, .F. ) ;
#290 = CARTESIAN_POINT ( 'NONE',  ( 0.000000000000000000, 0.000000000000000000, 3.199999999999980638 ) ) ;
#291 = CARTESIAN_POINT ( 'NONE',  ( 0.000000000000000000, 0.000000000000000000, 3.000000000000000000 ) ) ;
#292 = CARTESIAN_POINT ( 'NONE',  ( 0.000000000000000000, 0.000000000000000000, 1002.999999999999886 ) ) ;
#293 = APPROVAL ( #245, 'NEURÈENÝ' ) ;
#294 = VERTEX_POINT ( 'NONE', #288 ) ;
#295 = COORDINATED_UNIVERSAL_TIME_OFFSET ( 1, 0, .AHEAD. ) ;
#296 = VERTEX_POINT ( 'NONE', #129 ) ;
#297 = COORDINATED_UNIVERSAL_TIME_OFFSET ( 1, 0, .AHEAD. ) ;
#298 = ORIENTED_EDGE ( 'NONE', *, *, #120, .F. ) ;
#299 = ORIENTED_EDGE ( 'NONE', *, *, #278, .F. ) ;
#300 = AXIS2_PLACEMENT_3D ( 'NONE', #291, #243, #125 ) ;
#301 = APPLICATION_CONTEXT ( 'configuration controlled 3d designs of mechanical parts and assemblies' ) ;
#302 = VERTEX_POINT ( 'NONE', #36 ) ;
#303 = ADVANCED_BREP_SHAPE_REPRESENTATION ( 'd71f', ( #227, #102 ), #265 ) ;
#304 = CARTESIAN_POINT ( 'NONE',  ( 0.000000000000000000, 0.000000000000000000, 1002.999999999999886 ) ) ;
#305 = DIRECTION ( 'NONE',  ( 0.000000000000000000, 0.000000000000000000, 1.000000000000000000 ) ) ;
#306 = FACE_OUTER_BOUND ( 'NONE', #71, .T. ) ;
#307 = CARTESIAN_POINT ( 'NONE',  ( 2.000000000000000000, 2.449293598294706414E-16, 1002.999999999999886 ) ) ;
ENDSEC;
END-ISO-10303-21;
