ISO-10303-21;
HEADER;
FILE_DESCRIPTION (( 'STEP AP203' ),
    '1' );
FILE_NAME ('5d59.STEP',
    '2022-06-20T09:16:45',
    ( '' ),
    ( '' ),
    'SwSTEP 2.0',
    'SolidWorks 2019',
    '' );
FILE_SCHEMA (( 'CONFIG_CONTROL_DESIGN' ));
ENDSEC;

DATA;
#1 = MECHANICAL_CONTEXT ( 'NONE', #150, 'mechanical' ) ;
#2 = VECTOR ( 'NONE', #46, 1000.000000000000000 ) ;
#3 = EDGE_LOOP ( 'NONE', ( #294, #251 ) ) ;
#4 = DIRECTION ( 'NONE',  ( 0.000000000000000000, 0.000000000000000000, 1.000000000000000000 ) ) ;
#5 = DIRECTION ( 'NONE',  ( 1.000000000000000000, 0.000000000000000000, -0.000000000000000000 ) ) ;
#6 = VERTEX_POINT ( 'NONE', #79 ) ;
#7 = PERSON_AND_ORGANIZATION_ROLE ( 'design_supplier' ) ;
#8 = APPROVAL_PERSON_ORGANIZATION ( #176, #254, #163 ) ;
#9 = EDGE_CURVE ( 'NONE', #107, #194, #178, .T. ) ;
#10 = EDGE_LOOP ( 'NONE', ( #25, #155 ) ) ;
#11 = SECURITY_CLASSIFICATION_LEVEL ( 'unclassified' ) ;
#12 = CARTESIAN_POINT ( 'NONE',  ( 0.000000000000000000, 0.000000000000000000, 10.00000000000000000 ) ) ;
#13 = DIRECTION ( 'NONE',  ( 1.000000000000000000, 0.000000000000000000, -0.000000000000000000 ) ) ;
#14 = VECTOR ( 'NONE', #16, 1000.000000000000000 ) ;
#15 = ORIENTED_EDGE ( 'NONE', *, *, #116, .F. ) ;
#16 = DIRECTION ( 'NONE',  ( -0.000000000000000000, -0.000000000000000000, -1.000000000000000000 ) ) ;
#17 = CARTESIAN_POINT ( 'NONE',  ( -16.00000000000000000, 0.000000000000000000, 170.0000000000000000 ) ) ;
#18 = DESIGN_CONTEXT ( 'detailed design', #196, 'design' ) ;
#19 = EDGE_CURVE ( 'NONE', #30, #170, #279, .T. ) ;
#20 = CIRCLE ( 'NONE', #192, 16.00000000000000000 ) ;
#21 = CARTESIAN_POINT ( 'NONE',  ( 0.000000000000000000, 0.000000000000000000, 10.00000000000000000 ) ) ;
#22 = SECURITY_CLASSIFICATION ( '', '', #11 ) ;
#23 = ORIENTED_EDGE ( 'NONE', *, *, #189, .F. ) ;
#24 = APPLICATION_PROTOCOL_DEFINITION ( 'international standard', 'config_control_design', 1994, #196 ) ;
#25 = ORIENTED_EDGE ( 'NONE', *, *, #63, .F. ) ;
#26 = VECTOR ( 'NONE', #38, 1000.000000000000000 ) ;
#27 = ORIENTED_EDGE ( 'NONE', *, *, #171, .T. ) ;
#28 = CALENDAR_DATE ( 2022, 20, 6 ) ;
#29 = APPROVAL_STATUS ( 'not_yet_approved' ) ;
#30 = VERTEX_POINT ( 'NONE', #227 ) ;
#31 = VERTEX_POINT ( 'NONE', #250 ) ;
#32 = DATE_TIME_ROLE ( 'creation_date' ) ;
#33 = APPROVAL_PERSON_ORGANIZATION ( #263, #209, #245 ) ;
#34 = FACE_OUTER_BOUND ( 'NONE', #10, .T. ) ;
#35 = AXIS2_PLACEMENT_3D ( 'NONE', #12, #36, #175 ) ;
#36 = DIRECTION ( 'NONE',  ( -0.000000000000000000, -0.000000000000000000, -1.000000000000000000 ) ) ;
#37 = APPROVAL ( #228, 'NEURÈENÝ' ) ;
#38 = DIRECTION ( 'NONE',  ( -0.000000000000000000, -0.000000000000000000, -1.000000000000000000 ) ) ;
#39 = AXIS2_PLACEMENT_3D ( 'NONE', #21, #70, #258 ) ;
#40 = ORGANIZATION ( 'NEURÈENÝ', 'NEURÈENÝ', '' ) ;
#41 = APPROVAL_DATE_TIME ( #255, #254 ) ;
#42 = DIRECTION ( 'NONE',  ( 0.000000000000000000, 0.000000000000000000, 1.000000000000000000 ) ) ;
#43 = DATE_TIME_ROLE ( 'classification_date' ) ;
#44 = PLANE ( 'NONE',  #47 ) ;
#45 = ADVANCED_FACE ( 'NONE', ( #232 ), #201, .T. ) ;
#46 = DIRECTION ( 'NONE',  ( -0.000000000000000000, -0.000000000000000000, -1.000000000000000000 ) ) ;
#47 = AXIS2_PLACEMENT_3D ( 'NONE', #138, #211, #301 ) ;
#48 = PRODUCT_RELATED_PRODUCT_CATEGORY ( 'detail', '', ( #272 ) ) ;
#49 = PERSON_AND_ORGANIZATION ( #246, #40 ) ;
#50 = LOCAL_TIME ( 11, 16, 45.00000000000000000, #233 ) ;
#51 = ORIENTED_EDGE ( 'NONE', *, *, #206, .T. ) ;
#52 = DATE_AND_TIME ( #307, #106 ) ;
#53 = CARTESIAN_POINT ( 'NONE',  ( 0.000000000000000000, 0.000000000000000000, 10.20000000000001528 ) ) ;
#54 = ORIENTED_EDGE ( 'NONE', *, *, #90, .F. ) ;
#55 = FACE_BOUND ( 'NONE', #3, .T. ) ;
#56 = DIRECTION ( 'NONE',  ( -0.000000000000000000, -0.000000000000000000, -1.000000000000000000 ) ) ;
#57 = CIRCLE ( 'NONE', #35, 16.19999999999999929 ) ;
#58 = ORIENTED_EDGE ( 'NONE', *, *, #63, .T. ) ;
#59 = DIRECTION ( 'NONE',  ( 0.000000000000000000, 0.000000000000000000, 1.000000000000000000 ) ) ;
#60 = AXIS2_PLACEMENT_3D ( 'NONE', #234, #164, #112 ) ;
#61 = AXIS2_PLACEMENT_3D ( 'NONE', #144, #148, #5 ) ;
#62 = CYLINDRICAL_SURFACE ( 'NONE', #84, 20.00000000000000000 ) ;
#63 = EDGE_CURVE ( 'NONE', #64, #194, #212, .T. ) ;
#64 = VERTEX_POINT ( 'NONE', #299 ) ;
#65 = DIRECTION ( 'NONE',  ( -0.000000000000000000, -0.000000000000000000, -1.000000000000000000 ) ) ;
#66 = VECTOR ( 'NONE', #282, 1000.000000000000000 ) ;
#67 = ADVANCED_FACE ( 'NONE', ( #34 ), #156, .F. ) ;
#68 = CARTESIAN_POINT ( 'NONE',  ( 16.00000000000000000, 1.959434878635765131E-15, 170.0000000000000000 ) ) ;
#69 = PERSON_AND_ORGANIZATION ( #246, #40 ) ;
#70 = DIRECTION ( 'NONE',  ( 0.000000000000000000, 0.000000000000000000, 1.000000000000000000 ) ) ;
#71 = CC_DESIGN_PERSON_AND_ORGANIZATION_ASSIGNMENT ( #74, #190, ( #272 ) ) ;
#72 =( LENGTH_UNIT ( ) NAMED_UNIT ( * ) SI_UNIT ( .MILLI., .METRE. ) );
#73 = EDGE_CURVE ( 'NONE', #262, #265, #57, .T. ) ;
#74 = PERSON_AND_ORGANIZATION ( #246, #40 ) ;
#75 = ORIENTED_EDGE ( 'NONE', *, *, #189, .T. ) ;
#76 = DIRECTION ( 'NONE',  ( 1.000000000000000000, 0.000000000000000000, 0.000000000000000000 ) ) ;
#77 = CARTESIAN_POINT ( 'NONE',  ( 0.000000000000000000, 0.000000000000000000, 170.0000000000000000 ) ) ;
#78 = CC_DESIGN_SECURITY_CLASSIFICATION ( #22, ( #283 ) ) ;
#79 = CARTESIAN_POINT ( 'NONE',  ( 16.00000000000000000, 1.959434878635765131E-15, 10.20000000000001528 ) ) ;
#80 = CLOSED_SHELL ( 'NONE', ( #103, #45, #93, #264, #302, #67, #185, #235, #293 ) ) ;
#81 = EDGE_LOOP ( 'NONE', ( #273, #297, #182, #159 ) ) ;
#82 = DIRECTION ( 'NONE',  ( -1.000000000000000000, 1.224646799147353947E-16, 0.000000000000000000 ) ) ;
#83 = FACE_OUTER_BOUND ( 'NONE', #253, .T. ) ;
#84 = AXIS2_PLACEMENT_3D ( 'NONE', #252, #56, #132 ) ;
#85 = DIRECTION ( 'NONE',  ( 0.000000000000000000, 0.000000000000000000, 1.000000000000000000 ) ) ;
#86 = LINE ( 'NONE', #136, #2 ) ;
#87 = APPROVAL_PERSON_ORGANIZATION ( #134, #37, #281 ) ;
#88 = CARTESIAN_POINT ( 'NONE',  ( 16.19999999999999929, 0.000000000000000000, 10.20000000000001528 ) ) ;
#89 = DIRECTION ( 'NONE',  ( 0.000000000000000000, 0.000000000000000000, -1.000000000000000000 ) ) ;
#90 = EDGE_CURVE ( 'NONE', #31, #262, #114, .T. ) ;
#91 = CC_DESIGN_APPROVAL ( #37, ( #283 ) ) ;
#92 = EDGE_LOOP ( 'NONE', ( #306, #118, #75, #58 ) ) ;
#93 = ADVANCED_FACE ( 'NONE', ( #277 ), #62, .T. ) ;
#94 = DATE_AND_TIME ( #28, #214 ) ;
#95 = ORIENTED_EDGE ( 'NONE', *, *, #19, .F. ) ;
#96 = FACE_OUTER_BOUND ( 'NONE', #241, .T. ) ;
#97 = CIRCLE ( 'NONE', #247, 20.00000000000000000 ) ;
#98 = ORIENTED_EDGE ( 'NONE', *, *, #90, .T. ) ;
#99 = APPROVAL_STATUS ( 'not_yet_approved' ) ;
#100 = DIRECTION ( 'NONE',  ( 1.000000000000000000, 0.000000000000000000, 0.000000000000000000 ) ) ;
#101 = PERSON_AND_ORGANIZATION ( #246, #40 ) ;
#102 = AXIS2_PLACEMENT_3D ( 'NONE', #296, #180, #274 ) ;
#103 = ADVANCED_FACE ( 'NONE', ( #83 ), #139, .F. ) ;
#104 = CARTESIAN_POINT ( 'NONE',  ( -16.19999999999999929, 1.983927814618711846E-15, 10.20000000000001528 ) ) ;
#105 = DIRECTION ( 'NONE',  ( 1.000000000000000000, 0.000000000000000000, 0.000000000000000000 ) ) ;
#106 = LOCAL_TIME ( 11, 16, 45.00000000000000000, #218 ) ;
#107 = VERTEX_POINT ( 'NONE', #151 ) ;
#108 = EDGE_CURVE ( 'NONE', #6, #265, #165, .T. ) ;
#109 = DATE_AND_TIME ( #257, #231 ) ;
#110 = CYLINDRICAL_SURFACE ( 'NONE', #60, 16.00000000000000000 ) ;
#111 = DIRECTION ( 'NONE',  ( 0.000000000000000000, 0.000000000000000000, 1.000000000000000000 ) ) ;
#112 = DIRECTION ( 'NONE',  ( -1.000000000000000000, 0.000000000000000000, 0.000000000000000000 ) ) ;
#113 = CC_DESIGN_PERSON_AND_ORGANIZATION_ASSIGNMENT ( #101, #203, ( #22 ) ) ;
#114 = CIRCLE ( 'NONE', #239, 0.1999999999999987899 ) ;
#115 = EDGE_LOOP ( 'NONE', ( #217, #95, #27, #122 ) ) ;
#116 = EDGE_CURVE ( 'NONE', #265, #262, #304, .T. ) ;
#117 = FACE_OUTER_BOUND ( 'NONE', #224, .T. ) ;
#118 = ORIENTED_EDGE ( 'NONE', *, *, #177, .F. ) ;
#119 = ORIENTED_EDGE ( 'NONE', *, *, #177, .T. ) ;
#120 = CARTESIAN_POINT ( 'NONE',  ( 0.000000000000000000, 0.000000000000000000, 10.00000000000000000 ) ) ;
#121 = CC_DESIGN_APPROVAL ( #209, ( #153 ) ) ;
#122 = ORIENTED_EDGE ( 'NONE', *, *, #149, .T. ) ;
#123 = DIRECTION ( 'NONE',  ( -0.000000000000000000, -0.000000000000000000, -1.000000000000000000 ) ) ;
#124 = COORDINATED_UNIVERSAL_TIME_OFFSET ( 1, 0, .AHEAD. ) ;
#125 = MANIFOLD_SOLID_BREP ( 'Zaoblit1', #80 ) ;
#126 = ORIENTED_EDGE ( 'NONE', *, *, #288, .T. ) ;
#127 = ORIENTED_EDGE ( 'NONE', *, *, #206, .F. ) ;
#128 = COORDINATED_UNIVERSAL_TIME_OFFSET ( 1, 0, .AHEAD. ) ;
#129 = CC_DESIGN_PERSON_AND_ORGANIZATION_ASSIGNMENT ( #69, #7, ( #283 ) ) ;
#130 = CARTESIAN_POINT ( 'NONE',  ( 0.000000000000000000, 0.000000000000000000, 0.000000000000000000 ) ) ;
#131 = AXIS2_PLACEMENT_3D ( 'NONE', #130, #229, #13 ) ;
#132 = DIRECTION ( 'NONE',  ( -1.000000000000000000, 0.000000000000000000, 0.000000000000000000 ) ) ;
#133 = ORIENTED_EDGE ( 'NONE', *, *, #149, .F. ) ;
#134 = PERSON_AND_ORGANIZATION ( #246, #40 ) ;
#135 = FACE_OUTER_BOUND ( 'NONE', #115, .T. ) ;
#136 = CARTESIAN_POINT ( 'NONE',  ( -20.00000000000000000, 0.000000000000000000, 10.00000000000000000 ) ) ;
#137 = CALENDAR_DATE ( 2022, 20, 6 ) ;
#138 = CARTESIAN_POINT ( 'NONE',  ( 0.000000000000000000, 0.000000000000000000, 170.0000000000000000 ) ) ;
#139 = TOROIDAL_SURFACE ( 'NONE', #179, 16.19999999999999929, 0.2000000000000000111 ) ;
#140 = FACE_OUTER_BOUND ( 'NONE', #92, .T. ) ;
#141 = AXIS2_PLACEMENT_3D ( 'NONE', #238, #42, #286 ) ;
#142 = AXIS2_PLACEMENT_3D ( 'NONE', #191, #147, #168 ) ;
#143 = ORIENTED_EDGE ( 'NONE', *, *, #19, .T. ) ;
#144 = CARTESIAN_POINT ( 'NONE',  ( 0.000000000000000000, 0.000000000000000000, 10.00000000000000000 ) ) ;
#145 = PRODUCT_DEFINITION_SHAPE ( 'NONE', 'NONE',  #153 ) ;
#146 = ORIENTED_EDGE ( 'NONE', *, *, #280, .T. ) ;
#147 = DIRECTION ( 'NONE',  ( 0.000000000000000000, 0.000000000000000000, 1.000000000000000000 ) ) ;
#148 = DIRECTION ( 'NONE',  ( 0.000000000000000000, 0.000000000000000000, 1.000000000000000000 ) ) ;
#149 = EDGE_CURVE ( 'NONE', #31, #6, #20, .T. ) ;
#150 = APPLICATION_CONTEXT ( 'configuration controlled 3d designs of mechanical parts and assemblies' ) ;
#151 = CARTESIAN_POINT ( 'NONE',  ( 20.00000000000000000, 2.449293598294706513E-15, 10.00000000000000000 ) ) ;
#152 = CARTESIAN_POINT ( 'NONE',  ( 20.00000000000000000, 2.449293598294706513E-15, 10.00000000000000000 ) ) ;
#153 = PRODUCT_DEFINITION ( 'NEZNÁMÝ', '', #283, #18 ) ;
#154 = SHAPE_DEFINITION_REPRESENTATION ( #145, #292 ) ;
#155 = ORIENTED_EDGE ( 'NONE', *, *, #288, .F. ) ;
#156 = PLANE ( 'NONE',  #131 ) ;
#157 = EDGE_CURVE ( 'NONE', #170, #6, #300, .T. ) ;
#158 = AXIS2_PLACEMENT_3D ( 'NONE', #88, #208, #89 ) ;
#159 = ORIENTED_EDGE ( 'NONE', *, *, #171, .F. ) ;
#160 = DATE_AND_TIME ( #137, #199 ) ;
#161 = CARTESIAN_POINT ( 'NONE',  ( 0.000000000000000000, 0.000000000000000000, 10.20000000000001528 ) ) ;
#162 = DIRECTION ( 'NONE',  ( 1.000000000000000000, 0.000000000000000000, 0.000000000000000000 ) ) ;
#163 = APPROVAL_ROLE ( '' ) ;
#164 = DIRECTION ( 'NONE',  ( -0.000000000000000000, -0.000000000000000000, -1.000000000000000000 ) ) ;
#165 = CIRCLE ( 'NONE', #158, 0.2000000000000005107 ) ;
#166 = CIRCLE ( 'NONE', #174, 16.00000000000000000 ) ;
#167 = UNCERTAINTY_MEASURE_WITH_UNIT (LENGTH_MEASURE( 1.000000000000000082E-05 ), #72, 'distance_accuracy_value', 'NONE');
#168 = DIRECTION ( 'NONE',  ( 1.000000000000000000, 0.000000000000000000, 0.000000000000000000 ) ) ;
#169 = DIRECTION ( 'NONE',  ( 1.000000000000000000, 0.000000000000000000, 0.000000000000000000 ) ) ;
#170 = VERTEX_POINT ( 'NONE', #260 ) ;
#171 = EDGE_CURVE ( 'NONE', #30, #31, #188, .T. ) ;
#172 = CARTESIAN_POINT ( 'NONE',  ( 16.19999999999999929, 0.000000000000000000, 10.00000000000000711 ) ) ;
#173 = DIRECTION ( 'NONE',  ( 0.000000000000000000, 0.000000000000000000, 1.000000000000000000 ) ) ;
#174 = AXIS2_PLACEMENT_3D ( 'NONE', #77, #173, #169 ) ;
#175 = DIRECTION ( 'NONE',  ( 1.000000000000000000, 0.000000000000000000, 0.000000000000000000 ) ) ;
#176 = PERSON_AND_ORGANIZATION ( #246, #40 ) ;
#177 = EDGE_CURVE ( 'NONE', #205, #107, #240, .T. ) ;
#178 = LINE ( 'NONE', #152, #26 ) ;
#179 = AXIS2_PLACEMENT_3D ( 'NONE', #248, #85, #162 ) ;
#180 = DIRECTION ( 'NONE',  ( -0.000000000000000000, -0.000000000000000000, -1.000000000000000000 ) ) ;
#181 = CIRCLE ( 'NONE', #39, 20.00000000000000000 ) ;
#182 = ORIENTED_EDGE ( 'NONE', *, *, #243, .T. ) ;
#183 = DIRECTION ( 'NONE',  ( 1.000000000000000000, 0.000000000000000000, 0.000000000000000000 ) ) ;
#184 = CARTESIAN_POINT ( 'NONE',  ( 20.00000000000000000, 2.449293598294706513E-15, 0.000000000000000000 ) ) ;
#185 = ADVANCED_FACE ( 'NONE', ( #135 ), #110, .T. ) ;
#186 = PERSON_AND_ORGANIZATION_ROLE ( 'creator' ) ;
#187 = CARTESIAN_POINT ( 'NONE',  ( 0.000000000000000000, 0.000000000000000000, 10.00000000000000000 ) ) ;
#188 = LINE ( 'NONE', #17, #66 ) ;
#189 = EDGE_CURVE ( 'NONE', #205, #64, #86, .T. ) ;
#190 = PERSON_AND_ORGANIZATION_ROLE ( 'design_owner' ) ;
#191 = CARTESIAN_POINT ( 'NONE',  ( 0.000000000000000000, 0.000000000000000000, 0.000000000000000000 ) ) ;
#192 = AXIS2_PLACEMENT_3D ( 'NONE', #161, #256, #303 ) ;
#193 = CARTESIAN_POINT ( 'NONE',  ( -16.19999999999999929, 1.983927814618711846E-15, 10.00000000000000711 ) ) ;
#194 = VERTEX_POINT ( 'NONE', #184 ) ;
#195 = DIRECTION ( 'NONE',  ( 0.000000000000000000, 0.000000000000000000, 1.000000000000000000 ) ) ;
#196 = APPLICATION_CONTEXT ( 'configuration controlled 3d designs of mechanical parts and assemblies' ) ;
#197 =( NAMED_UNIT ( * ) SI_UNIT ( $, .STERADIAN. ) SOLID_ANGLE_UNIT ( ) );
#198 = CC_DESIGN_DATE_AND_TIME_ASSIGNMENT ( #160, #43, ( #22 ) ) ;
#199 = LOCAL_TIME ( 11, 16, 45.00000000000000000, #285 ) ;
#200 = EDGE_LOOP ( 'NONE', ( #127, #278, #126, #23 ) ) ;
#201 = CYLINDRICAL_SURFACE ( 'NONE', #102, 16.00000000000000000 ) ;
#202 = AXIS2_PLACEMENT_3D ( 'NONE', #298, #271, #100 ) ;
#203 = PERSON_AND_ORGANIZATION_ROLE ( 'classification_officer' ) ;
#204 = DIRECTION ( 'NONE',  ( 1.224646799147353207E-16, 1.000000000000000000, -0.000000000000000000 ) ) ;
#205 = VERTEX_POINT ( 'NONE', #284 ) ;
#206 = EDGE_CURVE ( 'NONE', #107, #205, #181, .T. ) ;
#207 = CARTESIAN_POINT ( 'NONE',  ( 0.000000000000000000, 0.000000000000000000, 0.000000000000000000 ) ) ;
#208 = DIRECTION ( 'NONE',  ( 0.000000000000000000, -1.000000000000000000, 0.000000000000000000 ) ) ;
#209 = APPROVAL ( #29, 'NEURÈENÝ' ) ;
#210 = FACE_OUTER_BOUND ( 'NONE', #221, .T. ) ;
#211 = DIRECTION ( 'NONE',  ( 0.000000000000000000, 0.000000000000000000, 1.000000000000000000 ) ) ;
#212 = CIRCLE ( 'NONE', #259, 20.00000000000000000 ) ;
#213 = AXIS2_PLACEMENT_3D ( 'NONE', #236, #111, #222 ) ;
#214 = LOCAL_TIME ( 11, 16, 45.00000000000000000, #124 ) ;
#215 = ORIENTED_EDGE ( 'NONE', *, *, #73, .F. ) ;
#216 = PERSON_AND_ORGANIZATION_ROLE ( 'creator' ) ;
#217 = ORIENTED_EDGE ( 'NONE', *, *, #157, .F. ) ;
#218 = COORDINATED_UNIVERSAL_TIME_OFFSET ( 1, 0, .AHEAD. ) ;
#219 = ORIENTED_EDGE ( 'NONE', *, *, #243, .F. ) ;
#220 = CIRCLE ( 'NONE', #213, 16.00000000000000000 ) ;
#221 = EDGE_LOOP ( 'NONE', ( #143, #146 ) ) ;
#222 = DIRECTION ( 'NONE',  ( 1.000000000000000000, 0.000000000000000000, 0.000000000000000000 ) ) ;
#223 = APPROVAL_DATE_TIME ( #94, #209 ) ;
#224 = EDGE_LOOP ( 'NONE', ( #54, #219, #268, #215 ) ) ;
#225 = APPROVAL_DATE_TIME ( #109, #37 ) ;
#226 = CC_DESIGN_APPROVAL ( #254, ( #22 ) ) ;
#227 = CARTESIAN_POINT ( 'NONE',  ( -16.00000000000000000, 0.000000000000000000, 170.0000000000000000 ) ) ;
#228 = APPROVAL_STATUS ( 'not_yet_approved' ) ;
#229 = DIRECTION ( 'NONE',  ( 0.000000000000000000, 0.000000000000000000, 1.000000000000000000 ) ) ;
#230 = ORIENTED_EDGE ( 'NONE', *, *, #108, .F. ) ;
#231 = LOCAL_TIME ( 11, 16, 45.00000000000000000, #128 ) ;
#232 = FACE_OUTER_BOUND ( 'NONE', #81, .T. ) ;
#233 = COORDINATED_UNIVERSAL_TIME_OFFSET ( 1, 0, .AHEAD. ) ;
#234 = CARTESIAN_POINT ( 'NONE',  ( 0.000000000000000000, 0.000000000000000000, 170.0000000000000000 ) ) ;
#235 = ADVANCED_FACE ( 'NONE', ( #210 ), #44, .T. ) ;
#236 = CARTESIAN_POINT ( 'NONE',  ( 0.000000000000000000, 0.000000000000000000, 10.20000000000001528 ) ) ;
#237 = CALENDAR_DATE ( 2022, 20, 6 ) ;
#238 = CARTESIAN_POINT ( 'NONE',  ( 0.000000000000000000, 0.000000000000000000, 10.00000000000000000 ) ) ;
#239 = AXIS2_PLACEMENT_3D ( 'NONE', #104, #204, #82 ) ;
#240 = CIRCLE ( 'NONE', #141, 20.00000000000000000 ) ;
#241 = EDGE_LOOP ( 'NONE', ( #119, #51 ) ) ;
#242 = AXIS2_PLACEMENT_3D ( 'NONE', #53, #4, #76 ) ;
#243 = EDGE_CURVE ( 'NONE', #6, #31, #220, .T. ) ;
#244 = PLANE ( 'NONE',  #61 ) ;
#245 = APPROVAL_ROLE ( '' ) ;
#246 = PERSON ( 'NEURÈENÝ', 'NEURÈENÝ', 'NEURÈENÝ', ('NEURÈENÝ'), ('NEURÈENÝ'), ('NEURÈENÝ') ) ;
#247 = AXIS2_PLACEMENT_3D ( 'NONE', #270, #195, #291 ) ;
#248 = CARTESIAN_POINT ( 'NONE',  ( 0.000000000000000000, 0.000000000000000000, 10.20000000000001528 ) ) ;
#249 = PERSON_AND_ORGANIZATION ( #246, #40 ) ;
#250 = CARTESIAN_POINT ( 'NONE',  ( -16.00000000000000000, 0.000000000000000000, 10.20000000000001528 ) ) ;
#251 = ORIENTED_EDGE ( 'NONE', *, *, #73, .T. ) ;
#252 = CARTESIAN_POINT ( 'NONE',  ( 0.000000000000000000, 0.000000000000000000, 10.00000000000000000 ) ) ;
#253 = EDGE_LOOP ( 'NONE', ( #133, #98, #15, #230 ) ) ;
#254 = APPROVAL ( #99, 'NEURÈENÝ' ) ;
#255 = DATE_AND_TIME ( #237, #50 ) ;
#256 = DIRECTION ( 'NONE',  ( 0.000000000000000000, 0.000000000000000000, 1.000000000000000000 ) ) ;
#257 = CALENDAR_DATE ( 2022, 20, 6 ) ;
#258 = DIRECTION ( 'NONE',  ( 1.000000000000000000, 0.000000000000000000, 0.000000000000000000 ) ) ;
#259 = AXIS2_PLACEMENT_3D ( 'NONE', #207, #59, #105 ) ;
#260 = CARTESIAN_POINT ( 'NONE',  ( 16.00000000000000000, 1.959434878635765131E-15, 170.0000000000000000 ) ) ;
#261 = CC_DESIGN_DATE_AND_TIME_ASSIGNMENT ( #52, #32, ( #153 ) ) ;
#262 = VERTEX_POINT ( 'NONE', #193 ) ;
#263 = PERSON_AND_ORGANIZATION ( #246, #40 ) ;
#264 = ADVANCED_FACE ( 'NONE', ( #140 ), #267, .T. ) ;
#265 = VERTEX_POINT ( 'NONE', #172 ) ;
#266 =( NAMED_UNIT ( * ) PLANE_ANGLE_UNIT ( ) SI_UNIT ( $, .RADIAN. ) );
#267 = CYLINDRICAL_SURFACE ( 'NONE', #305, 20.00000000000000000 ) ;
#268 = ORIENTED_EDGE ( 'NONE', *, *, #108, .T. ) ;
#269 = DIRECTION ( 'NONE',  ( -1.000000000000000000, 0.000000000000000000, 0.000000000000000000 ) ) ;
#270 = CARTESIAN_POINT ( 'NONE',  ( 0.000000000000000000, 0.000000000000000000, 0.000000000000000000 ) ) ;
#271 = DIRECTION ( 'NONE',  ( 0.000000000000000000, 0.000000000000000000, 1.000000000000000000 ) ) ;
#272 = PRODUCT ( '5d59', '5d59', '', ( #1 ) ) ;
#273 = ORIENTED_EDGE ( 'NONE', *, *, #280, .F. ) ;
#274 = DIRECTION ( 'NONE',  ( -1.000000000000000000, 0.000000000000000000, 0.000000000000000000 ) ) ;
#275 = CC_DESIGN_PERSON_AND_ORGANIZATION_ASSIGNMENT ( #249, #186, ( #283 ) ) ;
#276 = TOROIDAL_SURFACE ( 'NONE', #242, 16.19999999999999929, 0.2000000000000000111 ) ;
#277 = FACE_OUTER_BOUND ( 'NONE', #200, .T. ) ;
#278 = ORIENTED_EDGE ( 'NONE', *, *, #9, .T. ) ;
#279 = CIRCLE ( 'NONE', #202, 16.00000000000000000 ) ;
#280 = EDGE_CURVE ( 'NONE', #170, #30, #166, .T. ) ;
#281 = APPROVAL_ROLE ( '' ) ;
#282 = DIRECTION ( 'NONE',  ( -0.000000000000000000, -0.000000000000000000, -1.000000000000000000 ) ) ;
#283 = PRODUCT_DEFINITION_FORMATION_WITH_SPECIFIED_SOURCE ( 'LIBOVOLNÝ', '', #272, .NOT_KNOWN. ) ;
#284 = CARTESIAN_POINT ( 'NONE',  ( -20.00000000000000000, 0.000000000000000000, 10.00000000000000000 ) ) ;
#285 = COORDINATED_UNIVERSAL_TIME_OFFSET ( 1, 0, .AHEAD. ) ;
#286 = DIRECTION ( 'NONE',  ( 1.000000000000000000, 0.000000000000000000, 0.000000000000000000 ) ) ;
#287 =( GEOMETRIC_REPRESENTATION_CONTEXT ( 3 ) GLOBAL_UNCERTAINTY_ASSIGNED_CONTEXT ( ( #167 ) ) GLOBAL_UNIT_ASSIGNED_CONTEXT ( ( #72, #266, #197 ) ) REPRESENTATION_CONTEXT ( 'NONE', 'WORKASPACE' ) );
#288 = EDGE_CURVE ( 'NONE', #194, #64, #97, .T. ) ;
#289 = AXIS2_PLACEMENT_3D ( 'NONE', #187, #65, #183 ) ;
#290 = APPLICATION_PROTOCOL_DEFINITION ( 'international standard', 'config_control_design', 1994, #150 ) ;
#291 = DIRECTION ( 'NONE',  ( 1.000000000000000000, 0.000000000000000000, 0.000000000000000000 ) ) ;
#292 = ADVANCED_BREP_SHAPE_REPRESENTATION ( '5d59', ( #125, #142 ), #287 ) ;
#293 = ADVANCED_FACE ( 'NONE', ( #117 ), #276, .F. ) ;
#294 = ORIENTED_EDGE ( 'NONE', *, *, #116, .T. ) ;
#295 = CC_DESIGN_PERSON_AND_ORGANIZATION_ASSIGNMENT ( #49, #216, ( #153 ) ) ;
#296 = CARTESIAN_POINT ( 'NONE',  ( 0.000000000000000000, 0.000000000000000000, 170.0000000000000000 ) ) ;
#297 = ORIENTED_EDGE ( 'NONE', *, *, #157, .T. ) ;
#298 = CARTESIAN_POINT ( 'NONE',  ( 0.000000000000000000, 0.000000000000000000, 170.0000000000000000 ) ) ;
#299 = CARTESIAN_POINT ( 'NONE',  ( -20.00000000000000000, 0.000000000000000000, 0.000000000000000000 ) ) ;
#300 = LINE ( 'NONE', #68, #14 ) ;
#301 = DIRECTION ( 'NONE',  ( 1.000000000000000000, 0.000000000000000000, -0.000000000000000000 ) ) ;
#302 = ADVANCED_FACE ( 'NONE', ( #55, #96 ), #244, .T. ) ;
#303 = DIRECTION ( 'NONE',  ( 1.000000000000000000, 0.000000000000000000, 0.000000000000000000 ) ) ;
#304 = CIRCLE ( 'NONE', #289, 16.19999999999999929 ) ;
#305 = AXIS2_PLACEMENT_3D ( 'NONE', #120, #123, #269 ) ;
#306 = ORIENTED_EDGE ( 'NONE', *, *, #9, .F. ) ;
#307 = CALENDAR_DATE ( 2022, 20, 6 ) ;
ENDSEC;
END-ISO-10303-21;
